  0
SECTION
  2
HEADER
  9
$ACADVER
  1
AC1015
  9
$ACADMAINTVER
 70
     6
  9
$DWGCODEPAGE
  3
ANSI_932
  9
$INSBASE
 10
0.0
 20
0.0
 30
0.0
  9
$EXTMIN
 10
411.0033944260394
 20
-227.965420563901
 30
-0.0000000349181948
  9
$EXTMAX
 10
988.6777609263317
 20
292.6758411178655
 30
0.0000000814935746
  9
$LIMMIN
 10
-702.9943929983127
 20
-294.4182664011993
  9
$LIMMAX
 10
332.0138001934742
 20
331.9377819446779
  9
$ORTHOMODE
 70
     0
  9
$REGENMODE
 70
     1
  9
$FILLMODE
 70
     1
  9
$QTEXTMODE
 70
     0
  9
$MIRRTEXT
 70
     0
  9
$LTSCALE
 40
7.0
  9
$ATTMODE
 70
     1
  9
$TEXTSIZE
 40
4.799999999999999
  9
$TRACEWID
 40
0.05
  9
$TEXTSTYLE
  7
DIMFONT
  9
$CLAYER
  8
DRAW2
  9
$CELTYPE
  6
BYLAYER
  9
$CECOLOR
 62
   256
  9
$CELTSCALE
 40
1.0
  9
$DISPSILH
 70
     0
  9
$DIMSCALE
 40
2.0
  9
$DIMASZ
 40
3.0
  9
$DIMEXO
 40
0.0
  9
$DIMDLI
 40
10.0
  9
$DIMRND
 40
0.0
  9
$DIMDLE
 40
0.0
  9
$DIMEXE
 40
1.0
  9
$DIMTP
 40
0.0
  9
$DIMTM
 40
0.0
  9
$DIMTXT
 40
3.2
  9
$DIMCEN
 40
0.0
  9
$DIMTSZ
 40
0.0
  9
$DIMTOL
 70
     0
  9
$DIMLIM
 70
     0
  9
$DIMTIH
 70
     0
  9
$DIMTOH
 70
     0
  9
$DIMSE1
 70
     0
  9
$DIMSE2
 70
     0
  9
$DIMTAD
 70
     3
  9
$DIMZIN
 70
     8
  9
$DIMBLK
  1

  9
$DIMASO
 70
     1
  9
$DIMSHO
 70
     1
  9
$DIMPOST
  1

  9
$DIMAPOST
  1

  9
$DIMALT
 70
     0
  9
$DIMALTD
 70
     2
  9
$DIMALTF
 40
25.4
  9
$DIMLFAC
 40
1.0
  9
$DIMTOFL
 70
     1
  9
$DIMTVP
 40
0.0
  9
$DIMTIX
 70
     0
  9
$DIMSOXD
 70
     0
  9
$DIMSAH
 70
     1
  9
$DIMBLK1
  1
OPEN
  9
$DIMBLK2
  1
OPEN
  9
$DIMSTYLE
  2
1_2
  9
$DIMCLRD
 70
     0
  9
$DIMCLRE
 70
     0
  9
$DIMCLRT
 70
     0
  9
$DIMTFAC
 40
0.75
  9
$DIMGAP
 40
1.0
  9
$DIMJUST
 70
     0
  9
$DIMSD1
 70
     0
  9
$DIMSD2
 70
     0
  9
$DIMTOLJ
 70
     1
  9
$DIMTZIN
 70
     8
  9
$DIMALTZ
 70
     0
  9
$DIMALTTZ
 70
     0
  9
$DIMUPT
 70
     0
  9
$DIMDEC
 70
     4
  9
$DIMTDEC
 70
     4
  9
$DIMALTU
 70
     2
  9
$DIMALTTD
 70
     2
  9
$DIMTXSTY
  7
DIMFONT
  9
$DIMAUNIT
 70
     0
  9
$DIMADEC
 70
     2
  9
$DIMALTRND
 40
0.0
  9
$DIMAZIN
 70
     2
  9
$DIMDSEP
 70
    46
  9
$DIMATFIT
 70
     1
  9
$DIMFRAC
 70
     0
  9
$DIMLDRBLK
  1
OPEN
  9
$DIMLUNIT
 70
     2
  9
$DIMLWD
 70
    -2
  9
$DIMLWE
 70
    -2
  9
$DIMTMOVE
 70
     0
  9
$LUNITS
 70
     2
  9
$LUPREC
 70
     4
  9
$SKETCHINC
 40
0.1
  9
$FILLETRAD
 40
0.0
  9
$AUNITS
 70
     0
  9
$AUPREC
 70
     4
  9
$MENU
  1
acad
  9
$ELEVATION
 40
0.0
  9
$PELEVATION
 40
0.0
  9
$THICKNESS
 40
0.0
  9
$LIMCHECK
 70
     0
  9
$CHAMFERA
 40
0.0
  9
$CHAMFERB
 40
0.0
  9
$CHAMFERC
 40
0.0
  9
$CHAMFERD
 40
0.0
  9
$SKPOLY
 70
     0
  9
$TDCREATE
 40
2450926.771099490
  9
$TDUCREATE
 40
2450926.396099490
  9
$TDUPDATE
 40
2454973.442199248
  9
$TDUUPDATE
 40
2454973.067199248
  9
$TDINDWG
 40
0.4536969907
  9
$TDUSRTIMER
 40
0.4536962963
  9
$USRTIMER
 70
     1
  9
$ANGBASE
 50
0.0
  9
$ANGDIR
 70
     0
  9
$PDMODE
 70
    35
  9
$PDSIZE
 40
0.5
  9
$PLINEWID
 40
0.0
  9
$SPLFRAME
 70
     0
  9
$SPLINETYPE
 70
     6
  9
$SPLINESEGS
 70
     8
  9
$HANDSEED
  5
4B44
  9
$SURFTAB1
 70
     6
  9
$SURFTAB2
 70
     6
  9
$SURFTYPE
 70
     6
  9
$SURFU
 70
     6
  9
$SURFV
 70
     6
  9
$UCSBASE
  2

  9
$UCSNAME
  2

  9
$UCSORG
 10
0.0
 20
0.0
 30
0.0
  9
$UCSXDIR
 10
1.0
 20
0.0
 30
0.0
  9
$UCSYDIR
 10
0.0
 20
1.0
 30
0.0
  9
$UCSORTHOREF
  2

  9
$UCSORTHOVIEW
 70
     0
  9
$UCSORGTOP
 10
0.0
 20
0.0
 30
0.0
  9
$UCSORGBOTTOM
 10
0.0
 20
0.0
 30
0.0
  9
$UCSORGLEFT
 10
0.0
 20
0.0
 30
0.0
  9
$UCSORGRIGHT
 10
0.0
 20
0.0
 30
0.0
  9
$UCSORGFRONT
 10
0.0
 20
0.0
 30
0.0
  9
$UCSORGBACK
 10
0.0
 20
0.0
 30
0.0
  9
$PUCSBASE
  2

  9
$PUCSNAME
  2

  9
$PUCSORG
 10
0.0
 20
0.0
 30
0.0
  9
$PUCSXDIR
 10
1.0
 20
0.0
 30
0.0
  9
$PUCSYDIR
 10
0.0
 20
1.0
 30
0.0
  9
$PUCSORTHOREF
  2

  9
$PUCSORTHOVIEW
 70
     0
  9
$PUCSORGTOP
 10
0.0
 20
0.0
 30
0.0
  9
$PUCSORGBOTTOM
 10
0.0
 20
0.0
 30
0.0
  9
$PUCSORGLEFT
 10
0.0
 20
0.0
 30
0.0
  9
$PUCSORGRIGHT
 10
0.0
 20
0.0
 30
0.0
  9
$PUCSORGFRONT
 10
0.0
 20
0.0
 30
0.0
  9
$PUCSORGBACK
 10
0.0
 20
0.0
 30
0.0
  9
$USERI1
 70
     0
  9
$USERI2
 70
     0
  9
$USERI3
 70
     0
  9
$USERI4
 70
     0
  9
$USERI5
 70
     0
  9
$USERR1
 40
0.0
  9
$USERR2
 40
0.0
  9
$USERR3
 40
0.0
  9
$USERR4
 40
0.0
  9
$USERR5
 40
0.0
  9
$WORLDVIEW
 70
     1
  9
$SHADEDGE
 70
     3
  9
$SHADEDIF
 70
    70
  9
$TILEMODE
 70
     1
  9
$MAXACTVP
 70
    16
  9
$PINSBASE
 10
0.0
 20
0.0
 30
0.0
  9
$PLIMCHECK
 70
     0
  9
$PEXTMIN
 10
1.000000000000000E+20
 20
1.000000000000000E+20
 30
1.000000000000000E+20
  9
$PEXTMAX
 10
-1.000000000000000E+20
 20
-1.000000000000000E+20
 30
-1.000000000000000E+20
  9
$PLIMMIN
 10
-0.0049877929687501
 20
-0.0049999523162843
  9
$PLIMMAX
 10
593.9950122070312
 20
419.9950000476837
  9
$UNITMODE
 70
     0
  9
$VISRETAIN
 70
     0
  9
$PLINEGEN
 70
     1
  9
$PSLTSCALE
 70
     1
  9
$TREEDEPTH
 70
  3020
  9
$CMLSTYLE
  2
STANDARD
  9
$CMLJUST
 70
     0
  9
$CMLSCALE
 40
1.0
  9
$PROXYGRAPHICS
 70
     1
  9
$MEASUREMENT
 70
     1
  9
$CELWEIGHT
370
    -1
  9
$ENDCAPS
280
     0
  9
$JOINSTYLE
280
     0
  9
$LWDISPLAY
290
     0
  9
$INSUNITS
 70
     0
  9
$HYPERLINKBASE
  1

  9
$STYLESHEET
  1

  9
$XEDIT
290
     1
  9
$CEPSNTYPE
380
     0
  9
$PSTYLEMODE
290
     1
  9
$FINGERPRINTGUID
  2
{AF26352A-2B03-11D4-B135-00000E5F452F}
  9
$VERSIONGUID
  2
{0AE1BC7A-4E42-49A2-BBBE-76DAD1B8DD74}
  9
$EXTNAMES
290
     1
  9
$PSVPSCALE
 40
0.0
  9
$OLESTARTUP
290
     0
  0
ENDSEC
  0
SECTION
  2
CLASSES
  0
CLASS
  1
ACDBDICTIONARYWDFLT
  2
AcDbDictionaryWithDefault
  3
AutoCAD 2000
 90
        0
280
     0
281
     0
  0
CLASS
  1
ACDBPLACEHOLDER
  2
AcDbPlaceHolder
  3
AutoCAD 2000
 90
        0
280
     0
281
     0
  0
CLASS
  1
LAYOUT
  2
AcDbLayout
  3
AutoCAD 2000
 90
        0
280
     0
281
     0
  0
CLASS
  1
LONG_TRANSACTION
  2
AcDbLongTransaction
  3
AutoCAD 2000
 90
    32768
280
     0
281
     0
  0
CLASS
  1
LWPOLYLINE
  2
AcDbPolyline
  3
AutoCAD 2000
 90
    32768
280
     0
281
     1
  0
CLASS
  1
HATCH
  2
AcDbHatch
  3
AutoCAD 2000
 90
    32768
280
     0
281
     1
  0
CLASS
  1
XRECORD
  2
AcDbXrecord
  3
AutoCAD 2000
 90
    32768
280
     0
281
     0
  0
CLASS
  1
LONG_TRANSACTION
  2
AcDbLongTransaction
  3
AutoCAD 2000
 90
    32768
280
     0
281
     0
  0
CLASS
  1
LWPOLYLINE
  2
AcDbPolyline
  3
AutoCAD 2000
 90
    32768
280
     0
281
     1
  0
CLASS
  1
HATCH
  2
AcDbHatch
  3
AutoCAD 2000
 90
    32768
280
     0
281
     1
  0
CLASS
  1
XRECORD
  2
AcDbXrecord
  3
AutoCAD 2000
 90
    32768
280
     0
281
     0
  0
CLASS
  1
PLOTSETTINGS
  2
AcDbPlotSettings
  3
AutoCAD 2000
 90
        0
280
     0
281
     0
  0
ENDSEC
  0
SECTION
  2
TABLES
  0
TABLE
  2
VPORT
  5
8
330
0
100
AcDbSymbolTable
 70
     4
  0
VPORT
  5
4B43
330
8
100
AcDbSymbolTableRecord
100
AcDbViewportTableRecord
  2
*Active
 70
     0
 10
0.0
 20
0.0
 11
1.0
 21
1.0
 12
699.8405776761857
 22
32.3552102769822
 13
0.0
 23
0.0
 14
8.0
 24
8.0
 15
15.0
 25
15.0
 16
0.0
 26
0.0
 36
1.0
 17
0.0
 27
0.0
 37
0.0
 40
524.6005108200308
 41
1.493654822335025
 42
50.0
 43
0.0
 44
0.0
 50
0.0
 51
0.0
 71
     0
 72
   100
 73
     1
 74
     0
 75
     0
 76
     0
 77
     0
 78
     0
281
     0
 65
     1
110
0.0
120
0.0
130
0.0
111
1.0
121
0.0
131
0.0
112
0.0
122
1.0
132
0.0
 79
     0
146
0.0
  0
ENDTAB
  0
TABLE
  2
LTYPE
  5
5
330
0
100
AcDbSymbolTable
 70
     3
  0
LTYPE
  5
12
330
5
100
AcDbSymbolTableRecord
100
AcDbLinetypeTableRecord
  2
BYBLOCK
 70
     0
  3

 72
    65
 73
     0
 40
0.0
  0
LTYPE
  5
13
330
5
100
AcDbSymbolTableRecord
100
AcDbLinetypeTableRecord
  2
BYLAYER
 70
     0
  3

 72
    65
 73
     0
 40
0.0
  0
LTYPE
  5
14
330
5
100
AcDbSymbolTableRecord
100
AcDbLinetypeTableRecord
  2
CONTINUOUS
 70
     0
  3
Solid line
 72
    65
 73
     0
 40
0.0
  0
ENDTAB
  0
TABLE
  2
LAYER
  5
2
330
0
100
AcDbSymbolTable
 70
    11
  0
LAYER
  5
F
330
2
100
AcDbSymbolTableRecord
100
AcDbLayerTableRecord
  2
0
 70
     0
 62
     7
  6
CONTINUOUS
370
    -3
390
1CEE
  0
LAYER
  5
30
330
2
100
AcDbSymbolTableRecord
100
AcDbLayerTableRecord
  2
DRAW2
 70
     0
 62
     4
  6
CONTINUOUS
370
    -3
390
1CEE
  0
LAYER
  5
B93
330
2
100
AcDbSymbolTableRecord
100
AcDbLayerTableRecord
  2
DRAW3
 70
     0
 62
     1
  6
CONTINUOUS
370
    -3
390
1CEE
  0
LAYER
  5
1246
330
2
100
AcDbSymbolTableRecord
100
AcDbLayerTableRecord
  2
DEFPOINTS
 70
     0
 62
     7
  6
CONTINUOUS
290
     0
370
    -3
390
1CEE
  0
ENDTAB
  0
TABLE
  2
STYLE
  5
3
330
0
100
AcDbSymbolTable
 70
     4
  0
STYLE
  5
10
330
3
100
AcDbSymbolTableRecord
100
AcDbTextStyleTableRecord
  2
STANDARD
 70
     0
 40
0.0
 41
1.0
 50
0.0
 71
     0
 42
0.2
  3
ROMANS.SHX
  4

  0
STYLE
  5
20
330
3
100
AcDbSymbolTableRecord
100
AcDbTextStyleTableRecord
  2
DIMFONT
 70
     0
 40
0.0
 41
1.0
 50
10.0
 71
     0
 42
4.799999999999999
  3
romans.shx
  4
extfont.shx
  0
ENDTAB
  0
TABLE
  2
VIEW
  5
6
330
0
100
AcDbSymbolTable
 70
     4
  0
VIEW
  5
24
330
6
100
AcDbSymbolTableRecord
100
AcDbViewTableRecord
  2
OLE1
 70
     0
 40
300.0
 10
232.1482602118003
 20
150.0
 41
464.2965204236006
 11
0.0
 21
0.0
 31
1.0
 12
0.0
 22
0.0
 32
0.0
 42
50.0
 43
0.0
 44
0.0
 50
0.0
 71
     0
281
     0
 72
     0
  0
VIEW
  5
E0E
330
6
100
AcDbSymbolTableRecord
100
AcDbViewTableRecord
  2
A1
 70
     1
 40
660.0
 10
511.7119266055046
 20
297.0
 41
1137.137614678898
 11
0.0
 21
0.0
 31
1.0
 12
0.0
 22
0.0
 32
0.0
 42
50.0
 43
0.0
 44
0.0
 50
0.0
 71
     0
281
     0
 72
     0
  0
VIEW
  5
E0F
330
6
100
AcDbSymbolTableRecord
100
AcDbViewTableRecord
  2
A2
 70
     1
 40
466.6666666666666
 10
361.8165137614679
 20
210.0
 41
804.0366972477063
 11
0.0
 21
0.0
 31
1.0
 12
0.0
 22
0.0
 32
0.0
 42
50.0
 43
0.0
 44
0.0
 50
0.0
 71
     0
281
     0
 72
     0
  0
VIEW
  5
E10
330
6
100
AcDbSymbolTableRecord
100
AcDbViewTableRecord
  2
A3
 70
     1
 40
330.0
 10
255.8559633027523
 20
148.5
 41
568.5688073394494
 11
0.0
 21
0.0
 31
1.0
 12
0.0
 22
0.0
 32
0.0
 42
50.0
 43
0.0
 44
0.0
 50
0.0
 71
     0
281
     0
 72
     0
  0
ENDTAB
  0
TABLE
  2
UCS
  5
7
330
0
100
AcDbSymbolTable
 70
     0
  0
ENDTAB
  0
TABLE
  2
APPID
  5
9
330
0
100
AcDbSymbolTable
 70
     1
  0
APPID
  5
11
330
9
100
AcDbSymbolTableRecord
100
AcDbRegAppTableRecord
  2
ACAD
 70
     0
  0
ENDTAB
  0
TABLE
  2
DIMSTYLE
  5
A
330
0
100
AcDbSymbolTable
 70
     2
100
AcDbDimStyleTable
 71
     1
340
282F
  0
DIMSTYLE
105
E1E
330
A
100
AcDbSymbolTableRecord
100
AcDbDimStyleTableRecord
  2
STANDARD
 70
     0
340
10
  0
DIMSTYLE
105
282F
102
{ACAD_REACTORS
330
1258
330
16D2
330
16B5
330
1254
330
1253
330
1252
330
124F
330
124D
330
124C
330
1251
330
124B
330
43A0
330
14E9
330
1256
330
1250
330
1257
330
124E
330
1255
102
}
330
A
100
AcDbSymbolTableRecord
100
AcDbDimStyleTableRecord
  2
1_2
 70
     0
 40
2.0
 41
3.0
 42
0.0
 43
10.0
 44
1.0
 73
     0
 74
     0
 77
     3
 78
     8
 79
     2
140
3.2
141
0.0
146
0.75
147
1.0
172
     1
173
     1
179
     2
284
     8
289
     1
340
20
341
1196
343
1196
344
1196
  0
ENDTAB
  0
TABLE
  2
BLOCK_RECORD
  5
1
330
0
100
AcDbSymbolTable
 70
    20
  0
BLOCK_RECORD
  5
18
102
{ACAD_XDICTIONARY
360
27C3
102
}
330
1
100
AcDbSymbolTableRecord
100
AcDbBlockTableRecord
  2
*MODEL_SPACE
340
27CD
  0
BLOCK_RECORD
  5
15
102
{ACAD_XDICTIONARY
360
27C1
102
}
330
1
100
AcDbSymbolTableRecord
100
AcDbBlockTableRecord
  2
*PAPER_SPACE
340
27CE
  0
BLOCK_RECORD
  5
1196
330
1
100
AcDbSymbolTableRecord
100
AcDbBlockTableRecord
  2
_OPEN
340
0
102
{BLKREFS
331
44C4
331
44C5
331
44CD
331
44CE
331
44D6
331
44D7
331
44E8
331
44E9
331
44F1
331
44F2
331
44FA
331
44FB
331
4503
331
4504
331
450C
331
450D
331
4515
331
4516
331
451E
331
451F
331
4527
331
4528
331
4530
331
4531
331
4539
331
453A
331
4542
331
4543
331
4B35
331
4B36
102
}
  0
ENDTAB
  0
ENDSEC
  0
SECTION
  2
BLOCKS
  0
BLOCK
  5
36
330
18
100
AcDbEntity
  8
0
100
AcDbBlockBegin
  2
*MODEL_SPACE
 70
     0
 10
0.0
 20
0.0
 30
0.0
  3
*MODEL_SPACE
  1

  0
ENDBLK
  5
37
330
18
100
AcDbEntity
  8
0
100
AcDbBlockEnd
  0
BLOCK
  5
34
330
15
100
AcDbEntity
 67
     1
  8
0
100
AcDbBlockBegin
  2
*PAPER_SPACE
 70
     0
 10
0.0
 20
0.0
 30
0.0
  3
*PAPER_SPACE
  1

  0
ENDBLK
  5
35
330
15
100
AcDbEntity
 67
     1
  8
0
100
AcDbBlockEnd
  0
BLOCK
  5
119A
330
1196
100
AcDbEntity
  8
0
100
AcDbBlockBegin
  2
_OPEN
 70
     0
 10
0.0
 20
0.0
 30
0.0
  3
_OPEN
  1

  0
LINE
  5
1197
330
1196
100
AcDbEntity
  8
0
  6
ByBlock
 62
     0
100
AcDbLine
 10
-1.0
 20
0.1666666666666666
 30
0.0
 11
0.0
 21
0.0
 31
0.0
  0
LINE
  5
1198
330
1196
100
AcDbEntity
  8
0
  6
ByBlock
 62
     0
100
AcDbLine
 10
0.0
 20
0.0
 30
0.0
 11
-1.0
 21
-0.1666666666666666
 31
0.0
  0
LINE
  5
1199
330
1196
100
AcDbEntity
  8
0
  6
ByBlock
 62
     0
100
AcDbLine
 10
0.0
 20
0.0
 30
0.0
 11
-1.0
 21
0.0
 31
0.0
  0
ENDBLK
  5
119B
330
1196
100
AcDbEntity
  8
0
100
AcDbBlockEnd
  0
ENDSEC
  0
SECTION
  2
ENTITIES
  0
TEXT
  5
125B
330
18
100
AcDbEntity
  8
0
100
AcDbText
 10
-210.7350986035365
 20
-330.0491119534335
 30
0.0
 40
4.799999999999999
  1

 51
10.0
  7
DIMFONT
100
AcDbText
  0
TEXT
  5
1694
330
18
100
AcDbEntity
  8
0
100
AcDbText
 10
-229.0500499999999
 20
87.9
 30
0.0
 40
6.4
  1

 51
10.0
  7
DIMFONT
100
AcDbText
  0
LINE
  5
454A
330
18
100
AcDbEntity
  8
DRAW2
100
AcDbLine
 10
830.8946134603242
 20
-66.76447149053626
 30
0.0
 11
813.8515861493281
 21
-66.76447149053626
 31
0.0
  0
LINE
  5
454B
330
18
100
AcDbEntity
  8
DRAW2
100
AcDbLine
 10
816.9937974890034
 20
-48.39340974636917
 30
0.0
 11
813.8515861493281
 21
-48.39340974636917
 31
0.0
  0
LINE
  5
454C
330
18
100
AcDbEntity
  8
DRAW2
100
AcDbLine
 10
830.8946134603242
 20
-61.22757049828431
 30
0.0
 11
813.8049638404384
 21
-61.22757049828431
 31
0.0
  0
LINE
  5
454D
330
18
100
AcDbEntity
  8
DRAW2
100
AcDbLine
 10
830.8946134603242
 20
-63.11584161070459
 30
0.0
 11
813.8049638404384
 21
-63.11584161070459
 31
0.0
  0
LINE
  5
454E
330
18
100
AcDbEntity
  8
DRAW2
100
AcDbLine
 10
830.8946134603242
 20
-53.93031073862108
 30
0.0
 11
813.8049638404384
 21
-53.93031073862108
 31
0.0
  0
LINE
  5
454F
330
18
100
AcDbEntity
  8
DRAW2
100
AcDbLine
 10
830.8946134603242
 20
-52.04203962620079
 30
0.0
 11
813.8049638404384
 21
-52.04203962620079
 31
0.0
  0
LINE
  5
4550
330
18
100
AcDbEntity
  8
DRAW2
100
AcDbLine
 10
816.1015861493282
 20
-48.32894061845269
 30
0.0
 11
813.8515861493281
 21
-48.32894061845269
 31
0.0
  0
LINE
  5
4551
330
18
100
AcDbEntity
  8
DRAW2
100
AcDbLine
 10
828.1015861493282
 20
-30.07894061845269
 30
0.0
 11
799.6015861493282
 21
-30.07894061845269
 31
0.0
  0
LINE
  5
4552
330
18
100
AcDbEntity
  8
DRAW2
100
AcDbLine
 10
830.8946134603242
 20
-66.82894061845269
 30
0.0
 11
813.8515861493281
 21
-66.82894061845269
 31
0.0
  0
LINE
  5
4553
330
18
100
AcDbEntity
  8
DRAW2
100
AcDbLine
 10
799.4227007111281
 20
-38.72823417514359
 30
0.0
 11
815.1015861493283
 21
-41.57894061845269
 31
0.0
  0
ARC
  5
4555
330
18
100
AcDbEntity
  8
DRAW2
100
AcDbCircle
 10
603.4674020469426
 20
11.92102938154732
 30
0.0
 40
22.469297
100
AcDbArc
 50
146.19883
 51
212.0416
  0
ARC
  5
4556
330
18
100
AcDbEntity
  8
DRAW2
100
AcDbCircle
 10
527.1247520469426
 20
11.92102938154732
 30
0.0
 40
22.469297
100
AcDbArc
 50
327.9583999999998
 51
33.80116799999999
  0
LINE
  5
4557
330
18
100
AcDbEntity
  8
DRAW2
100
AcDbLine
 10
612.3579220469427
 20
27.42102938154733
 30
0.0
 11
612.3579220469427
 21
-3.578970618452672
 31
0.0
  0
LINE
  5
4558
330
18
100
AcDbEntity
  8
DRAW2
100
AcDbLine
 10
606.2957920469425
 20
23.92102938154732
 30
0.0
 11
606.2957920469425
 21
-0.0789406184526911
 31
0.0
  0
LINE
  5
4559
330
18
100
AcDbEntity
  8
DRAW2
100
AcDbLine
 10
630.2960720469426
 20
-3.578970618452672
 30
0.0
 11
630.2960720469426
 21
27.42102938154733
 31
0.0
  0
ARC
  5
455C
330
18
100
AcDbEntity
  8
DRAW2
100
AcDbCircle
 10
481.9674920469426
 20
11.92102938154732
 30
0.0
 40
22.469297
100
AcDbArc
 50
146.19883
 51
212.0416
  0
ARC
  5
455D
330
18
100
AcDbEntity
  8
DRAW2
100
AcDbCircle
 10
403.0240120469425
 20
11.92102938154732
 30
0.0
 40
26.921276
100
AcDbArc
 50
327.4110799999998
 51
37.79936
  0
LINE
  5
455E
330
18
100
AcDbEntity
  8
DRAW2
100
AcDbLine
 10
412.2929920469426
 20
24.42102938154732
 30
0.0
 11
412.2929920469426
 21
-0.5789706184526722
 31
0.0
  0
LINE
  5
4560
330
18
100
AcDbEntity
  8
DRAW2
100
AcDbLine
 10
413.2961620469425
 20
-4.578880618452672
 30
0.0
 11
413.2961620469425
 21
27.42102938154733
 31
0.0
  0
LINE
  5
4561
330
18
100
AcDbEntity
  8
DRAW2
100
AcDbLine
 10
411.2961620469426
 20
0.421059381547309
 30
0.0
 11
411.2961620469426
 21
23.42102938154732
 31
0.0
  0
LINE
  5
4562
330
18
100
AcDbEntity
  8
DRAW2
100
AcDbLine
 10
491.3460820469425
 20
-39.57894061845269
 30
0.0
 11
488.3460820469426
 21
-39.57894061845269
 31
0.0
  0
LINE
  5
4563
330
18
100
AcDbEntity
  8
DRAW2
100
AcDbLine
 10
500.3460820469426
 20
-30.07894061845269
 30
0.0
 11
490.3460820469425
 21
-30.07894061845269
 31
0.0
  0
ARC
  5
4564
330
18
100
AcDbEntity
  8
DRAW2
100
AcDbCircle
 10
491.3460820469425
 20
-29.57894061845269
 30
0.0
 40
1.0
100
AcDbArc
 50
90.0
 51
180.0
  0
LINE
  5
4565
330
18
100
AcDbEntity
  8
DRAW2
100
AcDbLine
 10
502.3460820469424
 20
-45.57894061845269
 30
0.0
 11
488.3460820469426
 21
-45.57894061845269
 31
0.0
  0
CIRCLE
  5
4566
330
18
100
AcDbEntity
  8
DRAW3
100
AcDbCircle
 10
495.3460820469425
 20
-57.57894061845269
 30
0.0
 40
6.578500006249998
  0
CIRCLE
  5
4567
330
18
100
AcDbEntity
  8
DRAW2
100
AcDbCircle
 10
495.3460820469425
 20
-57.57894061845269
 30
0.0
 40
5.694887103024191
  0
CIRCLE
  5
4568
330
18
100
AcDbEntity
  8
DRAW2
100
AcDbCircle
 10
495.3460820469425
 20
-57.57894061845269
 30
0.0
 40
8.25
  0
LINE
  5
4569
330
18
100
AcDbEntity
  8
DRAW2
100
AcDbLine
 10
493.6578197384323
 20
-66.41917649639532
 30
0.0
 11
488.5343443554527
 21
-63.46113660484554
 31
0.0
  0
LINE
  5
456A
330
18
100
AcDbEntity
  8
DRAW2
100
AcDbLine
 10
488.5343443554527
 20
-51.69674463205985
 30
0.0
 11
493.6578197384323
 21
-48.73870474051006
 31
0.0
  0
LINE
  5
456B
330
18
100
AcDbEntity
  8
DRAW2
100
AcDbLine
 10
465.7961920469425
 20
-170.5789806184526
 30
0.0
 11
545.7961920469426
 21
-170.5790306184526
 31
0.0
  0
LINE
  5
456C
330
18
100
AcDbEntity
  8
DRAW2
100
AcDbLine
 10
465.7961928323409
 20
-195.5789801184528
 30
0.0
 11
543.2961328323408
 21
-195.5790301184526
 31
0.0
  0
LINE
  5
456D
330
18
100
AcDbEntity
  8
DRAW2
100
AcDbLine
 10
465.7961020469427
 20
-0.5790006184526533
 30
0.0
 11
545.7961320469426
 21
-0.5789706184526722
 31
0.0
  0
LINE
  5
456E
330
18
100
AcDbEntity
  8
DRAW2
100
AcDbLine
 10
468.0461620469425
 20
-147.5789406184526
 30
0.0
 11
518.3460820469425
 21
-147.5789406184526
 31
0.0
  0
LINE
  5
456F
330
18
100
AcDbEntity
  8
DRAW2
100
AcDbLine
 10
468.0461620469425
 20
-23.57894061845269
 30
0.0
 11
518.3460820469425
 21
-23.57894061845269
 31
0.0
  0
ARC
  5
4573
330
18
100
AcDbEntity
  8
DRAW2
100
AcDbCircle
 10
481.9675820469425
 20
-183.0790606184525
 30
0.0
 40
22.469297
100
AcDbArc
 50
147.9583899999999
 51
213.80115
  0
LINE
  5
4574
330
18
100
AcDbEntity
  8
DRAW2
100
AcDbLine
 10
412.0964120469424
 20
-170.5789856184527
 30
0.0
 11
412.0964120469424
 21
-195.5790156184526
 31
0.0
  0
LINE
  5
4575
330
18
100
AcDbEntity
  8
DRAW2
100
AcDbLine
 10
413.0961020469422
 20
-166.5789756184526
 30
0.0
 11
413.0961020469422
 21
-198.5789856184527
 31
0.0
  0
LINE
  5
4576
330
18
100
AcDbEntity
  8
DRAW2
100
AcDbLine
 10
411.0961020469424
 20
-194.5789556184527
 30
0.0
 11
411.0961020469424
 21
-171.5789856184527
 31
0.0
  0
ARC
  5
4577
330
18
100
AcDbEntity
  8
DRAW2
100
AcDbCircle
 10
403.0241020469423
 20
-183.0789706184526
 30
0.0
 40
26.921276
100
AcDbArc
 50
322.20064
 51
32.588923
  0
ARC
  5
4579
330
18
100
AcDbEntity
  8
DRAW2
100
AcDbCircle
 10
454.3450220469424
 20
-225.5789706184525
 30
0.0
 40
2.0
100
AcDbArc
 50
270.00002
 51
350.77002
  0
ARC
  5
457A
330
18
100
AcDbEntity
  8
DRAW2
100
AcDbCircle
 10
433.2474920469425
 20
-225.5789706184525
 30
0.0
 40
2.0
100
AcDbArc
 50
189.2298199999999
 51
270.00002
  0
LINE
  5
457B
330
18
100
AcDbEntity
  8
DRAW2
100
AcDbLine
 10
433.2474320469424
 20
-227.5789806184526
 30
0.0
 11
454.3449620469424
 21
-227.5789806184526
 31
0.0
  0
LINE
  5
457C
330
18
100
AcDbEntity
  8
DRAW2
100
AcDbLine
 10
422.7961320469424
 20
-207.5790006184525
 30
0.0
 11
464.7961920469425
 21
-207.5790006184525
 31
0.0
  0
LINE
  5
457D
330
18
100
AcDbEntity
  8
DRAW2
100
AcDbLine
 10
422.7961320469424
 20
-205.5789706184526
 30
0.0
 11
464.7961920469425
 21
-205.5789706184526
 31
0.0
  0
LINE
  5
457E
330
18
100
AcDbEntity
  8
DRAW2
100
AcDbLine
 10
443.7961070469424
 20
-197.9255406184526
 30
0.0
 11
443.7961070469424
 21
-202.4789606184526
 31
0.0
  0
LINE
  5
457F
330
18
100
AcDbEntity
  8
DRAW2
100
AcDbLine
 10
448.7961070469425
 20
-197.4789606184526
 30
0.0
 11
448.7961070469425
 21
-202.4789606184526
 31
0.0
  0
LINE
  5
4580
330
18
100
AcDbEntity
  8
DRAW2
100
AcDbLine
 10
438.7961070469424
 20
-197.4789606184526
 30
0.0
 11
438.7961070469424
 21
-202.4789606184526
 31
0.0
  0
ARC
  5
4581
330
18
100
AcDbEntity
  8
DRAW2
100
AcDbCircle
 10
421.7961920469426
 20
-202.0790106184525
 30
0.0
 40
2.5000005
100
AcDbArc
 50
0.0
 51
89.99998199999998
  0
LINE
  5
4582
330
18
100
AcDbEntity
  8
DRAW2
100
AcDbLine
 10
428.2960720469424
 20
-207.5789806184526
 30
0.0
 11
431.2731820469424
 21
-225.8998906184526
 31
0.0
  0
LINE
  5
4583
330
18
100
AcDbEntity
  8
DRAW2
100
AcDbLine
 10
422.7961920469426
 20
-207.5790006184525
 30
0.0
 11
422.7961920469426
 21
-220.5789806184526
 31
0.0
  0
LINE
  5
4584
330
18
100
AcDbEntity
  8
DRAW2
100
AcDbLine
 10
420.7962520469424
 20
-207.5790006184525
 30
0.0
 11
420.7962520469424
 21
-220.5789806184526
 31
0.0
  0
LINE
  5
4585
330
18
100
AcDbEntity
  8
DRAW2
100
AcDbLine
 10
420.7962520469424
 20
-215.5789706184526
 30
0.0
 11
422.7961320469424
 21
-215.5789706184526
 31
0.0
  0
LINE
  5
4586
330
18
100
AcDbEntity
  8
DRAW2
100
AcDbLine
 10
420.7962520469424
 20
-220.5789506184526
 30
0.0
 11
422.7961320469424
 21
-220.5789506184526
 31
0.0
  0
ARC
  5
4587
330
18
100
AcDbEntity
  8
DRAW2
100
AcDbCircle
 10
422.7961920469426
 20
-207.5790006184525
 30
0.0
 40
2.0
100
AcDbArc
 50
89.99998199999998
 51
179.99996
  0
ARC
  5
4588
330
18
100
AcDbEntity
  8
DRAW2
100
AcDbCircle
 10
425.2962520469424
 20
-204.5789806184526
 30
0.0
 40
1.0
100
AcDbArc
 50
180.0000399999998
 51
270.00002
  0
LINE
  5
4589
330
18
100
AcDbEntity
  8
DRAW2
100
AcDbLine
 10
424.2962520469424
 20
-202.0790106184525
 30
0.0
 11
424.2962520469424
 21
-204.5790106184525
 31
0.0
  0
LINE
  5
458A
330
18
100
AcDbEntity
  8
DRAW2
100
AcDbLine
 10
438.0461070469424
 20
-205.5789706184526
 30
0.0
 11
449.5461070469424
 21
-205.5789706184526
 31
0.0
  0
LINE
  5
458B
330
18
100
AcDbEntity
  8
DRAW2
100
AcDbLine
 10
438.0461070469424
 20
-203.9789606184526
 30
0.0
 11
449.5461070469424
 21
-203.9789606184526
 31
0.0
  0
LINE
  5
458C
330
18
100
AcDbEntity
  8
DRAW2
100
AcDbLine
 10
438.0461070469424
 20
-202.4789606184526
 30
0.0
 11
449.5461070469424
 21
-202.4789606184526
 31
0.0
  0
LINE
  5
458D
330
18
100
AcDbEntity
  8
DRAW2
100
AcDbLine
 10
438.0461070469424
 20
-202.4789606184526
 30
0.0
 11
438.0461070469424
 21
-205.5789706184526
 31
0.0
  0
LINE
  5
458E
330
18
100
AcDbEntity
  8
DRAW2
100
AcDbLine
 10
443.0744370469425
 20
-202.4789506184526
 30
0.0
 11
443.9404670469424
 21
-203.9789506184527
 31
0.0
  0
LINE
  5
458F
330
18
100
AcDbEntity
  8
DRAW2
100
AcDbLine
 10
443.6517870469425
 20
-202.4789406184527
 30
0.0
 11
444.5178070469426
 21
-203.9789506184527
 31
0.0
  0
LINE
  5
4590
330
18
100
AcDbEntity
  8
DRAW2
100
AcDbLine
 10
449.5461070469424
 20
-202.4789606184526
 30
0.0
 11
449.5461070469424
 21
-205.5789706184526
 31
0.0
  0
LINE
  5
4591
330
18
100
AcDbEntity
  8
DRAW2
100
AcDbLine
 10
414.0948956910633
 20
-199.5789849613865
 30
0.0
 11
421.7961928323409
 21
-199.5790101184527
 31
0.0
  0
ARC
  5
4592
330
18
100
AcDbEntity
  8
DRAW2
100
AcDbCircle
 10
414.0960420469425
 20
-198.5789856184527
 30
0.0
 40
1.0
100
AcDbArc
 50
180.0000399999998
 51
270.00002
  0
LINE
  5
4593
330
18
100
AcDbEntity
  8
DRAW2
100
AcDbLine
 10
411.0963520469423
 20
-194.5788356184526
 30
0.0
 11
412.0962920469422
 21
-195.5787756184527
 31
0.0
  0
LINE
  5
4594
330
18
100
AcDbEntity
  8
DRAW2
100
AcDbLine
 10
412.0960420469424
 20
-195.5789856184527
 30
0.0
 11
413.0961020469422
 21
-195.5789856184527
 31
0.0
  0
ARC
  5
4595
330
18
100
AcDbEntity
  8
DRAW2
100
AcDbCircle
 10
441.2961070469424
 20
-204.6999006184527
 30
0.0
 40
7.220932
100
AcDbArc
 50
69.743977
 51
110.2560399999999
  0
LINE
  5
4596
330
18
100
AcDbEntity
  8
DRAW2
100
AcDbLine
 10
438.7961070469424
 20
-197.4789606184526
 30
0.0
 11
448.7961070469425
 21
-197.4789606184526
 31
0.0
  0
ARC
  5
4597
330
18
100
AcDbEntity
  8
DRAW2
100
AcDbCircle
 10
446.2961070469424
 20
-204.6999006184527
 30
0.0
 40
7.220932
100
AcDbArc
 50
69.743977
 51
110.2560399999999
  0
LINE
  5
4598
330
18
100
AcDbEntity
  8
DRAW2
100
AcDbLine
 10
440.7961070469425
 20
-196.0789706184525
 30
0.0
 11
446.7960470469425
 21
-196.0789706184525
 31
0.0
  0
LINE
  5
4599
330
18
100
AcDbEntity
  8
DRAW2
100
AcDbLine
 10
446.2961070469424
 20
-195.5790806184527
 30
0.0
 11
446.7960470469425
 21
-196.0789706184525
 31
0.0
  0
LINE
  5
459A
330
18
100
AcDbEntity
  8
DRAW2
100
AcDbLine
 10
441.2962970469425
 20
-195.5790506184527
 30
0.0
 11
440.7962970469425
 21
-196.0790606184525
 31
0.0
  0
LINE
  5
459B
330
18
100
AcDbEntity
  8
DRAW3
100
AcDbLine
 10
446.2960470469425
 20
-195.5789806184526
 30
0.0
 11
446.2960470469425
 21
-197.4789606184526
 31
0.0
  0
LINE
  5
459C
330
18
100
AcDbEntity
  8
DRAW3
100
AcDbLine
 10
441.2961070469424
 20
-195.5789806184526
 30
0.0
 11
441.2961070469424
 21
-197.4789606184526
 31
0.0
  0
LINE
  5
459D
330
18
100
AcDbEntity
  8
DRAW2
100
AcDbLine
 10
446.7960470469425
 20
-196.0789706184525
 30
0.0
 11
446.7960470469425
 21
-197.4789606184526
 31
0.0
  0
LINE
  5
459E
330
18
100
AcDbEntity
  8
DRAW2
100
AcDbLine
 10
440.7961070469425
 20
-196.0789706184525
 30
0.0
 11
440.7961070469425
 21
-197.4789606184526
 31
0.0
  0
LINE
  5
459F
330
18
100
AcDbEntity
  8
DRAW2
100
AcDbLine
 10
441.2961070469424
 20
-195.5789806184526
 30
0.0
 11
446.2960470469425
 21
-195.5789806184526
 31
0.0
  0
LINE
  5
45A0
330
18
100
AcDbEntity
  8
DRAW2
100
AcDbLine
 10
463.2962520469424
 20
-198.0789806184526
 30
0.0
 11
463.2962520469424
 21
-204.5790106184525
 31
0.0
  0
LINE
  5
45A1
330
18
100
AcDbEntity
  8
DRAW2
100
AcDbLine
 10
456.3189620469426
 20
-225.8997706184526
 30
0.0
 11
459.2961320469425
 21
-207.5789806184526
 31
0.0
  0
LINE
  5
45A2
330
18
100
AcDbEntity
  8
DRAW2
100
AcDbLine
 10
464.7962520469424
 20
-207.5790006184525
 30
0.0
 11
464.7962520469424
 21
-220.5789806184526
 31
0.0
  0
LINE
  5
45A3
330
18
100
AcDbEntity
  8
DRAW2
100
AcDbLine
 10
466.7963220469424
 20
-207.5790006184525
 30
0.0
 11
466.7963220469424
 21
-220.5789806184526
 31
0.0
  0
LINE
  5
45A4
330
18
100
AcDbEntity
  8
DRAW2
100
AcDbLine
 10
464.7961920469425
 20
-215.5789706184526
 30
0.0
 11
466.7962520469424
 21
-215.5789706184526
 31
0.0
  0
LINE
  5
45A5
330
18
100
AcDbEntity
  8
DRAW2
100
AcDbLine
 10
464.7961920469425
 20
-220.5789506184526
 30
0.0
 11
466.7962520469424
 21
-220.5789506184526
 31
0.0
  0
ARC
  5
45A6
330
18
100
AcDbEntity
  8
DRAW2
100
AcDbCircle
 10
464.7962520469424
 20
-207.5790006184525
 30
0.0
 40
2.0
100
AcDbArc
 50
0.0
 51
89.99998199999998
  0
ARC
  5
45A7
330
18
100
AcDbEntity
  8
DRAW2
100
AcDbCircle
 10
462.2961320469425
 20
-204.5789806184526
 30
0.0
 40
1.0
100
AcDbArc
 50
270.00002
 51
0.0
  0
ARC
  5
45A8
330
18
100
AcDbEntity
  8
DRAW2
100
AcDbCircle
 10
465.7961920469425
 20
-198.0789806184526
 30
0.0
 40
2.5000005
100
AcDbArc
 50
89.99998199999998
 51
179.99996
  0
LINE
  5
45A9
330
18
100
AcDbEntity
  8
DRAW2
100
AcDbLine
 10
454.9460720469426
 20
-93.32891455934065
 30
0.0
 11
454.9460720469426
 21
-77.82897455934068
 31
0.0
  0
ARC
  5
45AA
330
18
100
AcDbEntity
  8
DRAW2
100
AcDbCircle
 10
452.7687020469426
 20
-79.94979455934071
 30
0.0
 40
3.3225961
100
AcDbArc
 50
154.3831999999999
 51
214.3839
  0
LINE
  5
45AB
330
18
100
AcDbEntity
  8
DRAW2
100
AcDbLine
 10
449.4460720469426
 20
-92.07900455934066
 30
0.0
 11
449.4460720469426
 21
-79.07894455934069
 31
0.0
  0
LINE
  5
45AC
330
18
100
AcDbEntity
  8
DRAW2
100
AcDbLine
 10
433.0460420469427
 20
-65.79216455934068
 30
0.0
 11
433.0460420469427
 21
-105.3657745593405
 31
0.0
  0
LINE
  5
45AD
330
18
100
AcDbEntity
  8
DRAW2
100
AcDbLine
 10
431.0460420469426
 20
-65.79216455934068
 30
0.0
 11
431.0460420469426
 21
-105.3657745593405
 31
0.0
  0
ARC
  5
45AE
330
18
100
AcDbEntity
  8
DRAW2
100
AcDbCircle
 10
485.4961820469425
 20
-85.57897455934067
 30
0.0
 40
52.450005
100
AcDbArc
 50
123.50123
 51
236.4987699999999
  0
ARC
  5
45AF
330
18
100
AcDbEntity
  8
DRAW2
100
AcDbCircle
 10
494.5286520469425
 20
-116.4547945593406
 30
0.0
 40
68.800003
100
AcDbArc
 50
123.5092599999999
 51
153.33455
  0
ARC
  5
45B0
330
18
100
AcDbEntity
  8
DRAW2
100
AcDbCircle
 10
493.5013720469425
 20
-118.4208945593407
 30
0.0
 40
68.800003
100
AcDbArc
 50
122.48927
 51
151.48728
  0
ARC
  5
45B1
330
18
100
AcDbEntity
  8
DRAW2
100
AcDbCircle
 10
495.4587020469425
 20
-114.5289545593406
 30
0.0
 40
68.800003
100
AcDbArc
 50
124.44336
 51
155.1159
  0
LINE
  5
45B2
330
18
100
AcDbEntity
  8
DRAW2
100
AcDbLine
 10
456.5460420469426
 20
-14.57894455934069
 30
0.0
 11
456.5460420469426
 21
-156.5789445593406
 31
0.0
  0
LINE
  5
45B3
330
18
100
AcDbEntity
  8
DRAW2
100
AcDbLine
 10
467.0461020469424
 20
-14.57894061845269
 30
0.0
 11
467.0461020469424
 21
-156.5789406184526
 31
0.0
  0
LINE
  5
45B4
330
18
100
AcDbEntity
  8
DRAW2
100
AcDbLine
 10
468.0461620469425
 20
-23.57894061845269
 30
0.0
 11
468.0461620469425
 21
-147.5789406184526
 31
0.0
  0
ARC
  5
45B5
330
18
100
AcDbEntity
  8
DRAW2
100
AcDbCircle
 10
501.8354720469424
 20
-86.7879245593407
 30
0.0
 40
68.800003
100
AcDbArc
 50
201.03604
 51
221.0183499999998
  0
LINE
  5
45B6
330
18
100
AcDbEntity
  8
DRAW2
100
AcDbLine
 10
424.0461020469424
 20
-120.5644645593406
 30
0.0
 11
424.0461020469424
 21
-166.5789745593406
 31
0.0
  0
LINE
  5
45B7
330
18
100
AcDbEntity
  8
DRAW2
100
AcDbLine
 10
450.0265120469426
 20
-131.7669445593406
 30
0.0
 11
454.9459520469424
 21
-131.7669445593406
 31
0.0
  0
LINE
  5
45B9
330
18
100
AcDbEntity
  8
DRAW2
100
AcDbLine
 10
450.0265120469426
 20
-135.5197045593406
 30
0.0
 11
454.9459520469424
 21
-135.5197045593406
 31
0.0
  0
LINE
  5
45BA
330
18
100
AcDbEntity
  8
DRAW2
100
AcDbLine
 10
450.0265120469426
 20
-146.7780845593406
 30
0.0
 11
454.9459520469424
 21
-146.7780845593406
 31
0.0
  0
LINE
  5
45BB
330
18
100
AcDbEntity
  8
DRAW2
100
AcDbLine
 10
450.0265120469426
 20
-143.0253245593405
 30
0.0
 11
454.9459520469424
 21
-143.0253245593405
 31
0.0
  0
LINE
  5
45BC
330
18
100
AcDbEntity
  8
DRAW2
100
AcDbLine
 10
427.8227820469427
 20
-148.2073945593406
 30
0.0
 11
454.2556420469426
 21
-148.2073945593406
 31
0.0
  0
LINE
  5
45BD
330
18
100
AcDbEntity
  8
DRAW2
100
AcDbLine
 10
434.5461020469425
 20
-156.5789445593406
 30
0.0
 11
456.5460420469426
 21
-156.5789445593406
 31
0.0
  0
LINE
  5
45BE
330
18
100
AcDbEntity
  8
DRAW2
100
AcDbLine
 10
413.0961020469422
 20
-166.5789756384526
 30
0.0
 11
463.2962520469424
 21
-166.5789706184526
 31
0.0
  0
LINE
  5
45BF
330
18
100
AcDbEntity
  8
DRAW3
100
AcDbLine
 10
447.1711070469424
 20
-151.1790145593406
 30
0.0
 11
447.1711070469424
 21
-156.5789445593406
 31
0.0
  0
LINE
  5
45C0
330
18
100
AcDbEntity
  8
DRAW2
100
AcDbLine
 10
447.7961070469424
 20
-151.8040145593406
 30
0.0
 11
447.7961070469424
 21
-156.5789445593406
 31
0.0
  0
LINE
  5
45C1
330
18
100
AcDbEntity
  8
DRAW3
100
AcDbLine
 10
440.4211070469424
 20
-151.1790145593406
 30
0.0
 11
440.4211070469424
 21
-156.5789445593406
 31
0.0
  0
LINE
  5
45C2
330
18
100
AcDbEntity
  8
DRAW2
100
AcDbLine
 10
439.7960470469423
 20
-151.8040145593406
 30
0.0
 11
439.7960470469423
 21
-156.5789445593406
 31
0.0
  0
LINE
  5
45C3
330
18
100
AcDbEntity
  8
DRAW2
100
AcDbLine
 10
434.5454920469427
 20
-156.5793545593405
 30
0.0
 11
424.0456220469424
 21
-148.2078645593405
 31
0.0
  0
LINE
  5
45C4
330
18
100
AcDbEntity
  8
DRAW2
100
AcDbLine
 10
412.0960420469424
 20
-170.5789556184526
 30
0.0
 11
413.0961020469422
 21
-170.5789556184526
 31
0.0
  0
LINE
  5
45C5
330
18
100
AcDbEntity
  8
DRAW2
100
AcDbLine
 10
411.0965920469424
 20
-171.5793056184527
 30
0.0
 11
412.0965920469425
 21
-170.5793056184527
 31
0.0
  0
LINE
  5
45C6
330
18
100
AcDbEntity
  8
DRAW2
100
AcDbLine
 10
437.7942120469425
 20
-165.0790345593406
 30
0.0
 11
437.7942120469425
 21
-158.0790145593406
 31
0.0
  0
ARC
  5
45C7
330
18
100
AcDbEntity
  8
DRAW2
100
AcDbCircle
 10
461.8659320469426
 20
-139.2725045593406
 30
0.0
 40
12.419868
100
AcDbArc
 50
162.4126399999999
 51
197.5873499999999
  0
LINE
  5
45C8
330
18
100
AcDbEntity
  8
DRAW2
100
AcDbLine
 10
449.4460720469426
 20
-132.7724745593406
 30
0.0
 11
449.4460720469426
 21
-145.7725045593406
 31
0.0
  0
LINE
  5
45C9
330
18
100
AcDbEntity
  8
DRAW2
100
AcDbLine
 10
439.7960470469423
 20
-151.8040145593406
 30
0.0
 11
447.7961070469424
 21
-151.8040145593406
 31
0.0
  0
LINE
  5
45CA
330
18
100
AcDbEntity
  8
DRAW2
100
AcDbLine
 10
440.4211070469424
 20
-151.1790145593406
 30
0.0
 11
447.1711070469424
 21
-151.1790145593406
 31
0.0
  0
LINE
  5
45CB
330
18
100
AcDbEntity
  8
DRAW2
100
AcDbLine
 10
439.7961070469424
 20
-151.8040445593405
 30
0.0
 11
440.4211070469424
 21
-151.1790145593406
 31
0.0
  0
ARC
  5
45CC
330
18
100
AcDbEntity
  8
DRAW2
100
AcDbCircle
 10
452.7687020469426
 20
-144.9016845593405
 30
0.0
 40
3.3225961
100
AcDbArc
 50
145.61608
 51
205.61678
  0
LINE
  5
45CD
330
18
100
AcDbEntity
  8
DRAW2
100
AcDbLine
 10
449.4461320469424
 20
-145.7723345593405
 30
0.0
 11
450.0267020469425
 21
-146.7779045593406
 31
0.0
  0
LINE
  5
45CE
330
18
100
AcDbEntity
  8
DRAW2
100
AcDbLine
 10
447.7961070469424
 20
-151.8040445593405
 30
0.0
 11
447.1711070469424
 21
-151.1790145593406
 31
0.0
  0
ARC
  5
45CF
330
18
100
AcDbEntity
  8
DRAW2
100
AcDbCircle
 10
452.7687020469426
 20
-133.6433545593406
 30
0.0
 40
3.322667599999998
100
AcDbArc
 50
154.38553
 51
214.3831399999998
  0
LINE
  5
45D0
330
18
100
AcDbEntity
  8
DRAW2
100
AcDbLine
 10
450.0252320469426
 20
-131.7663045593405
 30
0.0
 11
449.4446620469425
 21
-132.7718445593407
 31
0.0
  0
LINE
  5
45D1
330
18
100
AcDbEntity
  8
DRAW2
100
AcDbLine
 10
463.0461720469425
 20
-156.5789445592718
 30
0.0
 11
463.0461720469425
 21
-166.5789745593406
 31
0.0
  0
ARC
  5
45D2
330
18
100
AcDbEntity
  8
DRAW2
100
AcDbCircle
 10
465.7961920469425
 20
-168.0789806184526
 30
0.0
 40
2.5
100
AcDbArc
 50
179.9999899999999
 51
270.0
  0
LINE
  5
45D3
330
18
100
AcDbEntity
  8
DRAW2
100
AcDbLine
 10
463.2962520469424
 20
-168.0789806184526
 30
0.0
 11
463.2962520469424
 21
-166.5789706184526
 31
0.0
  0
LINE
  5
45D4
330
18
100
AcDbEntity
  8
DRAW2
100
AcDbLine
 10
463.0461020469424
 20
-156.5789445593406
 30
0.0
 11
467.0461020469424
 21
-156.5789406184526
 31
0.0
  0
LINE
  5
45D5
330
18
100
AcDbEntity
  8
DRAW2
100
AcDbLine
 10
454.9460720469426
 20
-131.5224845593406
 30
0.0
 11
454.9460720469426
 21
-147.0225445593407
 31
0.0
  0
LINE
  5
45D6
330
18
100
AcDbEntity
  8
DRAW2
100
AcDbLine
 10
458.0462220469426
 20
-147.5790106184526
 30
0.0
 11
465.5461620469425
 21
-147.5790106184526
 31
0.0
  0
LINE
  5
45D7
330
18
100
AcDbEntity
  8
DRAW2
100
AcDbLine
 10
454.9459520469424
 20
-147.0225045593406
 30
0.0
 11
456.5460420469426
 21
-147.0225045593406
 31
0.0
  0
LINE
  5
45D8
330
18
100
AcDbEntity
  8
DRAW2
100
AcDbLine
 10
468.0461620469425
 20
-143.2725306184526
 30
0.0
 11
467.0461020469424
 21
-143.2725306184526
 31
0.0
  0
LINE
  5
45D9
330
18
100
AcDbEntity
  8
DRAW2
100
AcDbLine
 10
454.9459520469424
 20
-131.5224845593406
 30
0.0
 11
456.5460420469426
 21
-131.5224845593406
 31
0.0
  0
LINE
  5
45DA
330
18
100
AcDbEntity
  8
DRAW2
100
AcDbLine
 10
468.0461620469425
 20
-135.2725106184525
 30
0.0
 11
467.0461020469424
 21
-135.2725106184525
 31
0.0
  0
ARC
  5
45DB
330
18
100
AcDbEntity
  8
DRAW2
100
AcDbCircle
 10
494.5286520469425
 20
-54.70318455934068
 30
0.0
 40
68.800003
100
AcDbArc
 50
206.66545
 51
236.4907399999999
  0
ARC
  5
45DC
330
18
100
AcDbEntity
  8
DRAW2
100
AcDbCircle
 10
493.5013720469425
 20
-52.73705455934067
 30
0.0
 40
68.800003
100
AcDbArc
 50
208.51272
 51
237.51073
  0
ARC
  5
45DD
330
18
100
AcDbEntity
  8
DRAW2
100
AcDbCircle
 10
495.4587020469425
 20
-56.6289945593407
 30
0.0
 40
68.800003
100
AcDbArc
 50
204.8840999999999
 51
235.5566399999999
  0
LINE
  5
45DE
330
18
100
AcDbEntity
  8
DRAW2
100
AcDbLine
 10
450.0265120469426
 20
-81.82619455934071
 30
0.0
 11
454.9459520469424
 21
-81.82619455934071
 31
0.0
  0
LINE
  5
45DF
330
18
100
AcDbEntity
  8
DRAW2
100
AcDbLine
 10
450.0265120469426
 20
-89.33175455934065
 30
0.0
 11
454.9459520469424
 21
-89.33175455934065
 31
0.0
  0
LINE
  5
45E0
330
18
100
AcDbEntity
  8
DRAW2
100
AcDbLine
 10
450.0265120469426
 20
-93.08449455934079
 30
0.0
 11
454.9459520469424
 21
-93.08449455934079
 31
0.0
  0
ARC
  5
45E2
330
18
100
AcDbEntity
  8
DRAW2
100
AcDbCircle
 10
423.0461720469425
 20
-105.3657745593405
 30
0.0
 40
10.000002
100
AcDbArc
 50
314.0204299999998
 51
359.99995
  0
ARC
  5
45E3
330
18
100
AcDbEntity
  8
DRAW2
100
AcDbCircle
 10
421.0461020469424
 20
-105.3657745593405
 30
0.0
 40
10.000002
100
AcDbArc
 50
310.5416299999999
 51
359.99995
  0
ARC
  5
45E4
330
18
100
AcDbEntity
  8
DRAW2
100
AcDbCircle
 10
443.5460420469426
 20
-126.5789545593405
 30
0.0
 40
19.50000199999998
100
AcDbArc
 50
134.0205
 51
179.99996
  0
ARC
  5
45E5
330
18
100
AcDbEntity
  8
DRAW2
100
AcDbCircle
 10
434.0460420469427
 20
-120.5644145593405
 30
0.0
 40
10.000002
100
AcDbArc
 50
130.5415899999998
 51
179.99996
  0
ARC
  5
45E6
330
18
100
AcDbEntity
  8
DRAW2
100
AcDbCircle
 10
434.3539020469425
 20
-112.7404145593407
 30
0.0
 40
3.5000007
100
AcDbArc
 50
21.036035
 51
146.88872
  0
ARC
  5
45E7
330
18
100
AcDbEntity
  8
DRAW2
100
AcDbCircle
 10
452.7687020469426
 20
-91.20809455934068
 30
0.0
 40
3.322667599999998
100
AcDbArc
 50
145.6168499999999
 51
205.61446
  0
LINE
  5
45E8
330
18
100
AcDbEntity
  8
DRAW2
100
AcDbLine
 10
450.0259620469425
 20
-93.08495455934076
 30
0.0
 11
449.4454020469425
 21
-92.07937455934075
 31
0.0
  0
LINE
  5
45E9
330
18
100
AcDbEntity
  8
DRAW2
100
AcDbLine
 10
433.0461020469424
 20
-85.57885455934069
 30
0.0
 11
449.4461320469424
 21
-86.62566455934069
 31
0.0
  0
LINE
  5
45EA
330
18
100
AcDbEntity
  8
DRAW2
100
AcDbLine
 10
449.4460720469426
 20
-84.53191455934069
 30
0.0
 11
433.0461020469424
 21
-85.57869455934071
 31
0.0
  0
ARC
  5
45EB
330
18
100
AcDbEntity
  8
DRAW2
100
AcDbCircle
 10
461.8659320469426
 20
-85.57897455934067
 30
0.0
 40
12.419868
100
AcDbArc
 50
162.4126399999999
 51
197.5873499999999
  0
LINE
  5
45EC
330
18
100
AcDbEntity
  8
DRAW2
100
AcDbLine
 10
454.9459520469424
 20
-93.32897455934062
 30
0.0
 11
456.5460420469426
 21
-93.32897455934062
 31
0.0
  0
LINE
  5
45ED
330
18
100
AcDbEntity
  8
DRAW2
100
AcDbLine
 10
468.0461620469425
 20
-81.57900061845266
 30
0.0
 11
467.0461020469424
 21
-81.57900061845266
 31
0.0
  0
LINE
  5
45EE
330
18
100
AcDbEntity
  8
DRAW2
100
AcDbLine
 10
468.0461620469425
 20
-89.57897061845267
 30
0.0
 11
467.0461020469424
 21
-89.57897061845267
 31
0.0
  0
ARC
  5
45EF
330
18
100
AcDbEntity
  8
DRAW2
100
AcDbCircle
 10
490.3460820469425
 20
-31.07894061845269
 30
0.0
 40
1.0
100
AcDbArc
 50
90.0
 51
180.0
  0
LINE
  5
45F0
330
18
100
AcDbEntity
  8
DRAW2
100
AcDbLine
 10
454.9460720469426
 20
-39.63537455934067
 30
0.0
 11
454.9460720469426
 21
-24.13546455934067
 31
0.0
  0
ARC
  5
45F1
330
18
100
AcDbEntity
  8
DRAW2
100
AcDbCircle
 10
461.8659320469426
 20
-31.88540455934065
 30
0.0
 40
12.419868
100
AcDbArc
 50
162.4126399999999
 51
197.5873499999999
  0
LINE
  5
45F2
330
18
100
AcDbEntity
  8
DRAW2
100
AcDbLine
 10
449.4460720469426
 20
-38.38543455934069
 30
0.0
 11
449.4460720469426
 21
-25.38540455934065
 31
0.0
  0
LINE
  5
45F3
330
18
100
AcDbEntity
  8
DRAW2
100
AcDbLine
 10
424.0461020469424
 20
-4.578884559340679
 30
0.0
 11
424.0461020469424
 21
-50.5934645593407
 31
0.0
  0
LINE
  5
45F4
330
18
100
AcDbEntity
  8
DRAW2
100
AcDbLine
 10
450.0265120469426
 20
-39.39098455934072
 30
0.0
 11
454.9459520469424
 21
-39.39098455934072
 31
0.0
  0
LINE
  5
45F5
330
18
100
AcDbEntity
  8
DRAW2
100
AcDbLine
 10
450.0265120469426
 20
-35.63817455934071
 30
0.0
 11
454.9459520469424
 21
-35.63817455934071
 31
0.0
  0
LINE
  5
45F7
330
18
100
AcDbEntity
  8
DRAW2
100
AcDbLine
 10
450.0265120469426
 20
-78.07341455934068
 30
0.0
 11
454.9459520469424
 21
-78.07341455934068
 31
0.0
  0
ARC
  5
45F8
330
18
100
AcDbEntity
  8
DRAW2
100
AcDbCircle
 10
501.8354720469424
 20
-84.3700545593407
 30
0.0
 40
68.800003
100
AcDbArc
 50
138.98165
 51
158.96396
  0
ARC
  5
45F9
330
18
100
AcDbEntity
  8
DRAW2
100
AcDbCircle
 10
434.0460420469427
 20
-50.59350455934065
 30
0.0
 40
10.000002
100
AcDbArc
 50
179.9999799999999
 51
229.45835
  0
ARC
  5
45FA
330
18
100
AcDbEntity
  8
DRAW2
100
AcDbCircle
 10
443.5460420469426
 20
-44.57897455934068
 30
0.0
 40
19.50000199999998
100
AcDbArc
 50
179.9999799999999
 51
225.9794999999999
  0
ARC
  5
45FB
330
18
100
AcDbEntity
  8
DRAW2
100
AcDbCircle
 10
423.0461720469425
 20
-65.79216455934068
 30
0.0
 40
10.000002
100
AcDbArc
 50
359.9999899999998
 51
45.979519
  0
ARC
  5
45FC
330
18
100
AcDbEntity
  8
DRAW2
100
AcDbCircle
 10
421.0461020469424
 20
-65.79216455934068
 30
0.0
 40
10.000002
100
AcDbArc
 50
0.0
 51
49.45837
  0
LINE
  5
45FD
330
18
100
AcDbEntity
  8
DRAW2
100
AcDbLine
 10
449.4462520469424
 20
-79.0791245593407
 30
0.0
 11
450.0268220469425
 21
-78.07357455934067
 31
0.0
  0
ARC
  5
45FE
330
18
100
AcDbEntity
  8
DRAW2
100
AcDbCircle
 10
434.3539020469425
 20
-58.41759455934073
 30
0.0
 40
3.5000007
100
AcDbArc
 50
213.1112799999999
 51
338.96397
  0
ARC
  5
45FF
330
18
100
AcDbEntity
  8
DRAW2
100
AcDbCircle
 10
452.7687020469426
 20
-37.51458455934067
 30
0.0
 40
3.322667599999998
100
AcDbArc
 50
145.6168499999999
 51
205.61446
  0
LINE
  5
4600
330
18
100
AcDbEntity
  8
DRAW2
100
AcDbLine
 10
450.0258420469424
 20
-39.39126455934069
 30
0.0
 11
449.4453420469426
 21
-38.38579455934069
 31
0.0
  0
LINE
  5
4601
330
18
100
AcDbEntity
  8
DRAW2
100
AcDbLine
 10
486.8460820469425
 20
-60.53698051000248
 30
0.0
 11
486.8460820469425
 21
-54.62090072690284
 31
0.0
  0
LINE
  5
4602
330
18
100
AcDbEntity
  8
DRAW2
100
AcDbLine
 10
454.9459520469424
 20
-77.82897455934068
 30
0.0
 11
456.5460420469426
 21
-77.82897455934068
 31
0.0
  0
ARC
  5
4603
330
18
100
AcDbEntity
  8
DRAW2
100
AcDbCircle
 10
495.3460820469425
 20
-57.57894061845269
 30
0.0
 40
9.0
100
AcDbArc
 50
199.1881364537208
 51
220.8118635462791
  0
LINE
  5
4604
330
18
100
AcDbEntity
  8
DRAW2
100
AcDbLine
 10
454.9459520469424
 20
-39.63543455934069
 30
0.0
 11
456.5460420469426
 21
-39.63543455934069
 31
0.0
  0
LINE
  5
4605
330
18
100
AcDbEntity
  8
DRAW2
100
AcDbLine
 10
468.0461620469425
 20
-35.88546061845267
 30
0.0
 11
467.0461020469424
 21
-35.88546061845267
 31
0.0
  0
LINE
  5
4606
330
18
100
AcDbEntity
  8
DRAW2
100
AcDbLine
 10
487.3460820469425
 20
-40.57894061845269
 30
0.0
 11
487.3460820469425
 21
-44.57894061845268
 31
0.0
  0
ARC
  5
4607
330
18
100
AcDbEntity
  8
DRAW2
100
AcDbCircle
 10
488.3460820469426
 20
-44.57894061845268
 30
0.0
 40
1.0
100
AcDbArc
 50
180.0
 51
270.0
  0
ARC
  5
4608
330
18
100
AcDbEntity
  8
DRAW2
100
AcDbCircle
 10
488.3460820469426
 20
-50.07338711898757
 30
0.0
 40
1.5
100
AcDbArc
 50
299.9999999999999
 51
0.0
  0
ARC
  5
4609
330
18
100
AcDbEntity
  8
DRAW2
100
AcDbCircle
 10
495.3460820469425
 20
-57.57894061845269
 30
0.0
 40
9.0
100
AcDbArc
 50
139.1881364537209
 51
160.811863546279
  0
LINE
  5
460A
330
18
100
AcDbEntity
  8
DRAW2
100
AcDbLine
 10
489.8460820469424
 20
-45.57894061845269
 30
0.0
 11
489.8460820469424
 21
-50.07338711898757
 31
0.0
  0
ARC
  5
460B
330
18
100
AcDbEntity
  8
DRAW2
100
AcDbCircle
 10
488.3460820469426
 20
-40.57894061845269
 30
0.0
 40
1.0
100
AcDbArc
 50
90.0
 51
180.0
  0
LINE
  5
460C
330
18
100
AcDbEntity
  8
DRAW2
100
AcDbLine
 10
489.3460820469424
 20
-31.07894061845269
 30
0.0
 11
489.3460820469424
 21
-39.57894061845269
 31
0.0
  0
LINE
  5
460D
330
18
100
AcDbEntity
  8
DRAW2
100
AcDbLine
 10
450.0265120469426
 20
-28.1326845593407
 30
0.0
 11
454.9459520469424
 21
-28.1326845593407
 31
0.0
  0
LINE
  5
460E
330
18
100
AcDbEntity
  8
DRAW2
100
AcDbLine
 10
450.0265120469426
 20
-24.37984455934071
 30
0.0
 11
454.9459520469424
 21
-24.37984455934071
 31
0.0
  0
LINE
  5
460F
330
18
100
AcDbEntity
  8
DRAW2
100
AcDbLine
 10
427.8227820469427
 20
-22.95058455934071
 30
0.0
 11
454.2556420469426
 21
-22.95058455934071
 31
0.0
  0
LINE
  5
4610
330
18
100
AcDbEntity
  8
DRAW2
100
AcDbLine
 10
434.5461020469425
 20
-14.57897455934068
 30
0.0
 11
456.5460420469426
 21
-14.57897455934068
 31
0.0
  0
LINE
  5
4611
330
18
100
AcDbEntity
  8
DRAW2
100
AcDbLine
 10
413.2961620469425
 20
-4.578882971235145
 30
0.0
 11
463.2961020469426
 21
-4.579000618452653
 31
0.0
  0
LINE
  5
4612
330
18
100
AcDbEntity
  8
DRAW2
100
AcDbLine
 10
434.5445820469428
 20
-14.57735455934067
 30
0.0
 11
424.0445820469427
 21
-22.94893455934072
 31
0.0
  0
LINE
  5
4613
330
18
100
AcDbEntity
  8
DRAW2
100
AcDbLine
 10
447.7961620469425
 20
-21.35396455934062
 30
0.0
 11
447.7961620469425
 21
-14.57900455934066
 31
0.0
  0
LINE
  5
4614
330
18
100
AcDbEntity
  8
DRAW3
100
AcDbLine
 10
447.1711620469425
 20
-21.97896455934062
 30
0.0
 11
447.1711620469425
 21
-14.57900455934066
 31
0.0
  0
LINE
  5
4615
330
18
100
AcDbEntity
  8
DRAW2
100
AcDbLine
 10
439.7961020469424
 20
-21.35396455934062
 30
0.0
 11
439.7961020469424
 21
-14.57900455934066
 31
0.0
  0
LINE
  5
4616
330
18
100
AcDbEntity
  8
DRAW3
100
AcDbLine
 10
440.4211620469425
 20
-21.97896455934062
 30
0.0
 11
440.4211620469425
 21
-14.57900455934066
 31
0.0
  0
LINE
  5
4617
330
18
100
AcDbEntity
  8
DRAW2
100
AcDbLine
 10
439.7961020469424
 20
-21.35396455934062
 30
0.0
 11
447.7961620469425
 21
-21.35396455934062
 31
0.0
  0
LINE
  5
4618
330
18
100
AcDbEntity
  8
DRAW2
100
AcDbLine
 10
440.4211620469425
 20
-21.97896455934062
 30
0.0
 11
447.1711620469425
 21
-21.97896455934062
 31
0.0
  0
LINE
  5
4619
330
18
100
AcDbEntity
  8
DRAW2
100
AcDbLine
 10
439.7961620469425
 20
-21.35396455934062
 30
0.0
 11
440.4211020469424
 21
-21.97893455934064
 31
0.0
  0
LINE
  5
461A
330
18
100
AcDbEntity
  8
DRAW2
100
AcDbLine
 10
447.7962220469426
 20
-21.35399455934066
 30
0.0
 11
447.1712220469425
 21
-21.97899455934066
 31
0.0
  0
ARC
  5
461B
330
18
100
AcDbEntity
  8
DRAW2
100
AcDbCircle
 10
452.7687020469426
 20
-26.25622455934069
 30
0.0
 40
3.3225961
100
AcDbArc
 50
154.3831999999999
 51
214.3839
  0
LINE
  5
461C
330
18
100
AcDbEntity
  8
DRAW2
100
AcDbLine
 10
449.4461920469425
 20
-25.38567455934071
 30
0.0
 11
450.0267620469426
 21
-24.38012455934068
 31
0.0
  0
LINE
  5
461D
330
18
100
AcDbEntity
  8
DRAW2
100
AcDbLine
 10
437.7942120469425
 20
-6.078974559340679
 30
0.0
 11
437.7942120469425
 21
-13.07894455934069
 31
0.0
  0
LINE
  5
461E
330
18
100
AcDbEntity
  8
DRAW2
100
AcDbLine
 10
411.2965920469426
 20
0.4208193815472896
 30
0.0
 11
412.2965320469425
 21
-0.5791206184526914
 31
0.0
  0
LINE
  5
461F
330
18
100
AcDbEntity
  8
DRAW2
100
AcDbLine
 10
412.2961020469427
 20
-0.5789706184526722
 30
0.0
 11
413.2961620469425
 21
-0.5789706184526722
 31
0.0
  0
LINE
  5
4621
330
18
100
AcDbEntity
  8
DRAW2
100
AcDbLine
 10
463.0461720469425
 20
-4.578884559340679
 30
0.0
 11
463.0461020469424
 21
-14.57897455934068
 31
0.0
  0
LINE
  5
4622
330
18
100
AcDbEntity
  8
DRAW2
100
AcDbLine
 10
458.0462220469426
 20
-23.57897061845267
 30
0.0
 11
465.5461620469425
 21
-23.57897061845267
 31
0.0
  0
LINE
  5
4623
330
18
100
AcDbEntity
  8
DRAW2
100
AcDbLine
 10
454.9459520469424
 20
-24.13546455934067
 30
0.0
 11
456.5460420469426
 21
-24.13546455934067
 31
0.0
  0
LINE
  5
4624
330
18
100
AcDbEntity
  8
DRAW2
100
AcDbLine
 10
468.0461620469425
 20
-27.88543061845269
 30
0.0
 11
467.0461020469424
 21
-27.88543061845269
 31
0.0
  0
LINE
  5
4625
330
18
100
AcDbEntity
  8
DRAW2
100
AcDbLine
 10
463.0461020469424
 20
-14.57897455934068
 30
0.0
 11
467.0461020469424
 21
-14.57894061845269
 31
0.0
  0
LINE
  5
4626
330
18
100
AcDbEntity
  8
DRAW2
100
AcDbLine
 10
490.3460820469425
 20
-29.57894061845269
 30
0.0
 11
490.3460820469425
 21
-30.07894061845269
 31
0.0
  0
ARC
  5
4627
330
18
100
AcDbEntity
  8
DRAW2
100
AcDbCircle
 10
465.7961020469427
 20
-3.079000618452653
 30
0.0
 40
2.5
100
AcDbArc
 50
90.00000300000001
 51
180.00001
  0
LINE
  5
4628
330
18
100
AcDbEntity
  8
DRAW2
100
AcDbLine
 10
463.2961620469425
 20
-3.061680214322166
 30
0.0
 11
463.2961620469425
 21
-4.561560214322184
 31
0.0
  0
LINE
  5
4629
330
18
100
AcDbEntity
  8
DRAW2
100
AcDbLine
 10
630.6960820469425
 20
-167.5790306184526
 30
0.0
 11
630.6960820469425
 21
-198.5790506184527
 31
0.0
  0
LINE
  5
462A
330
18
100
AcDbEntity
  8
DRAW2
100
AcDbLine
 10
611.3579620469427
 20
-198.5790506184527
 30
0.0
 11
611.3579620469427
 21
-167.5790006184525
 31
0.0
  0
LINE
  5
462B
330
18
100
AcDbEntity
  8
DRAW2
100
AcDbLine
 10
605.2958320469427
 20
-195.0790106184527
 30
0.0
 11
605.2958320469427
 21
-171.0790006184526
 31
0.0
  0
ARC
  5
462C
330
18
100
AcDbEntity
  8
DRAW2
100
AcDbCircle
 10
603.4674620469425
 20
-183.0790606184525
 30
0.0
 40
22.469297
100
AcDbArc
 50
147.9583899999999
 51
213.80115
  0
ARC
  5
462D
330
18
100
AcDbEntity
  8
DRAW2
100
AcDbCircle
 10
527.1248120469427
 20
-183.0790606184525
 30
0.0
 40
22.469297
100
AcDbArc
 50
326.19885
 51
32.04161599999999
  0
LINE
  5
4631
330
18
100
AcDbEntity
  8
DRAW2
100
AcDbLine
 10
554.7473120469426
 20
-227.5790106184525
 30
0.0
 11
575.8449020469426
 21
-227.5790106184525
 31
0.0
  0
LINE
  5
4632
330
18
100
AcDbEntity
  8
DRAW2
100
AcDbLine
 10
544.2960720469427
 20
-207.5790306184526
 30
0.0
 11
586.2961320469427
 21
-207.5790306184526
 31
0.0
  0
LINE
  5
4633
330
18
100
AcDbEntity
  8
DRAW2
100
AcDbLine
 10
544.2960720469427
 20
-205.5790106184525
 30
0.0
 11
586.2961320469427
 21
-205.5790106184525
 31
0.0
  0
ARC
  5
4634
330
18
100
AcDbEntity
  8
DRAW2
100
AcDbCircle
 10
554.7474320469425
 20
-225.5790106184525
 30
0.0
 40
2.0
100
AcDbArc
 50
189.2298199999999
 51
270.00002
  0
LINE
  5
4635
330
18
100
AcDbEntity
  8
DRAW2
100
AcDbLine
 10
565.2962420469425
 20
-197.9255906184525
 30
0.0
 11
565.2962420469425
 21
-202.4790106184525
 31
0.0
  0
LINE
  5
4636
330
18
100
AcDbEntity
  8
DRAW2
100
AcDbLine
 10
570.2962420469425
 20
-197.4790106184525
 30
0.0
 11
570.2962420469425
 21
-202.4790106184525
 31
0.0
  0
LINE
  5
4637
330
18
100
AcDbEntity
  8
DRAW2
100
AcDbLine
 10
560.2962420469425
 20
-197.4790106184525
 30
0.0
 11
560.2962420469425
 21
-202.4790106184525
 31
0.0
  0
LINE
  5
4638
330
18
100
AcDbEntity
  8
DRAW2
100
AcDbLine
 10
545.7961920469426
 20
-198.0790306184526
 30
0.0
 11
545.7961920469426
 21
-204.5790606184525
 31
0.0
  0
LINE
  5
4639
330
18
100
AcDbEntity
  8
DRAW2
100
AcDbLine
 10
549.7959520469426
 20
-207.5790306184526
 30
0.0
 11
552.7730620469425
 21
-225.8999406184526
 31
0.0
  0
LINE
  5
463A
330
18
100
AcDbEntity
  8
DRAW2
100
AcDbLine
 10
544.2961920469427
 20
-207.5790506184527
 30
0.0
 11
544.2961920469427
 21
-220.5790106184525
 31
0.0
  0
LINE
  5
463B
330
18
100
AcDbEntity
  8
DRAW2
100
AcDbLine
 10
542.2961320469426
 20
-207.5790506184527
 30
0.0
 11
542.2961320469426
 21
-220.5790106184525
 31
0.0
  0
LINE
  5
463C
330
18
100
AcDbEntity
  8
DRAW2
100
AcDbLine
 10
542.2961320469426
 20
-215.5790006184525
 30
0.0
 11
544.2960720469427
 21
-215.5790006184525
 31
0.0
  0
LINE
  5
463D
330
18
100
AcDbEntity
  8
DRAW2
100
AcDbLine
 10
542.2961320469426
 20
-220.5789806184526
 30
0.0
 11
544.2960720469427
 21
-220.5789806184526
 31
0.0
  0
ARC
  5
463E
330
18
100
AcDbEntity
  8
DRAW2
100
AcDbCircle
 10
546.7961920469426
 20
-204.5790506184526
 30
0.0
 40
1.0
100
AcDbArc
 50
179.9999799999999
 51
269.99997
  0
ARC
  5
463F
330
18
100
AcDbEntity
  8
DRAW2
100
AcDbCircle
 10
544.2961920469427
 20
-207.5790306184526
 30
0.0
 40
2.0
100
AcDbArc
 50
89.99998199999998
 51
179.99996
  0
LINE
  5
4640
330
18
100
AcDbEntity
  8
DRAW2
100
AcDbLine
 10
559.5462420469425
 20
-205.5790106184525
 30
0.0
 11
571.0462420469425
 21
-205.5790106184525
 31
0.0
  0
LINE
  5
4641
330
18
100
AcDbEntity
  8
DRAW2
100
AcDbLine
 10
559.5462420469425
 20
-203.9790106184525
 30
0.0
 11
571.0462420469425
 21
-203.9790106184525
 31
0.0
  0
LINE
  5
4642
330
18
100
AcDbEntity
  8
DRAW2
100
AcDbLine
 10
559.5462420469425
 20
-202.4790106184525
 30
0.0
 11
571.0462420469425
 21
-202.4790106184525
 31
0.0
  0
LINE
  5
4643
330
18
100
AcDbEntity
  8
DRAW2
100
AcDbLine
 10
559.5462420469425
 20
-202.4790106184525
 30
0.0
 11
559.5462420469425
 21
-205.5790106184525
 31
0.0
  0
LINE
  5
4644
330
18
100
AcDbEntity
  8
DRAW2
100
AcDbLine
 10
564.5745720469427
 20
-202.4790006184525
 30
0.0
 11
565.4406020469425
 21
-203.9790006184527
 31
0.0
  0
LINE
  5
4645
330
18
100
AcDbEntity
  8
DRAW2
100
AcDbLine
 10
565.1519220469427
 20
-202.4789906184525
 30
0.0
 11
566.0179420469425
 21
-203.9789906184525
 31
0.0
  0
LINE
  5
4646
330
18
100
AcDbEntity
  8
DRAW2
100
AcDbLine
 10
571.0462420469425
 20
-202.4790106184525
 30
0.0
 11
571.0462420469425
 21
-205.5790106184525
 31
0.0
  0
ARC
  5
4647
330
18
100
AcDbEntity
  8
DRAW2
100
AcDbCircle
 10
543.2961320469425
 20
-198.0790306184526
 30
0.0
 40
2.5000005
100
AcDbArc
 50
0.0
 51
89.99998199999998
  0
ARC
  5
4648
330
18
100
AcDbEntity
  8
DRAW2
100
AcDbCircle
 10
562.7962420469425
 20
-204.6999406184526
 30
0.0
 40
7.220932
100
AcDbArc
 50
69.743977
 51
110.2560399999999
  0
LINE
  5
4649
330
18
100
AcDbEntity
  8
DRAW2
100
AcDbLine
 10
560.2962420469425
 20
-197.4790106184525
 30
0.0
 11
570.2962420469425
 21
-197.4790106184525
 31
0.0
  0
ARC
  5
464A
330
18
100
AcDbEntity
  8
DRAW2
100
AcDbCircle
 10
567.7962420469425
 20
-204.6999406184526
 30
0.0
 40
7.220932
100
AcDbArc
 50
69.743977
 51
110.2560399999999
  0
LINE
  5
464B
330
18
100
AcDbEntity
  8
DRAW2
100
AcDbLine
 10
562.2962420469425
 20
-196.0790106184527
 30
0.0
 11
568.2961820469426
 21
-196.0790106184527
 31
0.0
  0
LINE
  5
464C
330
18
100
AcDbEntity
  8
DRAW2
100
AcDbLine
 10
567.7963120469426
 20
-195.5790906184526
 30
0.0
 11
568.2962420469425
 21
-196.0790506184525
 31
0.0
  0
LINE
  5
464D
330
18
100
AcDbEntity
  8
DRAW2
100
AcDbLine
 10
562.7964320469425
 20
-195.5790606184525
 30
0.0
 11
562.2963720469425
 21
-196.0791106184526
 31
0.0
  0
LINE
  5
464E
330
18
100
AcDbEntity
  8
DRAW3
100
AcDbLine
 10
567.7962420469425
 20
-195.5790106184525
 30
0.0
 11
567.7962420469425
 21
-197.4790106184525
 31
0.0
  0
LINE
  5
464F
330
18
100
AcDbEntity
  8
DRAW3
100
AcDbLine
 10
562.7961820469425
 20
-195.5790106184525
 30
0.0
 11
562.7961820469425
 21
-197.4790106184525
 31
0.0
  0
LINE
  5
4650
330
18
100
AcDbEntity
  8
DRAW2
100
AcDbLine
 10
568.2961820469426
 20
-196.0790106184527
 30
0.0
 11
568.2961820469426
 21
-197.4790106184525
 31
0.0
  0
LINE
  5
4651
330
18
100
AcDbEntity
  8
DRAW2
100
AcDbLine
 10
562.2962420469425
 20
-196.0790106184527
 30
0.0
 11
562.2962420469425
 21
-197.4790106184525
 31
0.0
  0
LINE
  5
4652
330
18
100
AcDbEntity
  8
DRAW2
100
AcDbLine
 10
562.7961820469425
 20
-195.5790106184525
 30
0.0
 11
567.7962420469425
 21
-195.5790106184525
 31
0.0
  0
ARC
  5
4653
330
18
100
AcDbEntity
  8
DRAW2
100
AcDbCircle
 10
575.8449620469425
 20
-225.5790106184525
 30
0.0
 40
2.0
100
AcDbArc
 50
270.00002
 51
350.77002
  0
LINE
  5
4654
330
18
100
AcDbEntity
  8
DRAW2
100
AcDbLine
 10
611.3582720469426
 20
-199.5790506184525
 30
0.0
 11
629.6960223960084
 21
-199.5790006184524
 31
0.0
  0
LINE
  5
4655
330
18
100
AcDbEntity
  8
DRAW2
100
AcDbLine
 10
584.7961920469426
 20
-198.5790506184527
 30
0.0
 11
584.7961920469426
 21
-204.5790606184525
 31
0.0
  0
LINE
  5
4656
330
18
100
AcDbEntity
  8
DRAW2
100
AcDbLine
 10
577.8189020469426
 20
-225.8998006184526
 30
0.0
 11
580.7960120469426
 21
-207.5790006184525
 31
0.0
  0
LINE
  5
4657
330
18
100
AcDbEntity
  8
DRAW2
100
AcDbLine
 10
586.2961320469427
 20
-207.5790506184527
 30
0.0
 11
586.2961320469427
 21
-220.5790106184525
 31
0.0
  0
LINE
  5
4658
330
18
100
AcDbEntity
  8
DRAW2
100
AcDbLine
 10
588.2961920469426
 20
-207.5790506184527
 30
0.0
 11
588.2961920469426
 21
-220.5790106184525
 31
0.0
  0
LINE
  5
4659
330
18
100
AcDbEntity
  8
DRAW2
100
AcDbLine
 10
586.2961320469427
 20
-215.5790006184525
 30
0.0
 11
588.2961920469426
 21
-215.5790006184525
 31
0.0
  0
LINE
  5
465A
330
18
100
AcDbEntity
  8
DRAW2
100
AcDbLine
 10
586.2961320469427
 20
-220.5789806184526
 30
0.0
 11
588.2961920469426
 21
-220.5789806184526
 31
0.0
  0
ARC
  5
465B
330
18
100
AcDbEntity
  8
DRAW2
100
AcDbCircle
 10
583.7961920469426
 20
-204.5790506184526
 30
0.0
 40
1.0
100
AcDbArc
 50
269.9999599999999
 51
359.99995
  0
ARC
  5
465C
330
18
100
AcDbEntity
  8
DRAW2
100
AcDbCircle
 10
586.2961320469427
 20
-207.5790306184526
 30
0.0
 40
2.0
100
AcDbArc
 50
0.0
 51
89.99998199999998
  0
LINE
  5
465D
330
18
100
AcDbEntity
  8
DRAW2
100
AcDbLine
 10
587.2961928323409
 20
-196.0790001184527
 30
0.0
 11
605.2958320469427
 21
-196.0793706184525
 31
0.0
  0
ARC
  5
465E
330
18
100
AcDbEntity
  8
DRAW2
100
AcDbCircle
 10
587.2961920469426
 20
-198.5790006184526
 30
0.0
 40
2.5000005
100
AcDbArc
 50
89.99998199999998
 51
180.00002
  0
LINE
  5
465F
330
18
100
AcDbEntity
  8
DRAW2
100
AcDbLine
 10
605.2958320469427
 20
-196.0793706184525
 30
0.0
 11
611.3580820469426
 21
-199.5794306184526
 31
0.0
  0
ARC
  5
4660
330
18
100
AcDbEntity
  8
DRAW2
100
AcDbCircle
 10
629.6960220469426
 20
-198.5790006184526
 30
0.0
 40
1.0
100
AcDbArc
 50
270.00002
 51
0.0
  0
LINE
  5
4664
330
18
100
AcDbEntity
  8
DRAW2
100
AcDbLine
 10
578.0461620469425
 20
-65.7921633510316
 30
0.0
 11
578.0461620469425
 21
-105.3657733510315
 31
0.0
  0
LINE
  5
4665
330
18
100
AcDbEntity
  8
DRAW2
100
AcDbLine
 10
576.0461620469426
 20
-65.7921633510316
 30
0.0
 11
576.0461620469426
 21
-105.3657733510315
 31
0.0
  0
ARC
  5
4666
330
18
100
AcDbEntity
  8
DRAW2
100
AcDbCircle
 10
557.7233797469425
 20
-79.94980775103158
 30
0.0
 40
3.3226678
100
AcDbArc
 50
325.6168539999997
 51
25.61447999999997
  0
LINE
  5
4667
330
18
100
AcDbEntity
  8
DRAW2
100
AcDbLine
 10
554.5460420469425
 20
-78.0734191510316
 30
0.0
 11
554.5460420469424
 21
-93.08452755103166
 31
0.0
  0
LINE
  5
4668
330
18
100
AcDbEntity
  8
DRAW2
100
AcDbLine
 10
561.0460419469425
 20
-79.07894285103157
 30
0.0
 11
561.0460419469425
 21
-92.07897335103167
 31
0.0
  0
ARC
  5
4669
330
18
100
AcDbEntity
  8
DRAW2
100
AcDbCircle
 10
514.5635620469424
 20
-116.4547933510315
 30
0.0
 40
68.800003
100
AcDbArc
 50
26.66545
 51
56.49074299999998
  0
ARC
  5
466A
330
18
100
AcDbEntity
  8
DRAW2
100
AcDbCircle
 10
515.5908420469424
 20
-118.4208933510316
 30
0.0
 40
68.800003
100
AcDbArc
 50
28.512715
 51
57.510732
  0
ARC
  5
466B
330
18
100
AcDbEntity
  8
DRAW2
100
AcDbCircle
 10
513.6334420469425
 20
-114.5289533510315
 30
0.0
 40
68.800003
100
AcDbArc
 50
24.884095
 51
55.556646
  0
ARC
  5
466C
330
18
100
AcDbEntity
  8
DRAW2
100
AcDbCircle
 10
523.5960320469425
 20
-85.57897335103161
 30
0.0
 40
52.450005
100
AcDbArc
 50
303.5012299999999
 51
56.498775
  0
LINE
  5
466D
330
18
100
AcDbEntity
  8
DRAW2
100
AcDbLine
 10
552.5460420469426
 20
-14.57894335103162
 30
0.0
 11
552.5460420469426
 21
-156.5789433510316
 31
0.0
  0
LINE
  5
466E
330
18
100
AcDbEntity
  8
DRAW2
100
AcDbLine
 10
542.0461020469426
 20
-14.57894335103162
 30
0.0
 11
542.0461020469426
 21
-156.5789433510316
 31
0.0
  0
LINE
  5
466F
330
18
100
AcDbEntity
  8
DRAW2
100
AcDbLine
 10
541.0460320469426
 20
-23.57894061845269
 30
0.0
 11
541.0460320469426
 21
-147.5789406184526
 31
0.0
  0
LINE
  5
4670
330
18
100
AcDbEntity
  8
DRAW2
100
AcDbLine
 10
520.3460820469424
 20
-23.57894061845269
 30
0.0
 11
520.3460820469424
 21
-147.5789406184526
 31
0.0
  0
LINE
  5
4671
330
18
100
AcDbEntity
  8
DRAW2
100
AcDbLine
 10
518.3460820469425
 20
-23.57894061845269
 30
0.0
 11
518.3460820469425
 21
-147.5789406184526
 31
0.0
  0
ARC
  5
4672
330
18
100
AcDbEntity
  8
DRAW2
100
AcDbCircle
 10
507.2568020469425
 20
-86.78792335103162
 30
0.0
 40
68.800003
100
AcDbArc
 50
319.1739040452713
 51
338.9639599999998
  0
ARC
  5
4673
330
18
100
AcDbEntity
  8
DRAW2
100
AcDbCircle
 10
574.7383620469425
 20
-112.7404133510316
 30
0.0
 40
3.5000007
100
AcDbArc
 50
33.111278
 51
158.96396
  0
ARC
  5
4674
330
18
100
AcDbEntity
  8
DRAW2
100
AcDbCircle
 10
515.5908420469424
 20
-52.73705335103159
 30
0.0
 40
68.800003
100
AcDbArc
 50
302.48927
 51
331.4872799999998
  0
ARC
  5
4675
330
18
100
AcDbEntity
  8
DRAW2
100
AcDbCircle
 10
513.6334420469425
 20
-56.62899335103162
 30
0.0
 40
68.800003
100
AcDbArc
 50
304.44335
 51
335.1159
  0
ARC
  5
4676
330
18
100
AcDbEntity
  8
DRAW2
100
AcDbCircle
 10
514.5635620469424
 20
-54.70318335103161
 30
0.0
 40
68.800003
100
AcDbArc
 50
303.50926
 51
333.33455
  0
LINE
  5
4677
330
18
100
AcDbEntity
  8
DRAW2
100
AcDbLine
 10
576.0460420469426
 20
-85.57885335103163
 30
0.0
 11
564.9460320469426
 21
-86.28735346788914
 31
0.0
  0
LINE
  5
4678
330
18
100
AcDbEntity
  8
DRAW2
100
AcDbLine
 10
564.9460320469426
 20
-84.87018557472026
 30
0.0
 11
576.0461620469426
 21
-85.57869335103163
 31
0.0
  0
LINE
  5
467A
330
18
100
AcDbEntity
  8
DRAW2
100
AcDbLine
 10
581.2694320469424
 20
-148.2073933510316
 30
0.0
 11
554.8365720469424
 21
-148.2073933510316
 31
0.0
  0
LINE
  5
467B
330
18
100
AcDbEntity
  8
DRAW2
100
AcDbLine
 10
574.5461620469425
 20
-156.5789433510316
 30
0.0
 11
552.5460420469426
 21
-156.5789433510316
 31
0.0
  0
LINE
  5
467D
330
18
100
AcDbEntity
  8
DRAW2
100
AcDbLine
 10
585.0461020469425
 20
-166.5789733510316
 30
0.0
 11
545.7961920469426
 21
-166.5790806184527
 31
0.0
  0
LINE
  5
467E
330
18
100
AcDbEntity
  8
DRAW2
100
AcDbLine
 10
520.3460820469424
 20
-147.5789406184526
 30
0.0
 11
541.0460320469426
 21
-147.5789406184526
 31
0.0
  0
LINE
  5
467F
330
18
100
AcDbEntity
  8
DRAW2
100
AcDbLine
 10
518.3460820469425
 20
-147.3289506184526
 30
0.0
 11
520.3460820469424
 21
-147.3289506184526
 31
0.0
  0
LINE
  5
4680
330
18
100
AcDbEntity
  8
DRAW3
100
AcDbLine
 10
568.6711820469427
 20
-151.1790133510315
 30
0.0
 11
568.6711820469427
 21
-156.5789433510316
 31
0.0
  0
LINE
  5
4681
330
18
100
AcDbEntity
  8
DRAW2
100
AcDbLine
 10
569.2961820469427
 20
-151.8040133510315
 30
0.0
 11
569.2961820469427
 21
-156.5789433510316
 31
0.0
  0
LINE
  5
4682
330
18
100
AcDbEntity
  8
DRAW3
100
AcDbLine
 10
561.9211820469427
 20
-151.1790133510315
 30
0.0
 11
561.9211820469427
 21
-156.5789433510316
 31
0.0
  0
LINE
  5
4683
330
18
100
AcDbEntity
  8
DRAW2
100
AcDbLine
 10
561.2961220469426
 20
-151.8040133510315
 30
0.0
 11
561.2961220469426
 21
-156.5789433510316
 31
0.0
  0
LINE
  5
4684
330
18
100
AcDbEntity
  8
DRAW2
100
AcDbLine
 10
546.0461020469426
 20
-156.5789433510316
 30
0.0
 11
546.0461020469426
 21
-166.5789733510316
 31
0.0
  0
LINE
  5
4685
330
18
100
AcDbEntity
  8
DRAW2
100
AcDbLine
 10
545.7961920469426
 20
-170.5790306184526
 30
0.0
 11
545.7961920469426
 21
-166.5790806184527
 31
0.0
  0
LINE
  5
4686
330
18
100
AcDbEntity
  8
DRAW2
100
AcDbLine
 10
546.7960920469424
 20
-166.5790006184526
 30
0.0
 11
547.0460920469426
 21
-166.5790006184526
 31
0.0
  0
LINE
  5
4687
330
18
100
AcDbEntity
  8
DRAW2
100
AcDbLine
 10
546.0461620469425
 20
-156.5789433510316
 30
0.0
 11
542.0462220469426
 21
-156.5789433510316
 31
0.0
  0
LINE
  5
4688
330
18
100
AcDbEntity
  8
DRAW2
100
AcDbLine
 10
571.2980620469425
 20
-165.0790333510316
 30
0.0
 11
571.2980620469425
 21
-158.0790133510315
 31
0.0
  0
LINE
  5
4689
330
18
100
AcDbEntity
  8
DRAW2
100
AcDbLine
 10
542.0461020469425
 20
-143.2725306184526
 30
0.0
 11
541.0460320469426
 21
-143.2725306184526
 31
0.0
  0
LINE
  5
468A
330
18
100
AcDbEntity
  8
DRAW2
100
AcDbLine
 10
543.5461620469427
 20
-147.5790133510316
 30
0.0
 11
551.0461020469427
 21
-147.5790133510316
 31
0.0
  0
LINE
  5
468B
330
18
100
AcDbEntity
  8
DRAW2
100
AcDbLine
 10
542.0461020469425
 20
-135.2725106184525
 30
0.0
 11
541.0460320469426
 21
-135.2725106184525
 31
0.0
  0
LINE
  5
468C
330
18
100
AcDbEntity
  8
DRAW2
100
AcDbLine
 10
564.3210920469425
 20
-143.2725433510315
 30
0.0
 11
564.3210920469425
 21
-135.2725633510315
 31
0.0
  0
LINE
  5
468D
330
18
100
AcDbEntity
  8
DRAW2
100
AcDbLine
 10
564.9460320469424
 20
-142.6475633510315
 30
0.0
 11
564.9460320469424
 21
-135.8975433510315
 31
0.0
  0
LINE
  5
468E
330
18
100
AcDbEntity
  8
DRAW2
100
AcDbLine
 10
561.0460419469425
 20
-132.7725028510315
 30
0.0
 11
561.0460419469425
 21
-145.7725333510314
 31
0.0
  0
ARC
  5
468F
330
18
100
AcDbEntity
  8
DRAW2
100
AcDbCircle
 10
548.6261812469424
 20
-139.2725333510314
 30
0.0
 40
12.419868
100
AcDbArc
 50
342.412655
 51
17.58735999999965
  0
LINE
  5
4690
330
18
100
AcDbEntity
  8
DRAW2
100
AcDbLine
 10
554.5460420469425
 20
-131.7669791510314
 30
0.0
 11
554.5460420469424
 21
-146.7780875510315
 31
0.0
  0
LINE
  5
4691
330
18
100
AcDbEntity
  8
DRAW3
100
AcDbLine
 10
564.9460920469425
 20
-142.6475733510315
 30
0.0
 11
561.0459820469425
 21
-142.6475633510315
 31
0.0
  0
LINE
  5
4692
330
18
100
AcDbEntity
  8
DRAW2
100
AcDbLine
 10
564.3210920469425
 20
-143.2725333548712
 30
0.0
 11
561.0459820469425
 21
-143.2725433510315
 31
0.0
  0
LINE
  5
4693
330
18
100
AcDbEntity
  8
DRAW2
100
AcDbLine
 10
561.2961820469426
 20
-151.8040433510314
 30
0.0
 11
561.9211820469427
 21
-151.1790133510315
 31
0.0
  0
LINE
  5
4694
330
18
100
AcDbEntity
  8
DRAW2
100
AcDbLine
 10
561.2961220469426
 20
-151.8040133510315
 30
0.0
 11
569.2961820469427
 21
-151.8040133510315
 31
0.0
  0
LINE
  5
4695
330
18
100
AcDbEntity
  8
DRAW2
100
AcDbLine
 10
561.0460369469425
 20
-145.7725309510315
 30
0.0
 11
560.4654708469424
 21
-146.7781013510315
 31
0.0
  0
ARC
  5
4696
330
18
100
AcDbEntity
  8
DRAW2
100
AcDbCircle
 10
557.7234407469425
 20
-144.9016989510314
 30
0.0
 40
3.322595799999999
100
AcDbArc
 50
334.3832070000007
 51
34.38391000000086
  0
LINE
  5
4697
330
18
100
AcDbEntity
  8
DRAW2
100
AcDbLine
 10
554.5460420469424
 20
-146.5725211510315
 30
0.0
 11
552.5460420469425
 21
-146.5725211510315
 31
0.0
  0
LINE
  5
4698
330
18
100
AcDbEntity
  8
DRAW2
100
AcDbLine
 10
560.4654909469425
 20
-146.7780875510315
 30
0.0
 11
554.5460420469424
 21
-146.7780875510315
 31
0.0
  0
LINE
  5
4699
330
18
100
AcDbEntity
  8
DRAW2
100
AcDbLine
 10
560.4655061469425
 20
-143.0253104510314
 30
0.0
 11
554.5460420469424
 21
-143.0253104510314
 31
0.0
  0
LINE
  5
469A
330
18
100
AcDbEntity
  8
DRAW2
100
AcDbLine
 10
564.3210320469425
 20
-143.2725933510316
 30
0.0
 11
564.9460920469425
 21
-142.6475733510315
 31
0.0
  0
LINE
  5
469B
330
18
100
AcDbEntity
  8
DRAW2
100
AcDbLine
 10
569.2961820469427
 20
-151.8040433510314
 30
0.0
 11
568.6711820469427
 21
-151.1790133510315
 31
0.0
  0
LINE
  5
469C
330
18
100
AcDbEntity
  8
DRAW2
100
AcDbLine
 10
561.9211820469427
 20
-151.1790133510315
 30
0.0
 11
568.6711820469427
 21
-151.1790133510315
 31
0.0
  0
LINE
  5
469D
330
18
100
AcDbEntity
  8
DRAW2
100
AcDbLine
 10
564.3210920469425
 20
-135.2726533481516
 30
0.0
 11
561.0459820469425
 21
-135.2725633510315
 31
0.0
  0
LINE
  5
469E
330
18
100
AcDbEntity
  8
DRAW3
100
AcDbLine
 10
564.9460320469424
 20
-135.8975433510315
 30
0.0
 11
561.0459820469425
 21
-135.8975433510315
 31
0.0
  0
LINE
  5
469F
330
18
100
AcDbEntity
  8
DRAW2
100
AcDbLine
 10
554.5460420469425
 20
-131.9725455510315
 30
0.0
 11
552.5460420469426
 21
-131.9725455510315
 31
0.0
  0
LINE
  5
46A0
330
18
100
AcDbEntity
  8
DRAW2
100
AcDbLine
 10
560.4655061469425
 20
-131.7669791510314
 30
0.0
 11
554.5460420469425
 21
-131.7669791510314
 31
0.0
  0
LINE
  5
46A1
330
18
100
AcDbEntity
  8
DRAW2
100
AcDbLine
 10
554.5460723469425
 20
-138.4065386010315
 30
0.0
 11
552.5460579469425
 21
-139.5612475510315
 31
0.0
  0
LINE
  5
46A2
330
18
100
AcDbEntity
  8
DRAW2
100
AcDbLine
 10
554.5460139469425
 20
-138.9838909410315
 30
0.0
 11
552.5460259469425
 21
-140.1385846710314
 31
0.0
  0
LINE
  5
46A3
330
18
100
AcDbEntity
  8
DRAW2
100
AcDbLine
 10
560.4655061469425
 20
-135.5197562510314
 30
0.0
 11
554.5460420469425
 21
-135.5197562510314
 31
0.0
  0
LINE
  5
46A4
330
18
100
AcDbEntity
  8
DRAW2
100
AcDbLine
 10
560.4654823469425
 20
-131.7669677510315
 30
0.0
 11
561.0460219469425
 21
-132.7724918510315
 31
0.0
  0
ARC
  5
46A5
330
18
100
AcDbEntity
  8
DRAW2
100
AcDbCircle
 10
557.7233797469425
 20
-133.6433677510315
 30
0.0
 40
3.3226678
100
AcDbArc
 50
325.6168539999997
 51
25.61447999999997
  0
LINE
  5
46A6
330
18
100
AcDbEntity
  8
DRAW2
100
AcDbLine
 10
564.3210320469425
 20
-135.2725933510316
 30
0.0
 11
564.9460320469424
 21
-135.8975633510315
 31
0.0
  0
LINE
  5
46A7
330
18
100
AcDbEntity
  8
DRAW2
100
AcDbLine
 10
542.0461020469425
 20
-81.57900061845266
 30
0.0
 11
541.0460320469426
 21
-81.57900061845266
 31
0.0
  0
LINE
  5
46A8
330
18
100
AcDbEntity
  8
DRAW2
100
AcDbLine
 10
542.0461020469425
 20
-89.57897061845267
 30
0.0
 11
541.0460320469426
 21
-89.57897061845267
 31
0.0
  0
ARC
  5
46A9
330
18
100
AcDbEntity
  8
DRAW2
100
AcDbCircle
 10
557.7234407469425
 20
-91.20813895103163
 30
0.0
 40
3.322595799999999
100
AcDbArc
 50
334.3832070000007
 51
34.38391000000086
  0
LINE
  5
46AA
330
18
100
AcDbEntity
  8
DRAW2
100
AcDbLine
 10
560.4654909469425
 20
-93.08452755103166
 30
0.0
 11
554.5460420469424
 21
-93.08452755103166
 31
0.0
  0
LINE
  5
46AB
330
18
100
AcDbEntity
  8
DRAW2
100
AcDbLine
 10
554.5460420469424
 20
-92.8789611510316
 30
0.0
 11
552.5460420469425
 21
-92.8789611510316
 31
0.0
  0
LINE
  5
46AC
330
18
100
AcDbEntity
  8
DRAW2
100
AcDbLine
 10
561.0460369469425
 20
-92.07897095103158
 30
0.0
 11
560.4654708469424
 21
-93.08454135103159
 31
0.0
  0
LINE
  5
46AD
330
18
100
AcDbEntity
  8
DRAW2
100
AcDbLine
 10
564.3210920469425
 20
-81.57909334815178
 30
0.0
 11
561.0459820469425
 21
-81.57900335103159
 31
0.0
  0
LINE
  5
46AE
330
18
100
AcDbEntity
  8
DRAW3
100
AcDbLine
 10
564.9460320469424
 20
-82.20400335103159
 30
0.0
 11
561.0459820469425
 21
-82.20398335103164
 31
0.0
  0
LINE
  5
46AF
330
18
100
AcDbEntity
  8
DRAW3
100
AcDbLine
 10
564.9460920469425
 20
-88.95401335103157
 30
0.0
 11
561.0459820469425
 21
-88.95400335103159
 31
0.0
  0
LINE
  5
46B0
330
18
100
AcDbEntity
  8
DRAW2
100
AcDbLine
 10
564.3210920469425
 20
-89.57897335487132
 30
0.0
 11
561.0459820469425
 21
-89.57898335103164
 31
0.0
  0
LINE
  5
46B1
330
18
100
AcDbEntity
  8
DRAW2
100
AcDbLine
 10
560.4655061469425
 20
-81.82619625103161
 30
0.0
 11
554.5460420469425
 21
-81.82619625103161
 31
0.0
  0
LINE
  5
46B2
330
18
100
AcDbEntity
  8
DRAW2
100
AcDbLine
 10
554.5460139469425
 20
-85.29033094103159
 30
0.0
 11
552.5460259469425
 21
-86.4450246710316
 31
0.0
  0
LINE
  5
46B3
330
18
100
AcDbEntity
  8
DRAW2
100
AcDbLine
 10
554.5460723469425
 20
-84.71297860103163
 30
0.0
 11
552.5460579469425
 21
-85.86768755103163
 31
0.0
  0
LINE
  5
46B4
330
18
100
AcDbEntity
  8
DRAW2
100
AcDbLine
 10
560.4655061469425
 20
-89.33175045103167
 30
0.0
 11
554.5460420469424
 21
-89.33175045103167
 31
0.0
  0
ARC
  5
46B5
330
18
100
AcDbEntity
  8
DRAW2
100
AcDbCircle
 10
548.6261812469424
 20
-85.57897335103161
 30
0.0
 40
12.419868
100
AcDbArc
 50
342.412655
 51
17.58735999999965
  0
LINE
  5
46B6
330
18
100
AcDbEntity
  8
DRAW2
100
AcDbLine
 10
564.3210320469425
 20
-89.57903335103173
 30
0.0
 11
564.9460920469425
 21
-88.95401335103157
 31
0.0
  0
LINE
  5
46B7
330
18
100
AcDbEntity
  8
DRAW2
100
AcDbLine
 10
564.9460320469424
 20
-88.95400335103159
 30
0.0
 11
564.9460320469424
 21
-82.20398335103164
 31
0.0
  0
LINE
  5
46B8
330
18
100
AcDbEntity
  8
DRAW2
100
AcDbLine
 10
564.3210320469425
 20
-81.57903335103174
 30
0.0
 11
564.9460320469424
 21
-82.20400335103159
 31
0.0
  0
LINE
  5
46B9
330
18
100
AcDbEntity
  8
DRAW2
100
AcDbLine
 10
564.3210920469425
 20
-89.57898335103164
 30
0.0
 11
564.3210920469425
 21
-81.57900335103159
 31
0.0
  0
LINE
  5
46BA
330
18
100
AcDbEntity
  8
DRAW2
100
AcDbLine
 10
585.0461020469425
 20
-120.5644633510314
 30
0.0
 11
585.0461020469425
 21
-166.5789733510316
 31
0.0
  0
LINE
  5
46BB
330
18
100
AcDbEntity
  8
DRAW2
100
AcDbLine
 10
611.3582720469426
 20
-166.5790006184526
 30
0.0
 11
629.6960220469426
 21
-166.5790006184526
 31
0.0
  0
LINE
  5
46BC
330
18
100
AcDbEntity
  8
DRAW2
100
AcDbLine
 10
574.5467120469425
 20
-156.5793833510315
 30
0.0
 11
585.0467120469424
 21
-148.2078633510315
 31
0.0
  0
LINE
  5
46BD
330
18
100
AcDbEntity
  8
DRAW2
100
AcDbLine
 10
587.2961929196073
 20
-170.0790011184524
 30
0.0
 11
605.2963593211964
 21
-170.0790101185836
 31
0.0
  0
ARC
  5
46BE
330
18
100
AcDbEntity
  8
DRAW2
100
AcDbCircle
 10
587.2961920469426
 20
-167.5790006184525
 30
0.0
 40
2.5000005
100
AcDbArc
 50
180.0000399999998
 51
270.00002
  0
LINE
  5
46BF
330
18
100
AcDbEntity
  8
DRAW2
100
AcDbLine
 10
584.7961915469432
 20
-167.5790023637821
 30
0.0
 11
584.7961915469432
 21
-166.5790523637822
 31
0.0
  0
LINE
  5
46C0
330
18
100
AcDbEntity
  8
DRAW2
100
AcDbLine
 10
605.2960120469426
 20
-170.0792106184526
 30
0.0
 11
611.3582120469426
 21
-166.5791806184527
 31
0.0
  0
ARC
  5
46C1
330
18
100
AcDbEntity
  8
DRAW2
100
AcDbCircle
 10
629.6960220469426
 20
-167.5790006184525
 30
0.0
 40
1.0
100
AcDbArc
 50
0.0
 51
89.99998199999998
  0
ARC
  5
46C2
330
18
100
AcDbEntity
  8
DRAW2
100
AcDbCircle
 10
575.0461620469425
 20
-120.5644133510315
 30
0.0
 40
10.000002
100
AcDbArc
 50
0.000035972178
 51
49.458407
  0
ARC
  5
46C3
330
18
100
AcDbEntity
  8
DRAW2
100
AcDbCircle
 10
565.5461620469425
 20
-126.5789533510314
 30
0.0
 40
19.50000199999998
100
AcDbArc
 50
0.000035972178
 51
45.97950499999999
  0
ARC
  5
46C4
330
18
100
AcDbEntity
  8
DRAW2
100
AcDbCircle
 10
586.0460420469425
 20
-105.3657733510315
 30
0.0
 40
10.000002
100
AcDbArc
 50
180.0000499999999
 51
225.97957
  0
ARC
  5
46C5
330
18
100
AcDbEntity
  8
DRAW2
100
AcDbCircle
 10
588.0461020469426
 20
-105.3657733510315
 30
0.0
 40
10.000002
100
AcDbArc
 50
180.0000499999999
 51
229.45836
  0
ARC
  5
46C6
330
18
100
AcDbEntity
  8
DRAW2
100
AcDbCircle
 10
574.7383620469425
 20
-58.41759335103166
 30
0.0
 40
3.5000007
100
AcDbArc
 50
201.03604
 51
326.88872
  0
ARC
  5
46C7
330
18
100
AcDbEntity
  8
DRAW2
100
AcDbCircle
 10
507.2568020469425
 20
-84.37005335103163
 30
0.0
 40
68.800003
100
AcDbArc
 50
21.036038
 51
40.82614298432047
  0
LINE
  5
46C8
330
18
100
AcDbEntity
  8
DRAW2
100
AcDbLine
 10
581.2694320469424
 20
-22.95058335103163
 30
0.0
 11
554.8365720469424
 21
-22.95058335103163
 31
0.0
  0
LINE
  5
46CA
330
18
100
AcDbEntity
  8
DRAW2
100
AcDbLine
 10
574.5461620469425
 20
-14.5789733510316
 30
0.0
 11
552.5460420469426
 21
-14.5789733510316
 31
0.0
  0
LINE
  5
46CB
330
18
100
AcDbEntity
  8
DRAW2
100
AcDbLine
 10
585.0462220469425
 20
-4.579003351031587
 30
0.0
 11
546.0462220469426
 21
-4.579003351031587
 31
0.0
  0
LINE
  5
46CC
330
18
100
AcDbEntity
  8
DRAW2
100
AcDbLine
 10
554.5460420469425
 20
-24.37984641845264
 30
0.0
 11
554.5460420469424
 21
-39.39095481845265
 31
0.0
  0
ARC
  5
46CD
330
18
100
AcDbEntity
  8
DRAW2
100
AcDbCircle
 10
548.6261812469424
 20
-31.88540061845265
 30
0.0
 40
12.419868
100
AcDbArc
 50
342.412655
 51
17.58735999999965
  0
LINE
  5
46CE
330
18
100
AcDbEntity
  8
DRAW2
100
AcDbLine
 10
561.0460419469425
 20
-25.38537011845267
 30
0.0
 11
561.0460419469425
 21
-38.38540061845264
 31
0.0
  0
LINE
  5
46CF
330
18
100
AcDbEntity
  8
DRAW2
100
AcDbLine
 10
564.3210920469425
 20
-35.88541061845262
 30
0.0
 11
564.3210920469425
 21
-27.88543061845269
 31
0.0
  0
LINE
  5
46D0
330
18
100
AcDbEntity
  8
DRAW2
100
AcDbLine
 10
564.9460320469424
 20
-35.26043061845268
 30
0.0
 11
564.9460320469424
 21
-28.51041061845262
 31
0.0
  0
ARC
  5
46D1
330
18
100
AcDbEntity
  8
DRAW2
100
AcDbCircle
 10
491.8460820469426
 20
-30.57894061845269
 30
0.0
 40
0.5
100
AcDbArc
 50
90.0
 51
180.0
  0
ARC
  5
46D2
330
18
100
AcDbEntity
  8
DRAW2
100
AcDbCircle
 10
492.8460820469426
 20
-30.57894061845269
 30
0.0
 40
0.5
100
AcDbArc
 50
90.0
 51
180.0
  0
ARC
  5
46D3
330
18
100
AcDbEntity
  8
DRAW2
100
AcDbCircle
 10
497.8460820469424
 20
-30.57894061845269
 30
0.0
 40
0.5
100
AcDbArc
 50
0.0
 51
90.0
  0
ARC
  5
46D4
330
18
100
AcDbEntity
  8
DRAW2
100
AcDbCircle
 10
498.8460820469425
 20
-30.57894061845269
 30
0.0
 40
0.5
100
AcDbArc
 50
0.0
 51
90.0
  0
ARC
  5
46D5
330
18
100
AcDbEntity
  8
DRAW2
100
AcDbCircle
 10
500.3460820469426
 20
-31.07894061845269
 30
0.0
 40
1.0
100
AcDbArc
 50
0.0
 51
90.0
  0
LINE
  5
46D7
330
18
100
AcDbEntity
  8
DRAW2
100
AcDbLine
 10
503.8460820469425
 20
-54.62090072690284
 30
0.0
 11
503.8460820469425
 21
-60.53698051000248
 31
0.0
  0
CIRCLE
  5
46D8
330
18
100
AcDbEntity
  8
DRAW2
100
AcDbCircle
 10
495.3460820469425
 20
-57.57894061845269
 30
0.0
 40
3.0
  0
LINE
  5
46D9
330
18
100
AcDbEntity
  8
DRAW2
100
AcDbLine
 10
502.1578197384323
 20
-63.46113660484547
 30
0.0
 11
497.0343443554527
 21
-66.41917649639532
 31
0.0
  0
ARC
  5
46DA
330
18
100
AcDbEntity
  8
DRAW2
100
AcDbCircle
 10
495.3460820469425
 20
-57.57894061845269
 30
0.0
 40
9.0
100
AcDbArc
 50
259.1881364537209
 51
280.8118635462789
  0
ARC
  5
46DB
330
18
100
AcDbEntity
  8
DRAW2
100
AcDbCircle
 10
495.3460820469425
 20
-57.57894061845269
 30
0.0
 40
9.0
100
AcDbArc
 50
319.1881364537209
 51
340.8118635462792
  0
LINE
  5
46DC
330
18
100
AcDbEntity
  8
DRAW2
100
AcDbLine
 10
503.3460820469425
 20
-40.57894061845269
 30
0.0
 11
503.3460820469425
 21
-44.57894061845268
 31
0.0
  0
ARC
  5
46DD
330
18
100
AcDbEntity
  8
DRAW2
100
AcDbCircle
 10
502.3460820469424
 20
-50.07338711898757
 30
0.0
 40
1.5
100
AcDbArc
 50
180.0
 51
239.9999999999999
  0
LINE
  5
46DE
330
18
100
AcDbEntity
  8
DRAW2
100
AcDbLine
 10
497.0343443554527
 20
-48.73870474051006
 30
0.0
 11
502.1578197384323
 21
-51.69674463205985
 31
0.0
  0
ARC
  5
46DF
330
18
100
AcDbEntity
  8
DRAW2
100
AcDbCircle
 10
495.3460820469425
 20
-57.57894061845269
 30
0.0
 40
9.0
100
AcDbArc
 50
79.18813645372094
 51
100.8118635462789
  0
LINE
  5
46E0
330
18
100
AcDbEntity
  8
DRAW2
100
AcDbLine
 10
500.8460820469426
 20
-45.57894061845269
 30
0.0
 11
500.8460820469426
 21
-50.07338711898757
 31
0.0
  0
ARC
  5
46E1
330
18
100
AcDbEntity
  8
DRAW2
100
AcDbCircle
 10
502.3460820469424
 20
-44.57894061845268
 30
0.0
 40
1.0
100
AcDbArc
 50
270.0
 51
0.0
  0
ARC
  5
46E2
330
18
100
AcDbEntity
  8
DRAW2
100
AcDbCircle
 10
495.3460820469425
 20
-57.57894061845269
 30
0.0
 40
9.0
100
AcDbArc
 50
19.18813645372088
 51
40.81186354627909
  0
LINE
  5
46E3
330
18
100
AcDbEntity
  8
DRAW2
100
AcDbLine
 10
502.3460820469424
 20
-39.57894061845269
 30
0.0
 11
499.3460820469425
 21
-39.57894061845269
 31
0.0
  0
LINE
  5
46E4
330
18
100
AcDbEntity
  8
DRAW2
100
AcDbLine
 10
492.400174600332
 20
-41.57894061845269
 30
0.0
 11
491.8460820469426
 21
-41.57894061845269
 31
0.0
  0
ARC
  5
46E5
330
18
100
AcDbEntity
  8
DRAW2
100
AcDbCircle
 10
497.0528220047371
 20
-39.44257698208906
 30
0.0
 40
0.5
100
AcDbArc
 50
18.4349488229221
 51
90.0
  0
ARC
  5
46E6
330
18
100
AcDbEntity
  8
DRAW2
100
AcDbCircle
 10
493.6393420891478
 20
-39.44257698208906
 30
0.0
 40
0.5
100
AcDbArc
 50
90.0
 51
161.565051177078
  0
LINE
  5
46E7
330
18
100
AcDbEntity
  8
DRAW2
100
AcDbLine
 10
497.0528220047371
 20
-38.94257698208906
 30
0.0
 11
493.6393420891478
 21
-38.94257698208906
 31
0.0
  0
LINE
  5
46E8
330
18
100
AcDbEntity
  8
DRAW2
100
AcDbLine
 10
493.1650004401227
 20
-39.28446309908065
 30
0.0
 11
492.400174600332
 21
-41.57894061845269
 31
0.0
  0
LINE
  5
46E9
330
18
100
AcDbEntity
  8
DRAW2
100
AcDbLine
 10
497.5271636537623
 20
-39.28446309908065
 30
0.0
 11
498.2919894935531
 21
-41.57894061845269
 31
0.0
  0
ARC
  5
46EA
330
18
100
AcDbEntity
  8
DRAW2
100
AcDbCircle
 10
497.8460820469424
 20
-38.07894061845269
 30
0.0
 40
0.5
100
AcDbArc
 50
270.0
 51
0.0
  0
ARC
  5
46EB
330
18
100
AcDbEntity
  8
DRAW2
100
AcDbCircle
 10
498.8460820469425
 20
-41.07894061845269
 30
0.0
 40
0.5
100
AcDbArc
 50
270.0
 51
0.0
  0
ARC
  5
46EC
330
18
100
AcDbEntity
  8
DRAW2
100
AcDbCircle
 10
491.8460820469426
 20
-41.07894061845269
 30
0.0
 40
0.5
100
AcDbArc
 50
180.0
 51
270.0
  0
ARC
  5
46ED
330
18
100
AcDbEntity
  8
DRAW2
100
AcDbCircle
 10
492.8460820469426
 20
-38.07894061845269
 30
0.0
 40
0.5
100
AcDbArc
 50
180.0
 51
270.0
  0
LINE
  5
46EE
330
18
100
AcDbEntity
  8
DRAW2
100
AcDbLine
 10
492.3460820469426
 20
-38.57894061845269
 30
0.0
 11
491.5127487136091
 21
-41.07894061845269
 31
0.0
  0
LINE
  5
46EF
330
18
100
AcDbEntity
  8
DRAW2
100
AcDbLine
 10
498.3460820469424
 20
-38.57894061845269
 30
0.0
 11
499.1794153802758
 21
-41.07894061845269
 31
0.0
  0
LINE
  5
46F0
330
18
100
AcDbEntity
  8
DRAW2
100
AcDbLine
 10
497.8460820469424
 20
-38.57894061845269
 30
0.0
 11
492.8460820469426
 21
-38.57894061845269
 31
0.0
  0
LINE
  5
46F1
330
18
100
AcDbEntity
  8
DRAW2
100
AcDbLine
 10
498.8460820469425
 20
-41.57894061845269
 30
0.0
 11
498.2919894935531
 21
-41.57894061845269
 31
0.0
  0
LINE
  5
46F2
330
18
100
AcDbEntity
  8
DRAW2
100
AcDbLine
 10
492.3460820469426
 20
-38.07894061845269
 30
0.0
 11
492.3460820469426
 21
-30.57894061845269
 31
0.0
  0
LINE
  5
46F3
330
18
100
AcDbEntity
  8
DRAW2
100
AcDbLine
 10
498.3460820469424
 20
-38.07894061845269
 30
0.0
 11
498.3460820469424
 21
-30.57894061845269
 31
0.0
  0
LINE
  5
46F4
330
18
100
AcDbEntity
  8
DRAW2
100
AcDbLine
 10
491.3460820469425
 20
-41.07894061845269
 30
0.0
 11
491.3460820469425
 21
-30.57894061845269
 31
0.0
  0
LINE
  5
46F5
330
18
100
AcDbEntity
  8
DRAW2
100
AcDbLine
 10
499.3460820469425
 20
-41.07894061845269
 30
0.0
 11
499.3460820469425
 21
-30.57894061845269
 31
0.0
  0
ARC
  5
46F6
330
18
100
AcDbEntity
  8
DRAW2
100
AcDbCircle
 10
502.3460820469424
 20
-40.57894061845269
 30
0.0
 40
1.0
100
AcDbArc
 50
0.0
 51
90.0
  0
LINE
  5
46F7
330
18
100
AcDbEntity
  8
DRAW2
100
AcDbLine
 10
501.3460820469425
 20
-31.07894061845269
 30
0.0
 11
501.3460820469425
 21
-39.57894061845269
 31
0.0
  0
LINE
  5
46F8
330
18
100
AcDbEntity
  8
DRAW2
100
AcDbLine
 10
560.4655061469425
 20
-78.0734191510316
 30
0.0
 11
554.5460420469425
 21
-78.0734191510316
 31
0.0
  0
LINE
  5
46F9
330
18
100
AcDbEntity
  8
DRAW2
100
AcDbLine
 10
554.5460420469425
 20
-78.27898555103161
 30
0.0
 11
552.5460420469426
 21
-78.27898555103161
 31
0.0
  0
LINE
  5
46FA
330
18
100
AcDbEntity
  8
DRAW2
100
AcDbLine
 10
560.4654823469425
 20
-78.0734077510316
 30
0.0
 11
561.0460219469425
 21
-79.07893185103159
 31
0.0
  0
LINE
  5
46FB
330
18
100
AcDbEntity
  8
DRAW2
100
AcDbLine
 10
542.0461020469425
 20
-35.88546061845267
 30
0.0
 11
541.0460320469426
 21
-35.88546061845267
 31
0.0
  0
LINE
  5
46FC
330
18
100
AcDbEntity
  8
DRAW3
100
AcDbLine
 10
564.9460920469425
 20
-35.26044061845266
 30
0.0
 11
561.0459820469425
 21
-35.26043061845268
 31
0.0
  0
LINE
  5
46FD
330
18
100
AcDbEntity
  8
DRAW2
100
AcDbLine
 10
564.3210920469425
 20
-35.88540062229236
 30
0.0
 11
561.0459820469425
 21
-35.88541061845262
 31
0.0
  0
LINE
  5
46FE
330
18
100
AcDbEntity
  8
DRAW2
100
AcDbLine
 10
554.5460139469425
 20
-31.59675820845268
 30
0.0
 11
552.5460259469425
 21
-32.75145193845264
 31
0.0
  0
LINE
  5
46FF
330
18
100
AcDbEntity
  8
DRAW2
100
AcDbLine
 10
560.4655061469425
 20
-35.63817771845265
 30
0.0
 11
554.5460420469424
 21
-35.63817771845265
 31
0.0
  0
LINE
  5
4700
330
18
100
AcDbEntity
  8
DRAW2
100
AcDbLine
 10
560.4654909469425
 20
-39.39095481845265
 30
0.0
 11
554.5460420469424
 21
-39.39095481845265
 31
0.0
  0
LINE
  5
4701
330
18
100
AcDbEntity
  8
DRAW2
100
AcDbLine
 10
554.5460420469424
 20
-39.18538841845264
 30
0.0
 11
552.5460420469425
 21
-39.18538841845264
 31
0.0
  0
ARC
  5
4702
330
18
100
AcDbEntity
  8
DRAW2
100
AcDbCircle
 10
557.7234407469425
 20
-37.51456621845261
 30
0.0
 40
3.322595799999999
100
AcDbArc
 50
334.3832070000007
 51
34.38391000000086
  0
LINE
  5
4703
330
18
100
AcDbEntity
  8
DRAW2
100
AcDbLine
 10
561.0460369469425
 20
-38.38539821845268
 30
0.0
 11
560.4654708469424
 21
-39.39096861845269
 31
0.0
  0
LINE
  5
4704
330
18
100
AcDbEntity
  8
DRAW2
100
AcDbLine
 10
554.5460723469425
 20
-31.01940586845262
 30
0.0
 11
552.5460579469425
 21
-32.1741148184526
 31
0.0
  0
LINE
  5
4705
330
18
100
AcDbEntity
  8
DRAW2
100
AcDbLine
 10
564.3210320469425
 20
-35.88546061845272
 30
0.0
 11
564.9460920469425
 21
-35.26044061845266
 31
0.0
  0
LINE
  5
4706
330
18
100
AcDbEntity
  8
DRAW2
100
AcDbLine
 10
520.3460820469424
 20
-23.57894061845269
 30
0.0
 11
541.0460320469426
 21
-23.57894061845269
 31
0.0
  0
LINE
  5
4707
330
18
100
AcDbEntity
  8
DRAW2
100
AcDbLine
 10
500.3460820469426
 20
-29.57894061845269
 30
0.0
 11
500.3460820469426
 21
-30.07894061845269
 31
0.0
  0
ARC
  5
4708
330
18
100
AcDbEntity
  8
DRAW2
100
AcDbCircle
 10
499.3460820469425
 20
-29.57894061845269
 30
0.0
 40
1.0
100
AcDbArc
 50
0.0
 51
90.0
  0
LINE
  5
4709
330
18
100
AcDbEntity
  8
DRAW2
100
AcDbLine
 10
499.3460820469425
 20
-28.57894061845269
 30
0.0
 11
491.3460820469425
 21
-28.57894061845269
 31
0.0
  0
LINE
  5
470A
330
18
100
AcDbEntity
  8
DRAW2
100
AcDbLine
 10
518.3460820469425
 20
-23.82897061845267
 30
0.0
 11
520.3460820469424
 21
-23.82897061845267
 31
0.0
  0
LINE
  5
470B
330
18
100
AcDbEntity
  8
DRAW2
100
AcDbLine
 10
546.0461020469426
 20
-4.578883351031606
 30
0.0
 11
546.0461020469426
 21
-14.5789733510316
 31
0.0
  0
LINE
  5
470C
330
18
100
AcDbEntity
  8
DRAW2
100
AcDbLine
 10
542.0461020469425
 20
-27.88543061845269
 30
0.0
 11
541.0460320469426
 21
-27.88543061845269
 31
0.0
  0
LINE
  5
470D
330
18
100
AcDbEntity
  8
DRAW2
100
AcDbLine
 10
543.5461620469427
 20
-23.5789733510316
 30
0.0
 11
551.0461020469427
 21
-23.5789733510316
 31
0.0
  0
LINE
  5
470E
330
18
100
AcDbEntity
  8
DRAW2
100
AcDbLine
 10
546.0461620469425
 20
-14.5789733510316
 30
0.0
 11
542.0462220469426
 21
-14.5789733510316
 31
0.0
  0
LINE
  5
470F
330
18
100
AcDbEntity
  8
DRAW2
100
AcDbLine
 10
569.2961320469426
 20
-21.35396335103155
 30
0.0
 11
569.2961320469426
 21
-14.57900335103158
 31
0.0
  0
LINE
  5
4710
330
18
100
AcDbEntity
  8
DRAW3
100
AcDbLine
 10
568.6711320469425
 20
-21.97896335103155
 30
0.0
 11
568.6711320469425
 21
-14.57900335103158
 31
0.0
  0
LINE
  5
4711
330
18
100
AcDbEntity
  8
DRAW3
100
AcDbLine
 10
561.9211320469426
 20
-21.97896335103155
 30
0.0
 11
561.9211320469426
 21
-14.57900335103158
 31
0.0
  0
LINE
  5
4712
330
18
100
AcDbEntity
  8
DRAW2
100
AcDbLine
 10
561.2960720469425
 20
-21.35396335103155
 30
0.0
 11
561.2960720469425
 21
-14.57900335103158
 31
0.0
  0
LINE
  5
4713
330
18
100
AcDbEntity
  8
DRAW2
100
AcDbLine
 10
564.3210920469425
 20
-27.88543061845269
 30
0.0
 11
561.0459820469425
 21
-27.88543061845269
 31
0.0
  0
LINE
  5
4714
330
18
100
AcDbEntity
  8
DRAW3
100
AcDbLine
 10
564.9460320469424
 20
-28.51043061845269
 30
0.0
 11
561.0459820469425
 21
-28.51041061845262
 31
0.0
  0
LINE
  5
4715
330
18
100
AcDbEntity
  8
DRAW2
100
AcDbLine
 10
561.2961320469426
 20
-21.35396335103155
 30
0.0
 11
561.9210720469425
 21
-21.97893335103157
 31
0.0
  0
LINE
  5
4716
330
18
100
AcDbEntity
  8
DRAW2
100
AcDbLine
 10
561.2960720469425
 20
-21.35396335103155
 30
0.0
 11
569.2961320469426
 21
-21.35396335103155
 31
0.0
  0
LINE
  5
4717
330
18
100
AcDbEntity
  8
DRAW2
100
AcDbLine
 10
560.4655061469425
 20
-28.13262351845264
 30
0.0
 11
554.5460420469425
 21
-28.13262351845264
 31
0.0
  0
LINE
  5
4718
330
18
100
AcDbEntity
  8
DRAW2
100
AcDbLine
 10
560.4655061469425
 20
-24.37984641845264
 30
0.0
 11
554.5460420469425
 21
-24.37984641845264
 31
0.0
  0
LINE
  5
4719
330
18
100
AcDbEntity
  8
DRAW2
100
AcDbLine
 10
554.5460420469425
 20
-24.58541281845265
 30
0.0
 11
552.5460420469426
 21
-24.58541281845265
 31
0.0
  0
ARC
  5
471A
330
18
100
AcDbEntity
  8
DRAW2
100
AcDbCircle
 10
557.7233797469425
 20
-26.25623501845268
 30
0.0
 40
3.3226678
100
AcDbArc
 50
325.6168539999997
 51
25.61447999999997
  0
LINE
  5
471B
330
18
100
AcDbEntity
  8
DRAW2
100
AcDbLine
 10
560.4654823469425
 20
-24.37983501845264
 30
0.0
 11
561.0460219469425
 21
-25.38535911845264
 31
0.0
  0
LINE
  5
471C
330
18
100
AcDbEntity
  8
DRAW2
100
AcDbLine
 10
564.3210320469425
 20
-27.88546061845278
 30
0.0
 11
564.9460320469424
 21
-28.51043061845269
 31
0.0
  0
LINE
  5
471D
330
18
100
AcDbEntity
  8
DRAW2
100
AcDbLine
 10
569.2961920469427
 20
-21.35399335103159
 30
0.0
 11
568.6711920469426
 21
-21.97899335103159
 31
0.0
  0
LINE
  5
471E
330
18
100
AcDbEntity
  8
DRAW2
100
AcDbLine
 10
561.9211320469426
 20
-21.97896335103155
 30
0.0
 11
568.6711320469425
 21
-21.97896335103155
 31
0.0
  0
LINE
  5
471F
330
18
100
AcDbEntity
  8
DRAW2
100
AcDbLine
 10
571.2980620469425
 20
-6.078973351031606
 30
0.0
 11
571.2980620469425
 21
-13.07894335103162
 31
0.0
  0
LINE
  5
4720
330
18
100
AcDbEntity
  8
DRAW2
100
AcDbLine
 10
545.7961320469426
 20
-0.5789706184526722
 30
0.0
 11
545.7961320469426
 21
-4.578880618452672
 31
0.0
  0
LINE
  5
4721
330
18
100
AcDbEntity
  8
DRAW2
100
AcDbLine
 10
545.7961320469426
 20
-4.578880618452672
 30
0.0
 11
547.0460920469426
 21
-4.579000618452653
 31
0.0
  0
LINE
  5
4722
330
18
100
AcDbEntity
  8
DRAW2
100
AcDbLine
 10
585.0461020469425
 20
-4.578883351031606
 30
0.0
 11
585.0461020469425
 21
-50.59346335103163
 31
0.0
  0
ARC
  5
4723
330
18
100
AcDbEntity
  8
DRAW2
100
AcDbCircle
 10
575.0461620469425
 20
-50.59350335103158
 30
0.0
 40
10.000002
100
AcDbArc
 50
310.54165
 51
0.000018669334
  0
ARC
  5
4724
330
18
100
AcDbEntity
  8
DRAW2
100
AcDbCircle
 10
565.5461620469425
 20
-44.57897335103161
 30
0.0
 40
19.50000199999998
100
AcDbArc
 50
314.02049
 51
0.000018669334
  0
ARC
  5
4725
330
18
100
AcDbEntity
  8
DRAW2
100
AcDbCircle
 10
586.0460420469425
 20
-65.7921633510316
 30
0.0
 40
10.000002
100
AcDbArc
 50
134.0204799999999
 51
180.00001
  0
ARC
  5
4726
330
18
100
AcDbEntity
  8
DRAW2
100
AcDbCircle
 10
588.0461020469426
 20
-65.7921633510316
 30
0.0
 40
10.000002
100
AcDbArc
 50
130.54164
 51
180.00001
  0
LINE
  5
4727
330
18
100
AcDbEntity
  8
DRAW2
100
AcDbLine
 10
612.3582320469425
 20
-4.579000618452653
 30
0.0
 11
629.2960123960085
 21
-4.578970618452615
 31
0.0
  0
LINE
  5
4728
330
18
100
AcDbEntity
  8
DRAW2
100
AcDbLine
 10
574.5476320469426
 20
-14.57738335103164
 30
0.0
 11
585.0476320469426
 21
-22.94893335103165
 31
0.0
  0
LINE
  5
4729
330
18
100
AcDbEntity
  8
DRAW2
100
AcDbLine
 10
587.2961328323408
 20
-1.078970118452787
 30
0.0
 11
606.2960920469426
 21
-1.078940618452691
 31
0.0
  0
ARC
  5
472A
330
18
100
AcDbEntity
  8
DRAW2
100
AcDbCircle
 10
587.2961320469426
 20
-3.578970618452672
 30
0.0
 40
2.5000005
100
AcDbArc
 50
89.99998199999998
 51
179.99996
  0
LINE
  5
472B
330
18
100
AcDbEntity
  8
DRAW2
100
AcDbLine
 10
584.7961315469425
 20
-3.578970618452672
 30
0.0
 11
584.7961315469425
 21
-4.578880618452672
 31
0.0
  0
LINE
  5
472C
330
18
100
AcDbEntity
  8
DRAW2
100
AcDbLine
 10
606.2960320469426
 20
-1.078820618452709
 30
0.0
 11
612.3581720469426
 21
-4.578820618452709
 31
0.0
  0
ARC
  5
472D
330
18
100
AcDbEntity
  8
DRAW2
100
AcDbCircle
 10
629.2960120469427
 20
-3.578970618452672
 30
0.0
 40
1.0
100
AcDbArc
 50
270.00002
 51
0.0
  0
ARC
  5
4730
330
18
100
AcDbEntity
  8
DRAW2
100
AcDbCircle
 10
799.6015861493282
 20
-31.07894061845269
 30
0.0
 40
1.0
100
AcDbArc
 50
90.0
 51
180.0
  0
ARC
  5
4734
330
18
100
AcDbEntity
  8
DRAW2
100
AcDbCircle
 10
822.9165407255518
 20
-57.57894061845269
 30
0.0
 40
9.814954576223676
100
AcDbArc
 50
158.1769149490564
 51
201.8230850509433
  0
ARC
  5
4735
330
18
100
AcDbEntity
  8
DRAW2
100
AcDbCircle
 10
779.7543831720923
 20
-57.57894061845269
 30
0.0
 40
33.27802961136473
100
AcDbArc
 50
354.9003235056027
 51
5.099676494397205
  0
ARC
  5
4736
330
18
100
AcDbEntity
  8
DRAW2
100
AcDbCircle
 10
842.9487891265642
 20
-57.57894061845269
 30
0.0
 40
33.27802961136473
100
AcDbArc
 50
174.9003235056026
 51
185.0996764943972
  0
LINE
  5
4737
330
18
100
AcDbEntity
  8
DRAW2
100
AcDbLine
 10
809.6015861493281
 20
-49.32894061845269
 30
0.0
 11
809.6015861493281
 21
-65.82894061845269
 31
0.0
  0
LINE
  5
4738
330
18
100
AcDbEntity
  8
DRAW2
100
AcDbLine
 10
813.1015861493281
 20
-66.07894061845269
 30
0.0
 11
813.1015861493281
 21
-49.07894061845263
 31
0.0
  0
LINE
  5
4739
330
18
100
AcDbEntity
  8
DRAW2
100
AcDbLine
 10
802.6015861493283
 20
-49.32894061845269
 30
0.0
 11
802.6015861493283
 21
-65.82894061845269
 31
0.0
  0
LINE
  5
473B
330
18
100
AcDbEntity
  8
DRAW2
100
AcDbLine
 10
802.6015861493283
 20
-65.82894061845269
 30
0.0
 11
809.6015861493281
 21
-65.82894061845269
 31
0.0
  0
LINE
  5
473C
330
18
100
AcDbEntity
  8
DRAW2
100
AcDbLine
 10
813.8049638404384
 20
-63.11584161070459
 30
0.0
 11
813.8049638404384
 21
-61.22757049828431
 31
0.0
  0
LINE
  5
473D
330
18
100
AcDbEntity
  8
DRAW2
100
AcDbLine
 10
809.8024883553639
 20
-60.53698051000248
 30
0.0
 11
812.9006839432923
 21
-60.53698051000248
 31
0.0
  0
LINE
  5
473E
330
18
100
AcDbEntity
  8
DRAW2
100
AcDbLine
 10
812.9006839432923
 20
-60.53698051000248
 30
0.0
 11
812.9006839432925
 21
-63.46113660484554
 31
0.0
  0
LINE
  5
473F
330
18
100
AcDbEntity
  8
DRAW2
100
AcDbLine
 10
809.8024883553639
 20
-63.46113660484554
 30
0.0
 11
812.9006839432925
 21
-63.46113660484554
 31
0.0
  0
LINE
  5
4740
330
18
100
AcDbEntity
  8
DRAW2
100
AcDbLine
 10
809.8024883553639
 20
-60.53698051000248
 30
0.0
 11
809.8024883553639
 21
-63.46113660484554
 31
0.0
  0
LINE
  5
4741
330
18
100
AcDbEntity
  8
DRAW2
100
AcDbLine
 10
813.8515861493281
 20
-66.82894061845269
 30
0.0
 11
813.8515861493281
 21
-66.76447149053626
 31
0.0
  0
LINE
  5
4742
330
18
100
AcDbEntity
  8
DRAW2
100
AcDbLine
 10
813.1015861493281
 20
-66.07894061845269
 30
0.0
 11
813.8515861493281
 21
-66.82894061845269
 31
0.0
  0
LINE
  5
4743
330
18
100
AcDbEntity
  8
DRAW2
100
AcDbLine
 10
809.8024883553639
 20
-66.57894061845269
 30
0.0
 11
809.6015861493281
 21
-65.82894061845269
 31
0.0
  0
LINE
  5
4744
330
18
100
AcDbEntity
  8
DRAW2
100
AcDbLine
 10
809.8024883553639
 20
-66.41917649639532
 30
0.0
 11
809.8024883553639
 21
-66.57894061845269
 31
0.0
  0
LINE
  5
4745
330
18
100
AcDbEntity
  8
DRAW2
100
AcDbLine
 10
812.9006839432925
 20
-66.41917649639532
 30
0.0
 11
812.9006839432925
 21
-66.57894061845269
 31
0.0
  0
LINE
  5
4746
330
18
100
AcDbEntity
  8
DRAW2
100
AcDbLine
 10
812.9006839432925
 20
-66.57894061845269
 30
0.0
 11
813.1015861493281
 21
-65.82894061845269
 31
0.0
  0
LINE
  5
4747
330
18
100
AcDbEntity
  8
DRAW2
100
AcDbLine
 10
809.8024883553639
 20
-66.41917649639532
 30
0.0
 11
812.9020612400545
 21
-66.41917649639532
 31
0.0
  0
LINE
  5
4748
330
18
100
AcDbEntity
  8
DRAW2
100
AcDbLine
 10
809.8024883553639
 20
-66.57894061845269
 30
0.0
 11
812.9006839432925
 21
-66.57894061845269
 31
0.0
  0
LINE
  5
4749
330
18
100
AcDbEntity
  8
DRAW2
100
AcDbLine
 10
813.8515861493281
 20
-66.82894061845269
 30
0.0
 11
813.1015861493281
 21
-66.07894061845269
 31
0.0
  0
ARC
  5
474A
330
18
100
AcDbEntity
  8
DRAW2
100
AcDbCircle
 10
815.7548481276773
 20
-64.91553873772784
 30
0.0
 40
2.653480447004878
100
AcDbArc
 50
137.293720824622
 51
224.1704540829942
  0
ARC
  5
474B
330
18
100
AcDbEntity
  8
DRAW2
100
AcDbCircle
 10
804.5764656296078
 20
-64.94015655062037
 30
0.0
 40
8.455947153849152
100
AcDbArc
 50
349.9266465340014
 51
10.12656948217037
  0
ARC
  5
474C
330
18
100
AcDbEntity
  8
DRAW2
100
AcDbCircle
 10
818.0830724872469
 20
-64.9362904856228
 30
0.0
 40
8.412313860415329
100
AcDbArc
 50
169.8470989734817
 51
190.1529010265185
  0
LINE
  5
474D
330
18
100
AcDbEntity
  8
DRAW2
100
AcDbLine
 10
802.6015861493283
 20
-49.32894061845269
 30
0.0
 11
809.6015861493281
 21
-49.32894061845269
 31
0.0
  0
LINE
  5
474E
330
18
100
AcDbEntity
  8
DRAW2
100
AcDbLine
 10
813.8515861493281
 20
-48.32894061845269
 30
0.0
 11
813.8515861493281
 21
-48.39340974636917
 31
0.0
  0
LINE
  5
474F
330
18
100
AcDbEntity
  8
DRAW2
100
AcDbLine
 10
813.8049638404384
 20
-52.04203962620079
 30
0.0
 11
813.8049638404384
 21
-53.93031073862108
 31
0.0
  0
ARC
  5
4750
330
18
100
AcDbEntity
  8
DRAW2
100
AcDbCircle
 10
815.7548481276773
 20
-50.24234249917753
 30
0.0
 40
2.653480447004878
100
AcDbArc
 50
135.8295459170057
 51
222.7062791753779
  0
LINE
  5
4751
330
18
100
AcDbEntity
  8
DRAW2
100
AcDbLine
 10
812.9006839432923
 20
-54.62090072690284
 30
0.0
 11
812.9006839432925
 21
-51.69674463205985
 31
0.0
  0
ARC
  5
4752
330
18
100
AcDbEntity
  8
DRAW2
100
AcDbCircle
 10
804.6200998114098
 20
-50.22159075128263
 30
0.0
 40
8.412313860415105
100
AcDbArc
 50
349.8470989734816
 51
10.15290102651898
  0
LINE
  5
4753
330
18
100
AcDbEntity
  8
DRAW2
100
AcDbLine
 10
812.9006839432925
 20
-48.57894061845269
 30
0.0
 11
813.1015861493281
 21
-49.32894061845269
 31
0.0
  0
LINE
  5
4754
330
18
100
AcDbEntity
  8
DRAW2
100
AcDbLine
 10
812.9006839432925
 20
-48.73870474051006
 30
0.0
 11
812.9006839432925
 21
-48.57894061845269
 31
0.0
  0
LINE
  5
4755
330
18
100
AcDbEntity
  8
DRAW2
100
AcDbLine
 10
809.8024883553639
 20
-48.73870474051006
 30
0.0
 11
809.8024883553639
 21
-48.57894061845269
 31
0.0
  0
LINE
  5
4756
330
18
100
AcDbEntity
  8
DRAW2
100
AcDbLine
 10
809.8024883553639
 20
-48.73870474051006
 30
0.0
 11
812.9006839432925
 21
-48.73870474051006
 31
0.0
  0
LINE
  5
4757
330
18
100
AcDbEntity
  8
DRAW2
100
AcDbLine
 10
809.8024883553639
 20
-54.62090072690284
 30
0.0
 11
809.8024883553639
 21
-51.69674463205985
 31
0.0
  0
LINE
  5
4758
330
18
100
AcDbEntity
  8
DRAW2
100
AcDbLine
 10
809.8024883553639
 20
-51.69674463205985
 30
0.0
 11
812.9006839432925
 21
-51.69674463205985
 31
0.0
  0
LINE
  5
4759
330
18
100
AcDbEntity
  8
DRAW2
100
AcDbLine
 10
809.8024883553639
 20
-54.62090072690284
 30
0.0
 11
812.9006839432923
 21
-54.62090072690284
 31
0.0
  0
ARC
  5
475A
330
18
100
AcDbEntity
  8
DRAW2
100
AcDbCircle
 10
818.0830724872469
 20
-50.22159075128257
 30
0.0
 40
8.412313860415331
100
AcDbArc
 50
169.8470989734814
 51
190.1529010265183
  0
LINE
  5
475B
330
18
100
AcDbEntity
  8
DRAW2
100
AcDbLine
 10
813.8515861493281
 20
-48.32894061845269
 30
0.0
 11
813.1015861493281
 21
-49.07894061845269
 31
0.0
  0
LINE
  5
475C
330
18
100
AcDbEntity
  8
DRAW2
100
AcDbLine
 10
809.8024883553639
 20
-48.57894061845269
 30
0.0
 11
812.9006839432925
 21
-48.57894061845269
 31
0.0
  0
LINE
  5
475D
330
18
100
AcDbEntity
  8
DRAW2
100
AcDbLine
 10
809.8024883553639
 20
-48.57894061845269
 30
0.0
 11
809.6015861493281
 21
-49.32894061845269
 31
0.0
  0
ARC
  5
475E
330
18
100
AcDbEntity
  8
DRAW2
100
AcDbCircle
 10
799.6015861493282
 20
-37.74436426504365
 30
0.0
 40
1.0
100
AcDbArc
 50
180.0
 51
259.695153531234
  0
LINE
  5
475F
330
18
100
AcDbEntity
  8
DRAW2
100
AcDbLine
 10
798.6015861493282
 20
-31.07894061845269
 30
0.0
 11
798.6015861493282
 21
-37.74436426504365
 31
0.0
  0
LINE
  5
4760
330
18
100
AcDbEntity
  8
DRAW2
100
AcDbLine
 10
541.0460320469426
 20
139.6509519284236
 30
0.0
 11
468.0461620469428
 21
139.6509519284234
 31
0.0
  0
ARC
  5
4761
330
18
100
AcDbEntity
  8
DRAW2
100
AcDbCircle
 10
495.3460820469424
 20
135.1734088489646
 30
0.0
 40
15.76995377759075
100
AcDbArc
 50
40.45279988428894
 51
139.547200115711
  0
LINE
  5
4762
330
18
100
AcDbEntity
  8
DRAW2
100
AcDbLine
 10
502.0402445469427
 20
138.9409519284235
 30
0.0
 11
488.6519945469427
 21
138.9409519284235
 31
0.0
  0
ARC
  5
4763
330
18
100
AcDbEntity
  8
DRAW2
100
AcDbCircle
 10
495.3460820469424
 20
287.6358638939184
 30
0.0
 40
23.19073196549494
100
AcDbArc
 50
210.4113413381991
 51
329.5886586618008
  0
LINE
  5
4764
330
18
100
AcDbEntity
  8
DRAW2
100
AcDbLine
 10
477.3460820469424
 20
284.6509719284237
 30
0.0
 11
513.3460820469426
 21
284.6509719284237
 31
0.0
  0
LINE
  5
4766
330
18
100
AcDbEntity
  8
DRAW2
100
AcDbLine
 10
547.9963328323408
 20
224.0910254269263
 30
0.0
 11
461.0959920469425
 21
224.0910254269262
 31
0.0
  0
LINE
  5
4767
330
18
100
AcDbEntity
  8
DRAW2
100
AcDbLine
 10
547.9963328323408
 20
199.0910254269261
 30
0.0
 11
461.0959628323408
 21
199.0910254269261
 31
0.0
  0
CIRCLE
  5
4769
330
18
100
AcDbEntity
  8
DRAW2
100
AcDbCircle
 10
495.3460820469428
 20
128.1509519284236
 30
0.0
 40
8.0
  0
CIRCLE
  5
476A
330
18
100
AcDbEntity
  8
DRAW2
100
AcDbCircle
 10
495.3460820469428
 20
128.1509519284236
 30
0.0
 40
5.0
  0
CIRCLE
  5
476B
330
18
100
AcDbEntity
  8
DRAW2
100
AcDbCircle
 10
495.3460820469428
 20
128.1509519284236
 30
0.0
 40
6.0
  0
LINE
  5
476C
330
18
100
AcDbEntity
  8
DRAW2
100
AcDbLine
 10
486.846044546943
 20
118.1509519284236
 30
0.0
 11
492.346082046943
 21
118.1509519284236
 31
0.0
  0
LINE
  5
476D
330
18
100
AcDbEntity
  8
DRAW2
100
AcDbLine
 10
489.8092185546907
 20
118.8543296195338
 30
0.0
 11
491.6974896671113
 21
118.8543296195338
 31
0.0
  0
LINE
  5
476E
330
18
100
AcDbEntity
  8
DRAW2
100
AcDbLine
 10
492.346082046943
 20
117.9500497223879
 30
0.0
 11
489.46384856055
 21
117.9500497223879
 31
0.0
  0
LINE
  5
476F
330
18
100
AcDbEntity
  8
DRAW2
100
AcDbLine
 10
492.3460820469428
 20
107.6509519284236
 30
0.0
 11
487.0960445469428
 21
107.6509519284236
 31
0.0
  0
LINE
  5
4770
330
18
100
AcDbEntity
  8
DRAW2
100
AcDbLine
 10
492.346082046943
 20
114.6509519284236
 30
0.0
 11
487.0960445469428
 21
114.6509519284236
 31
0.0
  0
LINE
  5
4771
330
18
100
AcDbEntity
  8
DRAW2
100
AcDbLine
 10
492.346082046943
 20
114.8518541344593
 30
0.0
 11
489.46384856055
 21
114.8518541344593
 31
0.0
  0
LINE
  5
4772
330
18
100
AcDbEntity
  8
DRAW2
100
AcDbLine
 10
491.6974896671113
 20
135.9439792394197
 30
0.0
 11
489.8092185546907
 21
135.9439792394197
 31
0.0
  0
LINE
  5
4773
330
18
100
AcDbEntity
  8
DRAW2
100
AcDbLine
 10
488.6030108684698
 20
137.3734742172878
 30
0.0
 11
502.0892282254157
 21
137.3734742172878
 31
0.0
  0
LINE
  5
4775
330
18
100
AcDbEntity
  8
DRAW2
100
AcDbLine
 10
465.7961033559399
 20
24.42105888154765
 30
0.0
 11
543.2960729196074
 21
24.42105888154748
 31
0.0
  0
LINE
  5
4776
330
18
100
AcDbEntity
  8
DRAW2
100
AcDbLine
 10
413.2961620469427
 20
227.0910254269262
 30
0.0
 11
413.2961620469427
 21
196.0910254269262
 31
0.0
  0
LINE
  5
4777
330
18
100
AcDbEntity
  8
DRAW2
100
AcDbLine
 10
442.7961620469424
 20
223.0910254269262
 30
0.0
 11
442.7961620469424
 21
200.0910254269262
 31
0.0
  0
LINE
  5
4778
330
18
100
AcDbEntity
  8
DRAW2
100
AcDbLine
 10
444.7961620469427
 20
223.0910254269262
 30
0.0
 11
444.7961620469427
 21
200.0910254269262
 31
0.0
  0
ARC
  5
4779
330
18
100
AcDbEntity
  8
DRAW2
100
AcDbCircle
 10
443.7961620469427
 20
211.5910254269262
 30
0.0
 40
15.5
100
AcDbArc
 50
308.2131600000002
 51
51.7868390000036
  0
ARC
  5
477A
330
18
100
AcDbEntity
  8
DRAW2
100
AcDbCircle
 10
443.7961620469427
 20
211.5910254269262
 30
0.0
 40
15.5
100
AcDbArc
 50
128.2131799999943
 51
231.7867899999983
  0
ARC
  5
477B
330
18
100
AcDbEntity
  8
DRAW2
100
AcDbCircle
 10
443.7961620469427
 20
211.5910254269262
 30
0.0
 40
19.5
100
AcDbArc
 50
155.1653699999985
 51
204.8345599999982
  0
ARC
  5
477C
330
18
100
AcDbEntity
  8
DRAW2
100
AcDbCircle
 10
443.7961620469427
 20
211.5910254269262
 30
0.0
 40
19.5
100
AcDbArc
 50
335.1653999999992
 51
24.83454099999859
  0
LINE
  5
477D
330
18
100
AcDbEntity
  8
DRAW2
100
AcDbLine
 10
412.2929920469427
 20
224.0910254269262
 30
0.0
 11
412.2929920469427
 21
199.0910254269262
 31
0.0
  0
LINE
  5
477E
330
18
100
AcDbEntity
  8
DRAW2
100
AcDbLine
 10
411.2961620469427
 20
200.0910554269262
 30
0.0
 11
411.2961620469427
 21
223.0910254269262
 31
0.0
  0
LINE
  5
4780
330
18
100
AcDbEntity
  8
DRAW2
100
AcDbLine
 10
486.3460445469429
 20
114.8518541344593
 30
0.0
 11
486.3460445469429
 21
117.9500497223879
 31
0.0
  0
LINE
  5
4781
330
18
100
AcDbEntity
  8
DRAW2
100
AcDbLine
 10
486.5058086690002
 20
114.8518541344593
 30
0.0
 11
486.5058086690002
 21
117.9514270191498
 31
0.0
  0
LINE
  5
4782
330
18
100
AcDbEntity
  8
DRAW2
100
AcDbLine
 10
489.46384856055
 20
114.8518541344593
 30
0.0
 11
489.46384856055
 21
117.9500497223879
 31
0.0
  0
ARC
  5
4783
330
18
100
AcDbEntity
  8
DRAW2
100
AcDbCircle
 10
449.4253320469426
 20
40.1984393815473
 30
0.0
 40
3.322595799999998
100
AcDbArc
 50
64.383207
 51
124.38391
  0
LINE
  5
4784
330
18
100
AcDbEntity
  8
DRAW2
100
AcDbLine
 10
450.2961520469425
 20
43.52103938154733
 30
0.0
 11
451.3017220469427
 21
42.9404693815473
 31
0.0
  0
LINE
  5
4785
330
18
100
AcDbEntity
  8
DRAW2
100
AcDbLine
 10
436.2906120469427
 20
38.02103938154732
 30
0.0
 11
451.3017220469427
 21
38.02103938154732
 31
0.0
  0
LINE
  5
4786
330
18
100
AcDbEntity
  8
DRAW2
100
AcDbLine
 10
436.0461020469427
 20
36.0210693815473
 30
0.0
 11
451.5461020469427
 21
36.0210693815473
 31
0.0
  0
LINE
  5
4787
330
18
100
AcDbEntity
  8
DRAW2
100
AcDbLine
 10
425.2961620469425
 20
34.42102938154732
 30
0.0
 11
462.2960420469426
 21
34.42102938154732
 31
0.0
  0
ARC
  5
4788
330
18
100
AcDbEntity
  8
DRAW2
100
AcDbCircle
 10
438.1670020469426
 20
40.19836938154731
 30
0.0
 40
3.3226678
100
AcDbArc
 50
55.616854
 51
115.61448
  0
LINE
  5
4789
330
18
100
AcDbEntity
  8
DRAW2
100
AcDbLine
 10
436.2906120469427
 20
42.94047938154733
 30
0.0
 11
437.2961320469426
 21
43.52101938154731
 31
0.0
  0
ARC
  5
478A
330
18
100
AcDbEntity
  8
DRAW2
100
AcDbCircle
 10
443.7961620469425
 20
31.10117938154729
 30
0.0
 40
12.419868
100
AcDbArc
 50
72.412655
 51
107.5873599999999
  0
LINE
  5
478B
330
18
100
AcDbEntity
  8
DRAW2
100
AcDbLine
 10
424.2961620469425
 20
30.9210593815473
 30
0.0
 11
424.2961620469425
 21
33.42108938154734
 31
0.0
  0
LINE
  5
478C
330
18
100
AcDbEntity
  8
DRAW2
100
AcDbLine
 10
414.296102361102
 20
28.42102938154727
 30
0.0
 11
421.8077235104484
 21
28.42105589337063
 31
0.0
  0
ARC
  5
478D
330
18
100
AcDbEntity
  8
DRAW2
100
AcDbCircle
 10
414.2961020469427
 20
27.42102938154733
 30
0.0
 40
1.0
100
AcDbArc
 50
89.99998199999998
 51
179.99996
  0
LINE
  5
478E
330
18
100
AcDbEntity
  8
DRAW2
100
AcDbLine
 10
411.2967720469426
 20
23.42050938154727
 30
0.0
 11
412.2967720469427
 21
24.42050938154727
 31
0.0
  0
LINE
  5
478F
330
18
100
AcDbEntity
  8
DRAW2
100
AcDbLine
 10
412.2961020469427
 20
24.42102938154732
 30
0.0
 11
413.2961620469425
 21
24.42102938154732
 31
0.0
  0
ARC
  5
4790
330
18
100
AcDbEntity
  8
DRAW2
100
AcDbCircle
 10
421.7961020469427
 20
30.92102938154733
 30
0.0
 40
2.5000005
100
AcDbArc
 50
270.00002
 51
0.0
  0
ARC
  5
4791
330
18
100
AcDbEntity
  8
DRAW2
100
AcDbCircle
 10
425.2961620469425
 20
33.4210593815473
 30
0.0
 40
1.0
100
AcDbArc
 50
89.99998199999998
 51
179.99996
  0
LINE
  5
4792
330
18
100
AcDbEntity
  8
DRAW2
100
AcDbLine
 10
440.0433920469427
 20
42.94049938154734
 30
0.0
 11
440.0433920469427
 21
38.02103938154732
 31
0.0
  0
LINE
  5
4793
330
18
100
AcDbEntity
  8
DRAW2
100
AcDbLine
 10
436.2906120469427
 20
42.94049938154734
 30
0.0
 11
436.2906120469427
 21
38.02103938154732
 31
0.0
  0
LINE
  5
4794
330
18
100
AcDbEntity
  8
DRAW2
100
AcDbLine
 10
436.0461620469425
 20
36.02109938154734
 30
0.0
 11
436.0461620469425
 21
34.42102938154732
 31
0.0
  0
LINE
  5
4795
330
18
100
AcDbEntity
  8
DRAW2
100
AcDbLine
 10
436.4961220469426
 20
38.02103938154732
 30
0.0
 11
436.4961220469426
 21
36.02109938154734
 31
0.0
  0
LINE
  5
4796
330
18
100
AcDbEntity
  8
DRAW2
100
AcDbLine
 10
447.5489420469425
 20
42.94049938154734
 30
0.0
 11
447.5489420469425
 21
38.02103938154732
 31
0.0
  0
LINE
  5
4797
330
18
100
AcDbEntity
  8
DRAW2
100
AcDbLine
 10
443.5073520469424
 20
38.02072938154731
 30
0.0
 11
444.6620720469426
 21
36.02066938154729
 31
0.0
  0
LINE
  5
4798
330
18
100
AcDbEntity
  8
DRAW2
100
AcDbLine
 10
442.9299520469426
 20
38.02066938154729
 30
0.0
 11
444.0846820469426
 21
36.02060938154727
 31
0.0
  0
LINE
  5
4799
330
18
100
AcDbEntity
  8
DRAW2
100
AcDbLine
 10
437.2961320469426
 20
43.52103938154733
 30
0.0
 11
450.2961620469425
 21
43.52103938154733
 31
0.0
  0
LINE
  5
479A
330
18
100
AcDbEntity
  8
DRAW2
100
AcDbLine
 10
463.2961620469425
 20
26.9210593815473
 30
0.0
 11
463.2961620469425
 21
33.42108938154734
 31
0.0
  0
ARC
  5
479B
330
18
100
AcDbEntity
  8
DRAW2
100
AcDbCircle
 10
465.7961020469427
 20
26.9210593815473
 30
0.0
 40
2.5000005
100
AcDbArc
 50
179.9999799999999
 51
270.0000299999999
  0
LINE
  5
479C
330
18
100
AcDbEntity
  8
DRAW2
100
AcDbLine
 10
451.3017220469427
 20
42.9404893815473
 30
0.0
 11
451.3017220469427
 21
38.02103938154732
 31
0.0
  0
LINE
  5
479D
330
18
100
AcDbEntity
  8
DRAW2
100
AcDbLine
 10
451.5461020469427
 20
36.02109938154734
 30
0.0
 11
451.5461020469427
 21
34.42102938154732
 31
0.0
  0
LINE
  5
479E
330
18
100
AcDbEntity
  8
DRAW2
100
AcDbLine
 10
451.0961520469426
 20
38.02103938154732
 30
0.0
 11
451.0961520469426
 21
36.02109938154734
 31
0.0
  0
ARC
  5
479F
330
18
100
AcDbEntity
  8
DRAW2
100
AcDbCircle
 10
462.2960420469426
 20
33.4210593815473
 30
0.0
 40
1.0
100
AcDbArc
 50
0.0
 51
89.99998199999998
  0
ARC
  5
47A0
330
18
100
AcDbEntity
  8
DRAW2
100
AcDbCircle
 10
487.9886946797728
 20
123.1324382663423
 30
0.0
 40
8.412313860415329
100
AcDbArc
 50
259.8470989734782
 51
280.152901026515
  0
LINE
  5
47A1
330
18
100
AcDbEntity
  8
DRAW2
100
AcDbLine
 10
486.5058086690002
 20
114.8518541344593
 30
0.0
 11
486.3460445469429
 21
114.8518541344593
 31
0.0
  0
LINE
  5
47A2
330
18
100
AcDbEntity
  8
DRAW2
100
AcDbLine
 10
486.3460445469429
 20
114.8518541344593
 30
0.0
 11
487.0960445469428
 21
114.6509519284236
 31
0.0
  0
LINE
  5
47A3
330
18
100
AcDbEntity
  8
DRAW2
100
AcDbLine
 10
487.0960445469428
 20
107.6509519284236
 30
0.0
 11
487.0960445469428
 21
114.6509519284236
 31
0.0
  0
LINE
  5
47A4
330
18
100
AcDbEntity
  8
DRAW2
100
AcDbLine
 10
456.5461020469427
 20
177.5910254269261
 30
0.0
 11
456.5461020469427
 21
142.0910254269261
 31
0.0
  0
LINE
  5
47A5
330
18
100
AcDbEntity
  8
DRAW2
100
AcDbLine
 10
467.0461020469425
 20
199.0910254269261
 30
0.0
 11
467.0461020469425
 21
142.0910254269261
 31
0.0
  0
LINE
  5
47A6
330
18
100
AcDbEntity
  8
DRAW2
100
AcDbLine
 10
468.0461620469428
 20
139.6509519284234
 30
0.0
 11
468.0461620469426
 21
199.0910254269262
 31
0.0
  0
LINE
  5
47A7
330
18
100
AcDbEntity
  8
DRAW2
100
AcDbLine
 10
420.7961020469425
 20
195.0910254269262
 30
0.0
 11
420.7961020469425
 21
139.0910254269261
 31
0.0
  0
ARC
  5
47A8
330
18
100
AcDbEntity
  8
DRAW2
100
AcDbCircle
 10
501.5961650469427
 20
211.5910254269262
 30
0.0
 40
68.800003
100
AcDbArc
 50
209.364295563987
 51
229.0956444460827
  0
LINE
  5
47AA
330
18
100
AcDbEntity
  8
DRAW2
100
AcDbLine
 10
450.0266317469429
 20
149.5910254269263
 30
0.0
 11
454.946095946943
 21
149.5910254269263
 31
0.0
  0
LINE
  5
47AB
330
18
100
AcDbEntity
  8
DRAW2
100
AcDbLine
 10
449.4460959469429
 20
143.0910254269263
 30
0.0
 11
454.946095946943
 21
143.0910254269263
 31
0.0
  0
LINE
  5
47AC
330
18
100
AcDbEntity
  8
DRAW2
100
AcDbLine
 10
449.4460959469429
 20
156.0910254269263
 30
0.0
 11
454.946095946943
 21
156.0910254269262
 31
0.0
  0
LINE
  5
47AD
330
18
100
AcDbEntity
  8
DRAW2
100
AcDbLine
 10
420.7961020469425
 20
139.0910254269261
 30
0.0
 11
466.7961020469428
 21
139.0910254269261
 31
0.0
  0
LINE
  5
47AF
330
18
100
AcDbEntity
  8
DRAW2
100
AcDbLine
 10
444.7960970670029
 20
153.3175354269262
 30
0.0
 11
449.7960672469426
 21
156.2042692269262
 31
0.0
  0
LINE
  5
47B0
330
18
100
AcDbEntity
  8
DRAW2
100
AcDbLine
 10
439.7960839469426
 20
156.2043140269262
 30
0.0
 11
444.7960803615805
 21
153.3175650269262
 31
0.0
  0
ARC
  5
47B1
330
18
100
AcDbEntity
  8
DRAW2
100
AcDbCircle
 10
458.8335622769431
 20
152.8410254269262
 30
0.0
 40
9.3874664
100
AcDbArc
 50
159.7445509999998
 51
200.2554699999999
  0
LINE
  5
47B2
330
18
100
AcDbEntity
  8
DRAW2
100
AcDbLine
 10
449.4460959469429
 20
143.0910254269263
 30
0.0
 11
449.4460959469429
 21
156.0910254269263
 31
0.0
  0
CIRCLE
  5
47B3
330
18
100
AcDbEntity
  8
DRAW2
100
AcDbCircle
 10
443.7961620469427
 20
159.0910101681372
 30
0.0
 40
6.25
  0
ARC
  5
47B4
330
18
100
AcDbEntity
  8
DRAW2
100
AcDbCircle
 10
458.8335622769431
 20
146.3410254269262
 30
0.0
 40
9.3874664
100
AcDbArc
 50
159.7445509999998
 51
200.2554699999999
  0
LINE
  5
47B5
330
18
100
AcDbEntity
  8
DRAW2
100
AcDbLine
 10
438.7961067469426
 20
161.9777549269262
 30
0.0
 11
443.796156059628
 21
164.8645344269262
 31
0.0
  0
CIRCLE
  5
47B6
330
18
100
AcDbEntity
  8
DRAW2
100
AcDbCircle
 10
443.7961620469427
 20
159.0910101681373
 30
0.0
 40
4.9999952
  0
CIRCLE
  5
47B7
330
18
100
AcDbEntity
  8
DRAW2
100
AcDbCircle
 10
443.7961620469427
 20
159.0910101681372
 30
0.0
 40
5.75
  0
LINE
  5
47B8
330
18
100
AcDbEntity
  8
DRAW2
100
AcDbLine
 10
438.7961773469428
 20
161.9777594269262
 30
0.0
 11
438.7961773469428
 21
156.2042609269262
 31
0.0
  0
LINE
  5
47B9
330
18
100
AcDbEntity
  8
DRAW2
100
AcDbLine
 10
444.7961138226566
 20
164.8645449269262
 30
0.0
 11
449.7960839469425
 21
161.9778111269262
 31
0.0
  0
LINE
  5
47BA
330
18
100
AcDbEntity
  8
DRAW2
100
AcDbLine
 10
449.7961173469427
 20
161.9777899269262
 30
0.0
 11
449.7961173469427
 21
156.2042609269262
 31
0.0
  0
LINE
  5
47BB
330
18
100
AcDbEntity
  8
DRAW2
100
AcDbLine
 10
483.3460820469427
 20
139.6509519284236
 30
0.0
 11
483.3460820469427
 21
145.4052924559722
 31
0.0
  0
ARC
  5
47BC
330
18
100
AcDbEntity
  8
DRAW2
100
AcDbCircle
 10
465.5461020469427
 20
142.0910254269261
 30
0.0
 40
1.5
100
AcDbArc
 50
270.0
 51
0.0000029999993249
  0
LINE
  5
47BD
330
18
100
AcDbEntity
  8
DRAW2
100
AcDbLine
 10
466.7961020469428
 20
141.2618692293374
 30
0.0
 11
466.7961020469428
 21
139.0910254269261
 31
0.0
  0
ARC
  5
47BE
330
18
100
AcDbEntity
  8
DRAW2
100
AcDbCircle
 10
458.0461020469427
 20
142.0910254269261
 30
0.0
 40
1.5
100
AcDbArc
 50
180.0
 51
270.0
  0
LINE
  5
47BF
330
18
100
AcDbEntity
  8
DRAW2
100
AcDbLine
 10
465.5461020469427
 20
140.5910254269261
 30
0.0
 11
458.0461020469427
 21
140.5910254269261
 31
0.0
  0
LINE
  5
47C0
330
18
100
AcDbEntity
  8
DRAW2
100
AcDbLine
 10
486.0960445469429
 20
135.9439792394197
 30
0.0
 11
486.0960445469429
 21
118.9009519284236
 31
0.0
  0
LINE
  5
47C1
330
18
100
AcDbEntity
  8
DRAW2
100
AcDbLine
 10
486.1605136748592
 20
135.9439792394197
 30
0.0
 11
486.1605136748592
 21
118.9009519284236
 31
0.0
  0
LINE
  5
47C2
330
18
100
AcDbEntity
  8
DRAW2
100
AcDbLine
 10
486.0960445469429
 20
118.9009519284236
 30
0.0
 11
486.1605136748592
 21
118.9009519284236
 31
0.0
  0
ARC
  5
47C3
330
18
100
AcDbEntity
  8
DRAW2
100
AcDbCircle
 10
488.0094464276675
 20
120.8042139067728
 30
0.0
 40
2.653480447004878
100
AcDbArc
 50
225.8295459170023
 51
312.7062791753797
  0
ARC
  5
47C4
330
18
100
AcDbEntity
  8
DRAW2
100
AcDbCircle
 10
487.984828614775
 20
109.6258314087032
 30
0.0
 40
8.455947153849152
100
AcDbArc
 50
79.87343051783145
 51
100.0733534660004
  0
LINE
  5
47C5
330
18
100
AcDbEntity
  8
DRAW2
100
AcDbLine
 10
486.0960445469429
 20
118.9009519284236
 30
0.0
 11
486.846044546943
 21
118.1509519284236
 31
0.0
  0
LINE
  5
47C6
330
18
100
AcDbEntity
  8
DRAW2
100
AcDbLine
 10
486.3460445469429
 20
117.9500497223879
 30
0.0
 11
487.0960445469428
 21
118.1509519284236
 31
0.0
  0
LINE
  5
47C7
330
18
100
AcDbEntity
  8
DRAW2
100
AcDbLine
 10
486.5058086690002
 20
117.9500497223879
 30
0.0
 11
486.3460445469429
 21
117.9500497223879
 31
0.0
  0
LINE
  5
47C8
330
18
100
AcDbEntity
  8
DRAW2
100
AcDbLine
 10
486.846044546943
 20
118.1509519284236
 30
0.0
 11
486.0960445469429
 21
118.9009519284236
 31
0.0
  0
LINE
  5
47C9
330
18
100
AcDbEntity
  8
DRAW2
100
AcDbLine
 10
489.8091435546908
 20
122.3766717020214
 30
0.0
 11
489.8091435546908
 21
118.8543296195338
 31
0.0
  0
LINE
  5
47CA
330
18
100
AcDbEntity
  8
DRAW3
100
AcDbLine
 10
489.5079945469428
 20
138.9409519284235
 30
0.0
 11
489.5301820469426
 21
139.6509519284234
 31
0.0
  0
LINE
  5
47CB
330
18
100
AcDbEntity
  8
DRAW2
100
AcDbLine
 10
486.1605886748592
 20
135.9439792394197
 30
0.0
 11
486.0961195469427
 21
135.9439792394197
 31
0.0
  0
LINE
  5
47CC
330
18
100
AcDbEntity
  8
DRAW2
100
AcDbLine
 10
489.8091435546908
 20
135.9439792394197
 30
0.0
 11
489.8091435546908
 21
133.9252321548257
 31
0.0
  0
LINE
  5
47CD
330
18
100
AcDbEntity
  8
DRAW2
100
AcDbLine
 10
488.6030108684698
 20
137.3734742172878
 30
0.0
 11
486.0961195469427
 21
135.9439792394197
 31
0.0
  0
ARC
  5
47CE
330
18
100
AcDbEntity
  8
DRAW2
100
AcDbCircle
 10
487.9994669475638
 20
132.0940388002082
 30
0.0
 40
4.266557709360186
100
AcDbArc
 50
64.46908114148389
 51
115.5309188585234
  0
LINE
  5
47CF
330
18
100
AcDbEntity
  8
DRAW2
100
AcDbLine
 10
488.6030108684698
 20
137.3734742172878
 30
0.0
 11
488.6741820469427
 21
139.6509519284234
 31
0.0
  0
LINE
  5
47D0
330
18
100
AcDbEntity
  8
DRAW3
100
AcDbLine
 10
488.6030108684698
 20
137.3734742172878
 30
0.0
 11
489.5079945469428
 21
138.9409519284235
 31
0.0
  0
LINE
  5
47D1
330
18
100
AcDbEntity
  8
DRAW2
100
AcDbLine
 10
454.946095946943
 20
141.8410254269263
 30
0.0
 11
454.946095946943
 21
157.3410254269262
 31
0.0
  0
LINE
  5
47D2
330
18
100
AcDbEntity
  8
DRAW2
100
AcDbLine
 10
454.946095946943
 20
141.8410254269263
 30
0.0
 11
456.546102046943
 21
141.8410254269263
 31
0.0
  0
LINE
  5
47D3
330
18
100
AcDbEntity
  8
DRAW2
100
AcDbLine
 10
468.0461620469428
 20
145.5910254269262
 30
0.0
 11
467.0461020469425
 21
145.5910254269262
 31
0.0
  0
LINE
  5
47D4
330
18
100
AcDbEntity
  8
DRAW2
100
AcDbLine
 10
454.946095946943
 20
157.3410254269262
 30
0.0
 11
456.546102046943
 21
157.3410254269262
 31
0.0
  0
LINE
  5
47D5
330
18
100
AcDbEntity
  8
DRAW2
100
AcDbLine
 10
468.0461620469428
 20
153.5910254269263
 30
0.0
 11
467.0461020469425
 21
153.5910254269263
 31
0.0
  0
ARC
  5
47D6
330
18
100
AcDbEntity
  8
DRAW2
100
AcDbCircle
 10
443.7961620469427
 20
186.5910254269262
 30
0.0
 40
9.0
100
AcDbArc
 50
204.8346199999959
 51
335.1654499999974
  0
ARC
  5
47D7
330
18
100
AcDbEntity
  8
DRAW2
100
AcDbCircle
 10
485.2461640469426
 20
211.5910254269262
 30
0.0
 40
52.450001
100
AcDbArc
 50
220.408765835669
 51
236.8255442429627
  0
LINE
  5
47D8
330
18
100
AcDbEntity
  8
DRAW2
100
AcDbLine
 10
463.2961620469427
 20
177.5910254269262
 30
0.0
 11
443.7961620469427
 21
177.5910254269262
 31
0.0
  0
LINE
  5
47D9
330
18
100
AcDbEntity
  8
DRAW2
100
AcDbLine
 10
452.4564120469425
 20
199.0910254269262
 30
0.0
 11
435.1359120469425
 21
199.0910254269262
 31
0.0
  0
LINE
  5
47DB
330
18
100
AcDbEntity
  8
DRAW2
100
AcDbLine
 10
449.4460959469429
 20
174.0910254269261
 30
0.0
 11
454.946095946943
 21
174.0910254269262
 31
0.0
  0
CIRCLE
  5
47DC
330
18
100
AcDbEntity
  8
DRAW2
100
AcDbCircle
 10
443.7961620469427
 20
186.5910254269262
 30
0.0
 40
8.0
  0
CIRCLE
  5
47DD
330
18
100
AcDbEntity
  8
DRAW2
100
AcDbCircle
 10
443.7961620469427
 20
186.5910254269262
 30
0.0
 40
7.5
  0
LINE
  5
47DE
330
18
100
AcDbEntity
  8
DRAW2
100
AcDbLine
 10
451.3017129469425
 20
186.5910233196107
 30
0.0
 11
447.5489358469425
 21
193.0910240269263
 31
0.0
  0
LINE
  5
47DF
330
18
100
AcDbEntity
  8
DRAW2
100
AcDbLine
 10
447.5489393469425
 20
180.0910254269263
 30
0.0
 11
451.3017162469427
 21
186.5910260570528
 31
0.0
  0
CIRCLE
  5
47E0
330
18
100
AcDbEntity
  8
DRAW2
100
AcDbCircle
 10
443.7961620469427
 20
186.5910254269262
 30
0.0
 40
6.500003299999998
  0
LINE
  5
47E1
330
18
100
AcDbEntity
  8
DRAW2
100
AcDbLine
 10
436.2906078469428
 20
186.5910247967999
 30
0.0
 11
440.0433847469427
 21
193.0910254269263
 31
0.0
  0
LINE
  5
47E2
330
18
100
AcDbEntity
  8
DRAW2
100
AcDbLine
 10
426.0995020469425
 20
203.4010554269263
 30
0.0
 11
435.6285020469425
 21
182.8110554269262
 31
0.0
  0
ARC
  5
47E3
330
18
100
AcDbEntity
  8
DRAW2
100
AcDbCircle
 10
458.8335622769428
 20
177.3410254269261
 30
0.0
 40
9.3874664
100
AcDbArc
 50
178.4739611354897
 51
200.2554699999999
  0
LINE
  5
47E4
330
18
100
AcDbEntity
  8
DRAW2
100
AcDbLine
 10
449.4460959469429
 20
174.0910254269261
 30
0.0
 11
449.4460959469429
 21
177.5910254269261
 31
0.0
  0
LINE
  5
47E5
330
18
100
AcDbEntity
  8
DRAW2
100
AcDbLine
 10
440.0433932469427
 20
180.0910378269263
 30
0.0
 11
447.5489474469427
 21
180.0910378269263
 31
0.0
  0
LINE
  5
47E6
330
18
100
AcDbEntity
  8
DRAW2
100
AcDbLine
 10
440.0433804469427
 20
180.0910225269263
 30
0.0
 11
436.2906035469428
 21
186.5910230042889
 31
0.0
  0
ARC
  5
47E7
330
18
100
AcDbEntity
  8
DRAW2
100
AcDbCircle
 10
428.3474920469427
 20
192.5910254269262
 30
0.0
 40
2.5
100
AcDbArc
 50
24.83414899999646
 51
89.9999820000008
  0
LINE
  5
47E8
330
18
100
AcDbEntity
  8
DRAW2
100
AcDbLine
 10
414.2961625705415
 20
195.0910254269263
 30
0.0
 11
428.3474928323409
 21
195.0910254269261
 31
0.0
  0
ARC
  5
47E9
330
18
100
AcDbEntity
  8
DRAW2
100
AcDbCircle
 10
414.2961620469427
 20
196.0910254269262
 30
0.0
 40
1.0
100
AcDbArc
 50
179.9999800000012
 51
270.0000299999965
  0
LINE
  5
47EA
330
18
100
AcDbEntity
  8
DRAW2
100
AcDbLine
 10
412.2961020469428
 20
199.0910254269262
 30
0.0
 11
413.2961620469427
 21
199.0910254269262
 31
0.0
  0
LINE
  5
47EB
330
18
100
AcDbEntity
  8
DRAW2
100
AcDbLine
 10
411.2965920469426
 20
200.0908154269261
 30
0.0
 11
412.2965320469424
 21
199.0908754269262
 31
0.0
  0
LINE
  5
47EC
330
18
100
AcDbEntity
  8
DRAW2
100
AcDbLine
 10
440.0433994469425
 20
193.0910397269263
 30
0.0
 11
447.5489536469425
 21
193.0910397269263
 31
0.0
  0
ARC
  5
47ED
330
18
100
AcDbEntity
  8
DRAW2
100
AcDbCircle
 10
435.1359120469425
 20
200.5910254269262
 30
0.0
 40
1.5
100
AcDbArc
 50
231.7870999999994
 51
270.0000199999954
  0
ARC
  5
47EE
330
18
100
AcDbEntity
  8
DRAW2
100
AcDbCircle
 10
441.7961620469427
 20
200.0910254269262
 30
0.0
 40
1.0
100
AcDbArc
 50
270.0000199999954
 51
0.0
  0
ARC
  5
47EF
330
18
100
AcDbEntity
  8
DRAW2
100
AcDbCircle
 10
445.7961620469427
 20
200.0910254269262
 30
0.0
 40
1.0
100
AcDbArc
 50
179.9999800000012
 51
270.0000299999965
  0
LINE
  5
47F0
330
18
100
AcDbEntity
  8
DRAW2
100
AcDbLine
 10
463.2961620469427
 20
199.0910254269262
 30
0.0
 11
463.2961620469427
 21
177.5910254269262
 31
0.0
  0
LINE
  5
47F1
330
18
100
AcDbEntity
  8
DRAW2
100
AcDbLine
 10
461.4927520469426
 20
203.4010854269262
 30
0.0
 11
451.9637620469427
 21
182.8110854269262
 31
0.0
  0
LINE
  5
47F2
330
18
100
AcDbEntity
  8
DRAW2
100
AcDbLine
 10
454.946095946943
 20
172.8410254269261
 30
0.0
 11
456.546102046943
 21
172.8410254269261
 31
0.0
  0
LINE
  5
47F3
330
18
100
AcDbEntity
  8
DRAW2
100
AcDbLine
 10
454.946095946943
 20
172.8410254269261
 30
0.0
 11
454.946095946943
 21
177.5910254269261
 31
0.0
  0
LINE
  5
47F4
330
18
100
AcDbEntity
  8
DRAW2
100
AcDbLine
 10
468.0461620469426
 20
176.5910254269261
 30
0.0
 11
467.0461020469425
 21
176.5910254269261
 31
0.0
  0
LINE
  5
47F5
330
18
100
AcDbEntity
  8
DRAW2
100
AcDbLine
 10
468.0461620469426
 20
184.5910254269261
 30
0.0
 11
467.0461020469425
 21
184.5910254269261
 31
0.0
  0
ARC
  5
47F6
330
18
100
AcDbEntity
  8
DRAW2
100
AcDbCircle
 10
461.0959620469428
 20
196.5910254269262
 30
0.0
 40
2.5
100
AcDbArc
 50
89.9999820000008
 51
155.1655199999991
  0
ARC
  5
47F7
330
18
100
AcDbEntity
  8
DRAW2
100
AcDbCircle
 10
452.4564120469425
 20
200.5910254269262
 30
0.0
 40
1.5
100
AcDbArc
 50
270.0000199999954
 51
308.2128800000016
  0
LINE
  5
47F8
330
18
100
AcDbEntity
  8
DRAW2
100
AcDbLine
 10
448.7961773469428
 20
261.2042609269263
 30
0.0
 11
448.7961773469428
 21
266.9777899269261
 31
0.0
  0
LINE
  5
47F9
330
18
100
AcDbEntity
  8
DRAW2
100
AcDbLine
 10
438.7961773469428
 20
261.2042914269263
 30
0.0
 11
438.7961773469428
 21
266.9777899269261
 31
0.0
  0
CIRCLE
  5
47FA
330
18
100
AcDbEntity
  8
DRAW2
100
AcDbCircle
 10
443.7961620469427
 20
264.0910406857153
 30
0.0
 40
4.9999952
  0
CIRCLE
  5
47FB
330
18
100
AcDbEntity
  8
DRAW2
100
AcDbCircle
 10
443.7961620469427
 20
264.0910406857152
 30
0.0
 40
5.75
  0
CIRCLE
  5
47FC
330
18
100
AcDbEntity
  8
DRAW2
100
AcDbCircle
 10
443.7961620469427
 20
264.0910406857152
 30
0.0
 40
6.25
  0
ARC
  5
47FD
330
18
100
AcDbEntity
  8
DRAW2
100
AcDbCircle
 10
501.5961650469427
 20
211.5910254269262
 30
0.0
 40
68.800003
100
AcDbArc
 50
130.9043555539173
 51
150.6357044360129
  0
LINE
  5
47FE
330
18
100
AcDbEntity
  8
DRAW2
100
AcDbLine
 10
456.5461020469427
 20
281.0910254269261
 30
0.0
 11
456.5461020469427
 21
245.5910254269261
 31
0.0
  0
LINE
  5
47FF
330
18
100
AcDbEntity
  8
DRAW2
100
AcDbLine
 10
467.0461020469425
 20
281.0910254269261
 30
0.0
 11
467.0461020469425
 21
224.0910254269261
 31
0.0
  0
LINE
  5
4800
330
18
100
AcDbEntity
  8
DRAW2
100
AcDbLine
 10
420.7961020469428
 20
284.0910254269262
 30
0.0
 11
420.7961020469428
 21
228.0910254269262
 31
0.0
  0
LINE
  5
4801
330
18
100
AcDbEntity
  8
DRAW2
100
AcDbLine
 10
468.0461620469426
 20
224.0910254269261
 30
0.0
 11
468.0461620469426
 21
281.6509519284236
 31
0.0
  0
LINE
  5
4802
330
18
100
AcDbEntity
  8
DRAW2
100
AcDbLine
 10
452.4564120469425
 20
224.0910254269262
 30
0.0
 11
435.1359120469425
 21
224.0910254269262
 31
0.0
  0
ARC
  5
4803
330
18
100
AcDbEntity
  8
DRAW2
100
AcDbCircle
 10
485.2461640469426
 20
211.5910254269262
 30
0.0
 40
52.450001
100
AcDbArc
 50
123.1744557570372
 51
139.591234164331
  0
ARC
  5
4804
330
18
100
AcDbEntity
  8
DRAW2
100
AcDbCircle
 10
443.7961620469427
 20
236.5910254269262
 30
0.0
 40
9.0
100
AcDbArc
 50
24.8345000000016
 51
155.1654100000018
  0
LINE
  5
4806
330
18
100
AcDbEntity
  8
DRAW2
100
AcDbLine
 10
463.2961620469427
 20
245.5910254269262
 30
0.0
 11
443.7961620469427
 21
245.5910254269262
 31
0.0
  0
LINE
  5
4807
330
18
100
AcDbEntity
  8
DRAW2
100
AcDbLine
 10
449.4460959469427
 20
249.0910254269262
 30
0.0
 11
454.9460959469427
 21
249.0910254269262
 31
0.0
  0
CIRCLE
  5
4808
330
18
100
AcDbEntity
  8
DRAW2
100
AcDbCircle
 10
443.7961620469427
 20
236.5910254269262
 30
0.0
 40
8.0
  0
CIRCLE
  5
4809
330
18
100
AcDbEntity
  8
DRAW2
100
AcDbCircle
 10
443.7961620469427
 20
236.5910254269262
 30
0.0
 40
7.5
  0
LINE
  5
480A
330
18
100
AcDbEntity
  8
DRAW2
100
AcDbLine
 10
447.5489393469425
 20
230.0910254269263
 30
0.0
 11
451.3017162469427
 21
236.5910260570528
 31
0.0
  0
LINE
  5
480B
330
18
100
AcDbEntity
  8
DRAW2
100
AcDbLine
 10
451.3017129469425
 20
236.5910233196107
 30
0.0
 11
447.5489358469425
 21
243.0910240269263
 31
0.0
  0
LINE
  5
480C
330
18
100
AcDbEntity
  8
DRAW2
100
AcDbLine
 10
436.2906078469428
 20
236.5910247967997
 30
0.0
 11
440.0433847469427
 21
243.0910254269263
 31
0.0
  0
LINE
  5
480D
330
18
100
AcDbEntity
  8
DRAW2
100
AcDbLine
 10
426.0993820469427
 20
219.7810554269263
 30
0.0
 11
435.6283720469426
 21
240.3710854269261
 31
0.0
  0
CIRCLE
  5
480E
330
18
100
AcDbEntity
  8
DRAW2
100
AcDbCircle
 10
443.7961620469427
 20
236.5910254269262
 30
0.0
 40
6.500003299999998
  0
ARC
  5
480F
330
18
100
AcDbEntity
  8
DRAW2
100
AcDbCircle
 10
428.3474920469427
 20
230.5910254269262
 30
0.0
 40
2.5
100
AcDbArc
 50
270.0000199999954
 51
335.1655600000027
  0
LINE
  5
4810
330
18
100
AcDbEntity
  8
DRAW2
100
AcDbLine
 10
412.2961020469428
 20
224.0910254269262
 30
0.0
 11
413.2961620469427
 21
224.0910254269262
 31
0.0
  0
LINE
  5
4811
330
18
100
AcDbEntity
  8
DRAW2
100
AcDbLine
 10
411.2967720469426
 20
223.0905054269261
 30
0.0
 11
412.2967720469427
 21
224.0905054269261
 31
0.0
  0
LINE
  5
4812
330
18
100
AcDbEntity
  8
DRAW2
100
AcDbLine
 10
414.296162361102
 20
228.0910254269261
 30
0.0
 11
428.3474929196071
 21
228.0910254269263
 31
0.0
  0
ARC
  5
4813
330
18
100
AcDbEntity
  8
DRAW2
100
AcDbCircle
 10
414.2961620469427
 20
227.0910254269262
 30
0.0
 40
1.0
100
AcDbArc
 50
89.9999820000008
 51
179.9999599999992
  0
ARC
  5
4814
330
18
100
AcDbEntity
  8
DRAW2
100
AcDbCircle
 10
435.1359120469425
 20
222.5910254269262
 30
0.0
 40
1.5
100
AcDbArc
 50
89.9999820000008
 51
128.2129000000006
  0
ARC
  5
4815
330
18
100
AcDbEntity
  8
DRAW2
100
AcDbCircle
 10
441.7961620469427
 20
223.0910254269262
 30
0.0
 40
1.0
100
AcDbArc
 50
0.0
 51
89.9999820000008
  0
ARC
  5
4816
330
18
100
AcDbEntity
  8
DRAW2
100
AcDbCircle
 10
445.7961620469427
 20
223.0910254269262
 30
0.0
 40
1.0
100
AcDbArc
 50
89.9999820000008
 51
179.9999599999992
  0
LINE
  5
4817
330
18
100
AcDbEntity
  8
DRAW2
100
AcDbLine
 10
440.0433932469427
 20
230.0910378269263
 30
0.0
 11
447.5489474469427
 21
230.0910378269263
 31
0.0
  0
LINE
  5
4818
330
18
100
AcDbEntity
  8
DRAW2
100
AcDbLine
 10
440.0433804469427
 20
230.0910225269263
 30
0.0
 11
436.2906035469428
 21
236.5910230042889
 31
0.0
  0
LINE
  5
4819
330
18
100
AcDbEntity
  8
DRAW2
100
AcDbLine
 10
440.0433994469425
 20
243.0910397269263
 30
0.0
 11
447.5489536469425
 21
243.0910397269263
 31
0.0
  0
LINE
  5
481A
330
18
100
AcDbEntity
  8
DRAW2
100
AcDbLine
 10
449.4460959469427
 20
245.5910254269261
 30
0.0
 11
449.4460959469427
 21
249.0910254269262
 31
0.0
  0
ARC
  5
481B
330
18
100
AcDbEntity
  8
DRAW2
100
AcDbCircle
 10
458.8335622769428
 20
245.8410254269262
 30
0.0
 40
9.3874664
100
AcDbArc
 50
159.7445509999998
 51
181.5260388645102
  0
LINE
  5
481C
330
18
100
AcDbEntity
  8
DRAW2
100
AcDbLine
 10
438.7961067469426
 20
261.2042959269262
 30
0.0
 11
443.796156059628
 21
258.3175164269262
 31
0.0
  0
LINE
  5
481D
330
18
100
AcDbEntity
  8
DRAW2
100
AcDbLine
 10
443.7961738226566
 20
258.3175059269263
 30
0.0
 11
448.7961439469426
 21
261.2042397269263
 31
0.0
  0
LINE
  5
481E
330
18
100
AcDbEntity
  8
DRAW2
100
AcDbLine
 10
463.2961620469427
 20
245.5910254269262
 30
0.0
 11
463.2961620469427
 21
224.0910254269262
 31
0.0
  0
LINE
  5
481F
330
18
100
AcDbEntity
  8
DRAW2
100
AcDbLine
 10
461.4929420469427
 20
219.7810554269263
 30
0.0
 11
451.9639820469425
 21
240.3709654269262
 31
0.0
  0
ARC
  5
4820
330
18
100
AcDbEntity
  8
DRAW2
100
AcDbCircle
 10
461.0959920469425
 20
226.5910254269262
 30
0.0
 40
2.5
100
AcDbArc
 50
204.8341299999985
 51
269.9999599999959
  0
ARC
  5
4821
330
18
100
AcDbEntity
  8
DRAW2
100
AcDbCircle
 10
452.4564120469425
 20
222.5910254269262
 30
0.0
 40
1.5
100
AcDbArc
 50
51.78712299999805
 51
89.9999820000008
  0
LINE
  5
4822
330
18
100
AcDbEntity
  8
DRAW2
100
AcDbLine
 10
468.0461620469426
 20
238.5910254269263
 30
0.0
 11
467.0461020469425
 21
238.5910254269263
 31
0.0
  0
LINE
  5
4823
330
18
100
AcDbEntity
  8
DRAW2
100
AcDbLine
 10
454.9460959469427
 20
250.3410254269262
 30
0.0
 11
456.5461020469427
 21
250.3410254269262
 31
0.0
  0
LINE
  5
4824
330
18
100
AcDbEntity
  8
DRAW2
100
AcDbLine
 10
454.946095946943
 20
245.5910254269261
 30
0.0
 11
454.9460959469427
 21
250.3410254269262
 31
0.0
  0
LINE
  5
4825
330
18
100
AcDbEntity
  8
DRAW2
100
AcDbLine
 10
468.0461620469426
 20
246.5910254269263
 30
0.0
 11
467.0461020469425
 21
246.5910254269263
 31
0.0
  0
LINE
  5
4827
330
18
100
AcDbEntity
  8
DRAW2
100
AcDbLine
 10
450.0266317469427
 20
273.591025426926
 30
0.0
 11
454.9460959469427
 21
273.591025426926
 31
0.0
  0
LINE
  5
4828
330
18
100
AcDbEntity
  8
DRAW2
100
AcDbLine
 10
449.4460959469427
 20
280.091025426926
 30
0.0
 11
454.9460959469427
 21
280.091025426926
 31
0.0
  0
LINE
  5
4829
330
18
100
AcDbEntity
  8
DRAW2
100
AcDbLine
 10
420.7961020469428
 20
284.0910254269262
 30
0.0
 11
466.7961020469428
 21
284.0910254269262
 31
0.0
  0
LINE
  5
482A
330
18
100
AcDbEntity
  8
DRAW2
100
AcDbLine
 10
449.4460959469427
 20
267.091025426926
 30
0.0
 11
454.9460959469427
 21
267.0910254269263
 31
0.0
  0
ARC
  5
482C
330
18
100
AcDbEntity
  8
DRAW2
100
AcDbCircle
 10
458.8335622769428
 20
276.8410254269261
 30
0.0
 40
9.3874664
100
AcDbArc
 50
159.7445509999998
 51
200.2554699999999
  0
LINE
  5
482D
330
18
100
AcDbEntity
  8
DRAW2
100
AcDbLine
 10
449.4460959469427
 20
267.091025426926
 30
0.0
 11
449.4460959469427
 21
280.091025426926
 31
0.0
  0
LINE
  5
482E
330
18
100
AcDbEntity
  8
DRAW2
100
AcDbLine
 10
438.7961439469427
 20
266.9777368269262
 30
0.0
 11
443.7961403615806
 21
269.8644858269263
 31
0.0
  0
LINE
  5
482F
330
18
100
AcDbEntity
  8
DRAW2
100
AcDbLine
 10
443.796157067003
 20
269.8645154269261
 30
0.0
 11
448.7961272469427
 21
266.9777816269261
 31
0.0
  0
ARC
  5
4830
330
18
100
AcDbEntity
  8
DRAW2
100
AcDbCircle
 10
458.8335622769428
 20
270.3410254269261
 30
0.0
 40
9.3874664
100
AcDbArc
 50
159.7445509999998
 51
200.2554699999999
  0
LINE
  5
4831
330
18
100
AcDbEntity
  8
DRAW2
100
AcDbLine
 10
475.3460820469424
 20
281.6509519284234
 30
0.0
 11
468.0461620469426
 21
281.6509519284236
 31
0.0
  0
LINE
  5
4832
330
18
100
AcDbEntity
  8
DRAW2
100
AcDbLine
 10
454.9460959469427
 20
265.841025426926
 30
0.0
 11
454.9460959469427
 21
281.341025426926
 31
0.0
  0
LINE
  5
4833
330
18
100
AcDbEntity
  8
DRAW2
100
AcDbLine
 10
454.9460959469427
 20
265.841025426926
 30
0.0
 11
456.5461020469427
 21
265.841025426926
 31
0.0
  0
LINE
  5
4834
330
18
100
AcDbEntity
  8
DRAW2
100
AcDbLine
 10
468.0461620469426
 20
269.5909654269262
 30
0.0
 11
467.0461020469425
 21
269.5909654269262
 31
0.0
  0
LINE
  5
4835
330
18
100
AcDbEntity
  8
DRAW2
100
AcDbLine
 10
465.5461020469427
 20
282.591025426926
 30
0.0
 11
458.0461020469427
 21
282.591025426926
 31
0.0
  0
ARC
  5
4836
330
18
100
AcDbEntity
  8
DRAW2
100
AcDbCircle
 10
458.0461020469427
 20
281.0910254269261
 30
0.0
 40
1.5
100
AcDbArc
 50
89.99998999999899
 51
180.0
  0
LINE
  5
4837
330
18
100
AcDbEntity
  8
DRAW2
100
AcDbLine
 10
454.9460959469427
 20
281.341025426926
 30
0.0
 11
456.5461020469427
 21
281.341025426926
 31
0.0
  0
ARC
  5
4838
330
18
100
AcDbEntity
  8
DRAW2
100
AcDbCircle
 10
465.5461020469427
 20
281.0910254269261
 30
0.0
 40
1.5
100
AcDbArc
 50
0.0000029999993249
 51
90.00001000000102
  0
LINE
  5
4839
330
18
100
AcDbEntity
  8
DRAW2
100
AcDbLine
 10
466.7961020469428
 20
284.0910254269262
 30
0.0
 11
466.7961020469428
 21
281.9201816245148
 31
0.0
  0
LINE
  5
483A
330
18
100
AcDbEntity
  8
DRAW2
100
AcDbLine
 10
468.0461620469426
 20
277.5909954269261
 30
0.0
 11
467.0461020469425
 21
277.5909954269261
 31
0.0
  0
ARC
  5
483B
330
18
100
AcDbEntity
  8
DRAW2
100
AcDbCircle
 10
477.3460820469424
 20
282.6509719284237
 30
0.0
 40
2.0
100
AcDbArc
 50
90.0
 51
180.0
  0
LINE
  5
483C
330
18
100
AcDbEntity
  8
DRAW2
100
AcDbLine
 10
475.3460820469423
 20
275.8966114008751
 30
0.0
 11
475.3460820469423
 21
282.6509719284237
 31
0.0
  0
LINE
  5
483D
330
18
100
AcDbEntity
  8
DRAW2
100
AcDbLine
 10
630.2960720469427
 20
227.0910254269261
 30
0.0
 11
630.2960720469427
 21
196.0910254269262
 31
0.0
  0
LINE
  5
483E
330
18
100
AcDbEntity
  8
DRAW2
100
AcDbLine
 10
612.3582320469426
 20
226.5910254269262
 30
0.0
 11
612.3582320469426
 21
196.5910254269262
 31
0.0
  0
LINE
  5
483F
330
18
100
AcDbEntity
  8
DRAW2
100
AcDbLine
 10
606.2964320469427
 20
200.0910254269262
 30
0.0
 11
606.2964320469427
 21
223.0910254269262
 31
0.0
  0
ARC
  5
4840
330
18
100
AcDbEntity
  8
DRAW2
100
AcDbCircle
 10
565.2961420469428
 20
211.5910254269262
 30
0.0
 40
15.5
100
AcDbArc
 50
308.2131600000002
 51
51.7868390000036
  0
ARC
  5
4841
330
18
100
AcDbEntity
  8
DRAW2
100
AcDbCircle
 10
565.2961420469428
 20
211.5910254269262
 30
0.0
 40
19.5
100
AcDbArc
 50
335.1653999999992
 51
24.83459900000039
  0
ARC
  5
4842
330
18
100
AcDbEntity
  8
DRAW2
100
AcDbCircle
 10
565.2961420469428
 20
211.5910254269262
 30
0.0
 40
15.5
100
AcDbArc
 50
128.2131799999943
 51
231.7867899999983
  0
ARC
  5
4843
330
18
100
AcDbEntity
  8
DRAW2
100
AcDbCircle
 10
565.2961420469428
 20
211.5910254269262
 30
0.0
 40
19.5
100
AcDbArc
 50
155.1654200000003
 51
204.8345599999982
  0
LINE
  5
4844
330
18
100
AcDbEntity
  8
DRAW2
100
AcDbLine
 10
564.2961420469426
 20
223.0910254269262
 30
0.0
 11
564.2961420469426
 21
200.0910254269262
 31
0.0
  0
LINE
  5
4845
330
18
100
AcDbEntity
  8
DRAW2
100
AcDbLine
 10
566.2961420469428
 20
223.0910254269262
 30
0.0
 11
566.2961420469428
 21
200.0910254269262
 31
0.0
  0
LINE
  5
4848
330
18
100
AcDbEntity
  8
DRAW2
100
AcDbLine
 10
501.2283155333355
 20
114.8518541344593
 30
0.0
 11
501.2283155333355
 21
117.9500497223879
 31
0.0
  0
LINE
  5
4849
330
18
100
AcDbEntity
  8
DRAW2
100
AcDbLine
 10
504.3461195469427
 20
114.8518541344593
 30
0.0
 11
504.3461195469427
 21
117.9500497223879
 31
0.0
  0
LINE
  5
484A
330
18
100
AcDbEntity
  8
DRAW2
100
AcDbLine
 10
504.1863554248855
 20
114.8518541344593
 30
0.0
 11
504.1863554248855
 21
117.9514270191498
 31
0.0
  0
LINE
  5
484B
330
18
100
AcDbEntity
  8
DRAW2
100
AcDbLine
 10
492.3460820469427
 20
120.7347534413279
 30
0.0
 11
492.3460820469427
 21
104.6509519284236
 31
0.0
  0
LINE
  5
484C
330
18
100
AcDbEntity
  8
DRAW2
100
AcDbLine
 10
498.3460820469424
 20
120.7347534413279
 30
0.0
 11
498.3460820469426
 21
104.6509519284236
 31
0.0
  0
ARC
  5
484D
330
18
100
AcDbEntity
  8
DRAW2
100
AcDbCircle
 10
570.9253020469427
 20
40.1984393815473
 30
0.0
 40
3.322595799999998
100
AcDbArc
 50
64.383207
 51
124.38391
  0
LINE
  5
484E
330
18
100
AcDbEntity
  8
DRAW2
100
AcDbLine
 10
571.7961220469426
 20
43.52103938154733
 30
0.0
 11
572.8016920469427
 21
42.9404693815473
 31
0.0
  0
LINE
  5
484F
330
18
100
AcDbEntity
  8
DRAW2
100
AcDbLine
 10
557.7905820469426
 20
38.02103938154732
 30
0.0
 11
572.8016920469427
 21
38.02103938154732
 31
0.0
  0
LINE
  5
4850
330
18
100
AcDbEntity
  8
DRAW2
100
AcDbLine
 10
557.5461320469425
 20
36.0210693815473
 30
0.0
 11
573.0461320469426
 21
36.0210693815473
 31
0.0
  0
LINE
  5
4851
330
18
100
AcDbEntity
  8
DRAW2
100
AcDbLine
 10
583.7961320469426
 20
34.42102938154732
 30
0.0
 11
546.7961320469425
 21
34.42102938154732
 31
0.0
  0
ARC
  5
4852
330
18
100
AcDbEntity
  8
DRAW2
100
AcDbCircle
 10
559.6669720469426
 20
40.19836938154731
 30
0.0
 40
3.3226678
100
AcDbArc
 50
55.616854
 51
115.61448
  0
LINE
  5
4853
330
18
100
AcDbEntity
  8
DRAW2
100
AcDbLine
 10
557.7905820469426
 20
42.94047938154733
 30
0.0
 11
558.7961020469424
 21
43.52101938154731
 31
0.0
  0
ARC
  5
4854
330
18
100
AcDbEntity
  8
DRAW2
100
AcDbCircle
 10
565.2961320469426
 20
31.10117938154729
 30
0.0
 40
12.419868
100
AcDbArc
 50
72.412655
 51
107.5873599999999
  0
LINE
  5
4855
330
18
100
AcDbEntity
  8
DRAW2
100
AcDbLine
 10
545.7961320469426
 20
26.9210593815473
 30
0.0
 11
545.7961320469426
 21
33.42108938154734
 31
0.0
  0
ARC
  5
4856
330
18
100
AcDbEntity
  8
DRAW2
100
AcDbCircle
 10
543.2960720469425
 20
26.9210593815473
 30
0.0
 40
2.5000005
100
AcDbArc
 50
270.00002
 51
0.0
  0
ARC
  5
4857
330
18
100
AcDbEntity
  8
DRAW2
100
AcDbCircle
 10
546.7961320469425
 20
33.4210593815473
 30
0.0
 40
1.0
100
AcDbArc
 50
90.000037
 51
180.00002
  0
LINE
  5
4858
330
18
100
AcDbEntity
  8
DRAW2
100
AcDbLine
 10
561.5433620469425
 20
42.94049938154734
 30
0.0
 11
561.5433620469425
 21
38.02103938154732
 31
0.0
  0
LINE
  5
4859
330
18
100
AcDbEntity
  8
DRAW2
100
AcDbLine
 10
557.7905820469426
 20
42.94049938154734
 30
0.0
 11
557.7905820469426
 21
38.02103938154732
 31
0.0
  0
LINE
  5
485A
330
18
100
AcDbEntity
  8
DRAW2
100
AcDbLine
 10
557.5461320469425
 20
36.02109938154734
 30
0.0
 11
557.5461320469425
 21
34.42102938154732
 31
0.0
  0
LINE
  5
485B
330
18
100
AcDbEntity
  8
DRAW2
100
AcDbLine
 10
557.9960920469426
 20
38.02103938154732
 30
0.0
 11
557.9960920469426
 21
36.02109938154734
 31
0.0
  0
LINE
  5
485C
330
18
100
AcDbEntity
  8
DRAW2
100
AcDbLine
 10
569.0489120469426
 20
42.94049938154734
 30
0.0
 11
569.0489120469426
 21
38.02103938154732
 31
0.0
  0
LINE
  5
485D
330
18
100
AcDbEntity
  8
DRAW2
100
AcDbLine
 10
564.4300520469426
 20
38.02103938154732
 30
0.0
 11
565.5847720469425
 21
36.02100938154729
 31
0.0
  0
LINE
  5
485E
330
18
100
AcDbEntity
  8
DRAW2
100
AcDbLine
 10
565.0074420469426
 20
38.02094938154732
 30
0.0
 11
566.1621620469426
 21
36.02090938154731
 31
0.0
  0
LINE
  5
485F
330
18
100
AcDbEntity
  8
DRAW2
100
AcDbLine
 10
558.7961020469424
 20
43.52103938154733
 30
0.0
 11
571.7961320469425
 21
43.52103938154733
 31
0.0
  0
ARC
  5
4860
330
18
100
AcDbEntity
  8
DRAW2
100
AcDbCircle
 10
493.3460820469426
 20
104.6509519284236
 30
0.0
 40
1.0
100
AcDbArc
 50
180.0
 51
270.0
  0
ARC
  5
4861
330
18
100
AcDbEntity
  8
DRAW2
100
AcDbCircle
 10
497.3460820469426
 20
104.6509519284236
 30
0.0
 40
1.0
100
AcDbArc
 50
270.0
 51
0.0
  0
LINE
  5
4862
330
18
100
AcDbEntity
  8
DRAW2
100
AcDbLine
 10
493.3460820469426
 20
103.6509519284236
 30
0.0
 11
497.3460820469426
 21
103.6509519284236
 31
0.0
  0
LINE
  5
4863
330
18
100
AcDbEntity
  8
DRAW2
100
AcDbLine
 10
498.3460820469424
 20
114.6509519284236
 30
0.0
 11
503.5961195469426
 21
114.6509519284236
 31
0.0
  0
LINE
  5
4864
330
18
100
AcDbEntity
  8
DRAW2
100
AcDbLine
 10
498.3460820469424
 20
114.8518541344593
 30
0.0
 11
501.2283155333355
 21
114.8518541344593
 31
0.0
  0
LINE
  5
4865
330
18
100
AcDbEntity
  8
DRAW2
100
AcDbLine
 10
498.3460820469426
 20
107.6509519284236
 30
0.0
 11
503.5961195469426
 21
107.6509519284236
 31
0.0
  0
ARC
  5
4866
330
18
100
AcDbEntity
  8
DRAW2
100
AcDbCircle
 10
502.7034694141129
 20
123.1324382663423
 30
0.0
 40
8.412313860415329
100
AcDbArc
 50
259.8470989734849
 51
280.1529010265217
  0
LINE
  5
4867
330
18
100
AcDbEntity
  8
DRAW2
100
AcDbLine
 10
504.1863554248855
 20
114.8518541344593
 30
0.0
 11
504.3461195469427
 21
114.8518541344593
 31
0.0
  0
LINE
  5
4868
330
18
100
AcDbEntity
  8
DRAW2
100
AcDbLine
 10
504.3461195469427
 20
114.8518541344593
 30
0.0
 11
503.5961195469426
 21
114.6509519284236
 31
0.0
  0
LINE
  5
4869
330
18
100
AcDbEntity
  8
DRAW2
100
AcDbLine
 10
503.5961195469426
 20
107.6509519284236
 30
0.0
 11
503.5961195469426
 21
114.6509519284236
 31
0.0
  0
LINE
  5
486A
330
18
100
AcDbEntity
  8
DRAW2
100
AcDbLine
 10
612.3582320469425
 20
28.4210593815473
 30
0.0
 11
629.2960123611019
 21
28.42102938154727
 31
0.0
  0
LINE
  5
486B
330
18
100
AcDbEntity
  8
DRAW2
100
AcDbLine
 10
587.2961333559397
 20
24.92102888154767
 30
0.0
 11
606.2960920469426
 21
24.92099938154734
 31
0.0
  0
LINE
  5
486C
330
18
100
AcDbEntity
  8
DRAW2
100
AcDbLine
 10
584.7961320469425
 20
27.42102938154733
 30
0.0
 11
584.7961320469425
 21
33.42108938154734
 31
0.0
  0
ARC
  5
486D
330
18
100
AcDbEntity
  8
DRAW2
100
AcDbCircle
 10
587.2961320469426
 20
27.42102938154733
 30
0.0
 40
2.5000005
100
AcDbArc
 50
179.9999799999999
 51
270.0000299999999
  0
LINE
  5
486E
330
18
100
AcDbEntity
  8
DRAW2
100
AcDbLine
 10
572.8016920469427
 20
42.9404893815473
 30
0.0
 11
572.8016920469427
 21
38.02103938154732
 31
0.0
  0
LINE
  5
486F
330
18
100
AcDbEntity
  8
DRAW2
100
AcDbLine
 10
573.0461320469426
 20
36.02109938154734
 30
0.0
 11
573.0461320469426
 21
34.42102938154732
 31
0.0
  0
LINE
  5
4870
330
18
100
AcDbEntity
  8
DRAW2
100
AcDbLine
 10
572.5961220469425
 20
38.02103938154732
 30
0.0
 11
572.5961220469425
 21
36.02109938154734
 31
0.0
  0
ARC
  5
4871
330
18
100
AcDbEntity
  8
DRAW2
100
AcDbCircle
 10
583.7961320469426
 20
33.4210593815473
 30
0.0
 40
1.0
100
AcDbArc
 50
0.000054641513
 51
90.000037
  0
LINE
  5
4872
330
18
100
AcDbEntity
  8
DRAW2
100
AcDbLine
 10
606.2958520469426
 20
24.92136938154732
 30
0.0
 11
612.3579820469426
 21
28.42136938154732
 31
0.0
  0
ARC
  5
4873
330
18
100
AcDbEntity
  8
DRAW2
100
AcDbCircle
 10
629.2960120469427
 20
27.42102938154733
 30
0.0
 40
1.0
100
AcDbArc
 50
0.0
 51
89.99998199999998
  0
LINE
  5
4874
330
18
100
AcDbEntity
  8
DRAW2
100
AcDbLine
 10
556.6358920469424
 20
199.0910254269262
 30
0.0
 11
573.9563920469427
 21
199.0910254269262
 31
0.0
  0
ARC
  5
4876
330
18
100
AcDbEntity
  8
DRAW2
100
AcDbCircle
 10
565.2961485719636
 20
186.5910329124542
 30
0.0
 40
9.000000000000046
100
AcDbArc
 50
204.8345400000039
 51
335.1653600000004
  0
LINE
  5
4878
330
18
100
AcDbEntity
  8
DRAW2
100
AcDbLine
 10
569.0489193469426
 20
180.0910254269263
 30
0.0
 11
572.8016962469426
 21
186.5910260570528
 31
0.0
  0
CIRCLE
  5
4879
330
18
100
AcDbEntity
  8
DRAW2
100
AcDbCircle
 10
565.2961420469428
 20
186.5910254269262
 30
0.0
 40
7.5
  0
CIRCLE
  5
487A
330
18
100
AcDbEntity
  8
DRAW2
100
AcDbCircle
 10
564.7962380469428
 20
186.5909954269262
 30
0.0
 40
8.0
  0
LINE
  5
487B
330
18
100
AcDbEntity
  8
DRAW2
100
AcDbLine
 10
572.8016929469426
 20
186.5910233196107
 30
0.0
 11
569.0489158469427
 21
193.0910240269263
 31
0.0
  0
LINE
  5
487D
330
18
100
AcDbEntity
  8
DRAW2
100
AcDbLine
 10
588.2961920469426
 20
139.0910383305377
 30
0.0
 11
542.2961920469425
 21
139.0910383305377
 31
0.0
  0
ARC
  5
487E
330
18
100
AcDbEntity
  8
DRAW2
100
AcDbCircle
 10
507.2460790469426
 20
211.5910254269262
 30
0.0
 40
68.800003
100
AcDbArc
 50
311.18021988344
 51
329.7877454325164
  0
LINE
  5
487F
330
18
100
AcDbEntity
  8
DRAW2
100
AcDbLine
 10
542.0460420469425
 20
142.0910254269261
 30
0.0
 11
542.0460420469425
 21
199.0910254269262
 31
0.0
  0
LINE
  5
4880
330
18
100
AcDbEntity
  8
DRAW2
100
AcDbLine
 10
552.5460420469426
 20
142.0910254269261
 30
0.0
 11
552.5460420469426
 21
177.5910254269263
 31
0.0
  0
LINE
  5
4881
330
18
100
AcDbEntity
  8
DRAW2
100
AcDbLine
 10
541.0460320469426
 20
139.6509519284236
 30
0.0
 11
541.0460320469426
 21
199.0910254269262
 31
0.0
  0
LINE
  5
4882
330
18
100
AcDbEntity
  8
DRAW2
100
AcDbLine
 10
520.3460820469424
 20
139.6509519284234
 30
0.0
 11
520.3460820469427
 21
199.0910254269262
 31
0.0
  0
LINE
  5
4883
330
18
100
AcDbEntity
  8
DRAW2
100
AcDbLine
 10
518.3460820469426
 20
139.6509519284234
 30
0.0
 11
518.3460820469426
 21
199.0910254269262
 31
0.0
  0
LINE
  5
4884
330
18
100
AcDbEntity
  8
DRAW2
100
AcDbLine
 10
507.3460820469424
 20
139.6509519284236
 30
0.0
 11
507.3460820469424
 21
145.4052924559722
 31
0.0
  0
LINE
  5
4885
330
18
100
AcDbEntity
  8
DRAW2
100
AcDbLine
 10
504.5961195469427
 20
135.9439792394197
 30
0.0
 11
504.5961195469427
 21
118.9009519284236
 31
0.0
  0
LINE
  5
4886
330
18
100
AcDbEntity
  8
DRAW2
100
AcDbLine
 10
504.5316504190262
 20
135.9439792394197
 30
0.0
 11
504.5316504190262
 21
118.9009519284236
 31
0.0
  0
LINE
  5
4887
330
18
100
AcDbEntity
  8
DRAW2
100
AcDbLine
 10
503.8461195469427
 20
118.1509519284236
 30
0.0
 11
498.3460820469424
 21
118.1509519284236
 31
0.0
  0
LINE
  5
4888
330
18
100
AcDbEntity
  8
DRAW2
100
AcDbLine
 10
498.3460820469424
 20
117.9500497223879
 30
0.0
 11
501.2283155333355
 21
117.9500497223879
 31
0.0
  0
ARC
  5
4889
330
18
100
AcDbEntity
  8
DRAW2
100
AcDbCircle
 10
502.6827176662179
 20
120.8042139067728
 30
0.0
 40
2.653480447004878
100
AcDbArc
 50
227.2937208246202
 51
314.1704540829976
  0
ARC
  5
488A
330
18
100
AcDbEntity
  8
DRAW2
100
AcDbCircle
 10
495.3461195469427
 20
127.9659065046472
 30
0.0
 40
9.814954576223676
100
AcDbArc
 50
287.7974063652334
 51
291.8230850509444
  0
ARC
  5
488B
330
18
100
AcDbEntity
  8
DRAW2
100
AcDbCircle
 10
495.3460445469428
 20
127.9659065046472
 30
0.0
 40
9.814954576223676
100
AcDbArc
 50
248.1769149490555
 51
252.2025936347664
  0
LINE
  5
488C
330
18
100
AcDbEntity
  8
DRAW2
100
AcDbLine
 10
500.8830205391947
 20
118.8543296195338
 30
0.0
 11
498.9947494267743
 21
118.8543296195338
 31
0.0
  0
LINE
  5
488D
330
18
100
AcDbEntity
  8
DRAW2
100
AcDbLine
 10
491.6974146671112
 20
121.0314557137077
 30
0.0
 11
491.6974146671112
 21
118.8543296195338
 31
0.0
  0
LINE
  5
488E
330
18
100
AcDbEntity
  8
DRAW2
100
AcDbLine
 10
498.9947494267743
 20
121.0314557137077
 30
0.0
 11
498.9947494267743
 21
118.8543296195338
 31
0.0
  0
LINE
  5
488F
330
18
100
AcDbEntity
  8
DRAW2
100
AcDbLine
 10
500.8830205391947
 20
122.3766717020214
 30
0.0
 11
500.8830205391947
 21
118.8543296195338
 31
0.0
  0
ARC
  5
4890
330
18
100
AcDbEntity
  8
DRAW2
100
AcDbCircle
 10
502.7073354791104
 20
109.6258314087032
 30
0.0
 40
8.455947153849152
100
AcDbArc
 50
79.92664653399953
 51
100.1265694821682
  0
LINE
  5
4891
330
18
100
AcDbEntity
  8
DRAW2
100
AcDbLine
 10
504.5961195469427
 20
118.9009519284236
 30
0.0
 11
503.8461195469427
 21
118.1509519284236
 31
0.0
  0
LINE
  5
4892
330
18
100
AcDbEntity
  8
DRAW2
100
AcDbLine
 10
504.3461195469427
 20
117.9500497223879
 30
0.0
 11
503.5961195469426
 21
118.1509519284236
 31
0.0
  0
LINE
  5
4893
330
18
100
AcDbEntity
  8
DRAW2
100
AcDbLine
 10
504.1863554248855
 20
117.9500497223879
 30
0.0
 11
504.3461195469427
 21
117.9500497223879
 31
0.0
  0
LINE
  5
4894
330
18
100
AcDbEntity
  8
DRAW2
100
AcDbLine
 10
503.8461195469427
 20
118.1509519284236
 30
0.0
 11
504.5961195469427
 21
118.9009519284236
 31
0.0
  0
LINE
  5
4895
330
18
100
AcDbEntity
  8
DRAW2
100
AcDbLine
 10
504.5961195469427
 20
118.9009519284236
 30
0.0
 11
504.5316504190262
 21
118.9009519284236
 31
0.0
  0
LINE
  5
4896
330
18
100
AcDbEntity
  8
DRAW3
100
AcDbLine
 10
501.1842445469427
 20
138.9409519284235
 30
0.0
 11
501.1620570469427
 21
139.6509519284236
 31
0.0
  0
ARC
  5
4897
330
18
100
AcDbEntity
  8
DRAW2
100
AcDbCircle
 10
502.6927721463217
 20
132.0940388002082
 30
0.0
 40
4.266557709360186
100
AcDbArc
 50
64.46908114148389
 51
115.5309188585161
  0
ARC
  5
4898
330
18
100
AcDbEntity
  8
DRAW2
100
AcDbCircle
 10
495.3461195469427
 20
120.1183219184221
 30
0.0
 40
16.24081062144512
100
AcDbArc
 50
77.01722515769001
 51
102.9827748423099
  0
LINE
  5
4899
330
18
100
AcDbEntity
  8
DRAW2
100
AcDbLine
 10
491.6974146671112
 20
135.9439792394197
 30
0.0
 11
491.6974146671112
 21
135.2704481431395
 31
0.0
  0
LINE
  5
489A
330
18
100
AcDbEntity
  8
DRAW2
100
AcDbLine
 10
500.8830205391947
 20
135.9439792394197
 30
0.0
 11
500.8830205391947
 21
133.9252321548257
 31
0.0
  0
LINE
  5
489B
330
18
100
AcDbEntity
  8
DRAW2
100
AcDbLine
 10
498.9947494267743
 20
135.9439792394197
 30
0.0
 11
498.9947494267743
 21
135.2704481431395
 31
0.0
  0
LINE
  5
489C
330
18
100
AcDbEntity
  8
DRAW2
100
AcDbLine
 10
498.9947494267743
 20
135.9439792394197
 30
0.0
 11
500.8830205391947
 21
135.9439792394197
 31
0.0
  0
LINE
  5
489D
330
18
100
AcDbEntity
  8
DRAW2
100
AcDbLine
 10
504.5316504190262
 20
135.9439792394197
 30
0.0
 11
504.5961195469427
 21
135.9439792394197
 31
0.0
  0
LINE
  5
489E
330
18
100
AcDbEntity
  8
DRAW2
100
AcDbLine
 10
502.0892282254157
 20
137.3734742172878
 30
0.0
 11
504.5961195469427
 21
135.9439792394197
 31
0.0
  0
LINE
  5
489F
330
18
100
AcDbEntity
  8
DRAW2
100
AcDbLine
 10
502.0892282254157
 20
137.3734742172878
 30
0.0
 11
502.0180570469428
 21
139.6509519284234
 31
0.0
  0
LINE
  5
48A0
330
18
100
AcDbEntity
  8
DRAW3
100
AcDbLine
 10
502.0892282254157
 20
137.3734742172878
 30
0.0
 11
501.1842445469427
 21
138.9409519284235
 31
0.0
  0
ARC
  5
48A1
330
18
100
AcDbEntity
  8
DRAW2
100
AcDbCircle
 10
543.5460420469426
 20
142.0910254269261
 30
0.0
 40
1.5
100
AcDbArc
 50
180.0000029999993
 51
270.000010000001
  0
LINE
  5
48A2
330
18
100
AcDbEntity
  8
DRAW2
100
AcDbLine
 10
542.2961920469425
 20
141.2616431402214
 30
0.0
 11
542.2961920469425
 21
139.0910383305377
 31
0.0
  0
ARC
  5
48A3
330
18
100
AcDbEntity
  8
DRAW2
100
AcDbCircle
 10
551.0460420469426
 20
142.0910254269261
 30
0.0
 40
1.5
100
AcDbArc
 50
269.999989999999
 51
0.0
  0
LINE
  5
48A4
330
18
100
AcDbEntity
  8
DRAW2
100
AcDbLine
 10
543.5460420469426
 20
140.5910254269261
 30
0.0
 11
551.0460420469426
 21
140.5910254269261
 31
0.0
  0
LINE
  5
48A5
330
18
100
AcDbEntity
  8
DRAW2
100
AcDbLine
 10
541.0460320469426
 20
145.5910254269262
 30
0.0
 11
542.0460420469425
 21
145.5910254269262
 31
0.0
  0
LINE
  5
48A6
330
18
100
AcDbEntity
  8
DRAW2
100
AcDbLine
 10
541.0460320469426
 20
153.5910254269263
 30
0.0
 11
542.0460420469425
 21
153.5910254269263
 31
0.0
  0
LINE
  5
48A7
330
18
100
AcDbEntity
  8
DRAW2
100
AcDbLine
 10
566.9462520469426
 20
152.9659954269261
 30
0.0
 11
566.3211920469426
 21
153.5910554269261
 31
0.0
  0
LINE
  5
48A8
330
18
100
AcDbEntity
  8
DRAW2
100
AcDbLine
 10
566.3211920469426
 20
153.5910554269261
 30
0.0
 11
566.3211920469426
 21
145.5910554269261
 31
0.0
  0
LINE
  5
48A9
330
18
100
AcDbEntity
  8
DRAW2
100
AcDbLine
 10
556.1460821469425
 20
142.2910376269262
 30
0.0
 11
556.1460821469425
 21
156.891013226926
 31
0.0
  0
ARC
  5
48AA
330
18
100
AcDbEntity
  8
DRAW2
100
AcDbCircle
 10
553.2586157169426
 20
152.8410254269261
 30
0.0
 40
9.3874664
100
AcDbArc
 50
339.74453
 51
20.25544900000018
  0
LINE
  5
48AB
330
18
100
AcDbEntity
  8
DRAW2
100
AcDbLine
 10
562.6460820469426
 20
143.0910254269261
 30
0.0
 11
562.6460820469426
 21
156.0910254269261
 31
0.0
  0
LINE
  5
48AC
330
18
100
AcDbEntity
  8
DRAW2
100
AcDbLine
 10
554.1460821469426
 20
141.8410254269262
 30
0.0
 11
554.1460821469426
 21
157.3410254269262
 31
0.0
  0
ARC
  5
48AD
330
18
100
AcDbEntity
  8
DRAW2
100
AcDbCircle
 10
565.2961320469426
 20
159.0910101681372
 30
0.0
 40
6.25
100
AcDbArc
 50
284.5838709064782
 51
208.6852425621722
  0
LINE
  5
48AE
330
18
100
AcDbEntity
  8
DRAW2
100
AcDbLine
 10
562.0655462469426
 20
149.5910254269261
 30
0.0
 11
556.1460821469425
 21
149.5910254269261
 31
0.0
  0
LINE
  5
48AF
330
18
100
AcDbEntity
  8
DRAW2
100
AcDbLine
 10
562.6460820469426
 20
143.0910254269261
 30
0.0
 11
556.1460821469425
 21
143.0910254269261
 31
0.0
  0
LINE
  5
48B0
330
18
100
AcDbEntity
  8
DRAW2
100
AcDbLine
 10
556.1460506469426
 20
149.8796735269261
 30
0.0
 11
554.1460627469425
 21
148.7249797769262
 31
0.0
  0
LINE
  5
48B1
330
18
100
AcDbEntity
  8
DRAW2
100
AcDbLine
 10
556.1460750469425
 20
150.4570238169262
 30
0.0
 11
554.1460606469426
 21
149.3023148369261
 31
0.0
  0
LINE
  5
48B2
330
18
100
AcDbEntity
  8
DRAW2
100
AcDbLine
 10
556.1460821469425
 20
142.2910376269262
 30
0.0
 11
554.1460821469426
 21
142.2910376269262
 31
0.0
  0
LINE
  5
48B3
330
18
100
AcDbEntity
  8
DRAW2
100
AcDbLine
 10
554.1460821469426
 20
141.8410254269262
 30
0.0
 11
552.5460760469426
 21
141.8410254269262
 31
0.0
  0
LINE
  5
48B4
330
18
100
AcDbEntity
  8
DRAW3
100
AcDbLine
 10
562.6452502528255
 20
152.9659954269261
 30
0.0
 11
566.9462520469426
 21
152.9659954269261
 31
0.0
  0
LINE
  5
48B5
330
18
100
AcDbEntity
  8
DRAW2
100
AcDbLine
 10
566.9461920469426
 20
146.2159954269261
 30
0.0
 11
566.3212520469428
 21
145.5909954269261
 31
0.0
  0
LINE
  5
48B6
330
18
100
AcDbEntity
  8
DRAW3
100
AcDbLine
 10
562.645249453817
 20
146.215995426926
 30
0.0
 11
566.9461920469426
 21
146.215995426926
 31
0.0
  0
LINE
  5
48B7
330
18
100
AcDbEntity
  8
DRAW2
100
AcDbLine
 10
562.6460460469425
 20
145.5910254269262
 30
0.0
 11
566.3212820440629
 21
145.5910254269262
 31
0.0
  0
ARC
  5
48B8
330
18
100
AcDbEntity
  8
DRAW2
100
AcDbCircle
 10
553.2586157169426
 20
146.3410254269262
 30
0.0
 40
9.3874664
100
AcDbArc
 50
339.74453
 51
20.25544900000018
  0
LINE
  5
48B9
330
18
100
AcDbEntity
  8
DRAW2
100
AcDbLine
 10
566.9461920469426
 20
146.2160254269261
 30
0.0
 11
566.9461920469426
 21
152.9660254269261
 31
0.0
  0
LINE
  5
48BA
330
18
100
AcDbEntity
  8
DRAW2
100
AcDbLine
 10
565.2961202712285
 20
164.8645449269262
 30
0.0
 11
560.2961501469423
 21
161.9778111269262
 31
0.0
  0
LINE
  5
48BB
330
18
100
AcDbEntity
  8
DRAW2
100
AcDbLine
 10
562.6460820469426
 20
156.0910254269261
 30
0.0
 11
556.1460821469425
 21
156.0910254269261
 31
0.0
  0
ARC
  5
48BC
330
18
100
AcDbEntity
  8
DRAW2
100
AcDbCircle
 10
565.2961320469426
 20
159.0910101681373
 30
0.0
 40
4.9999952
100
AcDbArc
 50
237.9938351315836
 51
216.8697203327702
  0
ARC
  5
48BD
330
18
100
AcDbEntity
  8
DRAW2
100
AcDbCircle
 10
565.2961320469426
 20
159.0910101681372
 30
0.0
 40
5.75
100
AcDbArc
 50
281.6123625701024
 51
211.4488031630292
  0
LINE
  5
48BE
330
18
100
AcDbEntity
  8
DRAW2
100
AcDbLine
 10
560.2961167469425
 20
161.9777899269262
 30
0.0
 11
560.2961167469425
 21
156.2042609269262
 31
0.0
  0
LINE
  5
48BF
330
18
100
AcDbEntity
  8
DRAW2
100
AcDbLine
 10
556.1460821469425
 20
156.891013226926
 30
0.0
 11
554.1460821469426
 21
156.891013226926
 31
0.0
  0
LINE
  5
48C0
330
18
100
AcDbEntity
  8
DRAW2
100
AcDbLine
 10
554.1460821469426
 20
157.3410254269262
 30
0.0
 11
552.5460760469426
 21
157.3410254269262
 31
0.0
  0
LINE
  5
48C1
330
18
100
AcDbEntity
  8
DRAW2
100
AcDbLine
 10
570.2961873469424
 20
161.9777549269262
 30
0.0
 11
565.2961380342572
 21
164.8645344269262
 31
0.0
  0
LINE
  5
48C2
330
18
100
AcDbEntity
  8
DRAW2
100
AcDbLine
 10
570.2961167469424
 20
161.9777594269262
 30
0.0
 11
570.2961167469424
 21
156.2042609269262
 31
0.0
  0
LINE
  5
48C3
330
18
100
AcDbEntity
  8
DRAW2
100
AcDbLine
 10
562.6460460469425
 20
153.5910254269263
 30
0.0
 11
566.3211920469426
 21
153.5910254269263
 31
0.0
  0
LINE
  5
48C4
330
18
100
AcDbEntity
  8
DRAW2
100
AcDbLine
 10
564.8224383974787
 20
153.5910254269263
 30
0.0
 11
562.6460820469426
 21
154.847545208413
 31
0.0
  0
LINE
  5
48C5
330
18
100
AcDbEntity
  8
DRAW2
100
AcDbLine
 10
570.2961501469424
 20
156.2043140269262
 30
0.0
 11
565.769801084238
 21
153.5910254269264
 31
0.0
  0
CIRCLE
  5
48C6
330
18
100
AcDbEntity
  8
DRAW2
100
AcDbCircle
 10
565.2961420469428
 20
186.5910254269262
 30
0.0
 40
6.500003299999998
  0
LINE
  5
48C7
330
18
100
AcDbEntity
  8
DRAW2
100
AcDbLine
 10
557.7905878469428
 20
186.5910247967999
 30
0.0
 11
561.5433647469426
 21
193.0910254269263
 31
0.0
  0
LINE
  5
48C8
330
18
100
AcDbEntity
  8
DRAW2
100
AcDbLine
 10
545.7961420469428
 20
177.5910254269263
 30
0.0
 11
545.7961420469428
 21
199.0910254269262
 31
0.0
  0
LINE
  5
48C9
330
18
100
AcDbEntity
  8
DRAW2
100
AcDbLine
 10
547.5994520469426
 20
203.4010254269261
 30
0.0
 11
557.1284820469425
 21
182.8110254269262
 31
0.0
  0
LINE
  5
48CA
330
18
100
AcDbEntity
  8
DRAW2
100
AcDbLine
 10
545.7961420469428
 20
177.5910254269263
 30
0.0
 11
565.2961420469428
 21
177.5910254269263
 31
0.0
  0
LINE
  5
48CB
330
18
100
AcDbEntity
  8
DRAW2
100
AcDbLine
 10
541.0460320469426
 20
176.5910254269261
 30
0.0
 11
542.0460420469425
 21
176.5910254269261
 31
0.0
  0
LINE
  5
48CC
330
18
100
AcDbEntity
  8
DRAW2
100
AcDbLine
 10
541.0460320469426
 20
184.5910254269261
 30
0.0
 11
542.0460420469425
 21
184.5910254269261
 31
0.0
  0
LINE
  5
48CD
330
18
100
AcDbEntity
  8
DRAW2
100
AcDbLine
 10
562.6460820469426
 20
174.0910254269262
 30
0.0
 11
556.1460821469425
 21
174.0910254269262
 31
0.0
  0
LINE
  5
48CE
330
18
100
AcDbEntity
  8
DRAW2
100
AcDbLine
 10
556.1460821469425
 20
173.2910376269261
 30
0.0
 11
554.1460821469426
 21
173.2910376269261
 31
0.0
  0
LINE
  5
48CF
330
18
100
AcDbEntity
  8
DRAW2
100
AcDbLine
 10
554.1460821469426
 20
172.8410254269261
 30
0.0
 11
552.5460760469426
 21
172.8410254269261
 31
0.0
  0
LINE
  5
48D0
330
18
100
AcDbEntity
  8
DRAW2
100
AcDbLine
 10
556.1460821469425
 20
173.2910376269261
 30
0.0
 11
556.1460821469425
 21
177.5910254269262
 31
0.0
  0
LINE
  5
48D1
330
18
100
AcDbEntity
  8
DRAW2
100
AcDbLine
 10
554.1460821469426
 20
172.8410254269261
 30
0.0
 11
554.1460821469424
 21
177.5910254269263
 31
0.0
  0
ARC
  5
48D2
330
18
100
AcDbEntity
  8
DRAW2
100
AcDbCircle
 10
523.5960800469427
 20
211.5910254269262
 30
0.0
 40
52.450001
100
AcDbArc
 50
303.5011352101374
 51
314.3595362801211
  0
LINE
  5
48D3
330
18
100
AcDbEntity
  8
DRAW2
100
AcDbLine
 10
566.9461920469426
 20
177.2159954269261
 30
0.0
 11
566.9461920469425
 21
177.7435837585636
 31
0.0
  0
LINE
  5
48D4
330
18
100
AcDbEntity
  8
DRAW2
100
AcDbLine
 10
566.3211920469426
 20
177.6495964577002
 30
0.0
 11
566.3211920469426
 21
176.5910254269263
 31
0.0
  0
LINE
  5
48D5
330
18
100
AcDbEntity
  8
DRAW3
100
AcDbLine
 10
562.6460820469426
 20
177.2159654269261
 30
0.0
 11
566.9461920469426
 21
177.2159654269261
 31
0.0
  0
LINE
  5
48D6
330
18
100
AcDbEntity
  8
DRAW2
100
AcDbLine
 10
566.9461920469426
 20
177.2159654269263
 30
0.0
 11
566.3212520469428
 21
176.5909654269261
 31
0.0
  0
LINE
  5
48D7
330
18
100
AcDbEntity
  8
DRAW2
100
AcDbLine
 10
562.6460460469425
 20
176.5910254269261
 30
0.0
 11
566.3213120411828
 21
176.5910254269261
 31
0.0
  0
ARC
  5
48D8
330
18
100
AcDbEntity
  8
DRAW2
100
AcDbCircle
 10
507.2460790469426
 20
211.5910254269262
 30
0.0
 40
68.800003
100
AcDbArc
 50
330.1963927240848
 51
330.5725582103878
  0
LINE
  5
48D9
330
18
100
AcDbEntity
  8
DRAW2
100
AcDbLine
 10
562.6460820469426
 20
174.0910254269262
 30
0.0
 11
562.6460820469426
 21
177.5910254269263
 31
0.0
  0
ARC
  5
48DA
330
18
100
AcDbEntity
  8
DRAW2
100
AcDbCircle
 10
553.2586157169426
 20
177.3410254269261
 30
0.0
 40
9.3874664
100
AcDbArc
 50
339.74453
 51
1.52603886451022
  0
LINE
  5
48DB
330
18
100
AcDbEntity
  8
DRAW2
100
AcDbLine
 10
561.5433732469425
 20
180.0910378269263
 30
0.0
 11
569.0489274469426
 21
180.0910378269263
 31
0.0
  0
LINE
  5
48DC
330
18
100
AcDbEntity
  8
DRAW2
100
AcDbLine
 10
561.5433604469426
 20
180.0910225269263
 30
0.0
 11
557.7905835469428
 21
186.5910230042889
 31
0.0
  0
ARC
  5
48DD
330
18
100
AcDbEntity
  8
DRAW2
100
AcDbCircle
 10
547.9963320469427
 20
196.5910254269262
 30
0.0
 40
2.5
100
AcDbArc
 50
24.83444299999731
 51
89.9999820000008
  0
LINE
  5
48DE
330
18
100
AcDbEntity
  8
DRAW2
100
AcDbLine
 10
561.5433794469427
 20
193.0910397269263
 30
0.0
 11
569.0489336469426
 21
193.0910397269263
 31
0.0
  0
ARC
  5
48DF
330
18
100
AcDbEntity
  8
DRAW2
100
AcDbCircle
 10
556.6358915233438
 20
200.5910254269261
 30
0.0
 40
1.5
100
AcDbArc
 50
231.7870999999994
 51
270.0000199999954
  0
ARC
  5
48E0
330
18
100
AcDbEntity
  8
DRAW2
100
AcDbCircle
 10
563.2961420469426
 20
200.0910254269262
 30
0.0
 40
1.0
100
AcDbArc
 50
269.9999599999959
 51
0.0
  0
ARC
  5
48E1
330
18
100
AcDbEntity
  8
DRAW2
100
AcDbCircle
 10
567.2961420469426
 20
200.0910254269262
 30
0.0
 40
1.0
100
AcDbArc
 50
179.9999599999992
 51
269.9999500000014
  0
LINE
  5
48E2
330
18
100
AcDbEntity
  8
DRAW2
100
AcDbLine
 10
588.2961920469426
 20
198.5910383305377
 30
0.0
 11
588.2961920469426
 21
139.0910383305377
 31
0.0
  0
LINE
  5
48E3
330
18
100
AcDbEntity
  8
DRAW2
100
AcDbLine
 10
612.3582320469426
 20
195.0911027474852
 30
0.0
 11
629.2960723960086
 21
195.0910254269262
 31
0.0
  0
LINE
  5
48E4
330
18
100
AcDbEntity
  8
DRAW2
100
AcDbLine
 10
582.9928620469427
 20
203.4010254269261
 30
0.0
 11
573.4638620469427
 21
182.8110254269262
 31
0.0
  0
LINE
  5
48E5
330
18
100
AcDbEntity
  8
DRAW2
100
AcDbLine
 10
582.3645628323405
 20
198.5910254269261
 30
0.0
 11
606.2961020469426
 21
198.5910854269262
 31
0.0
  0
ARC
  5
48E6
330
18
100
AcDbEntity
  8
DRAW2
100
AcDbCircle
 10
582.3645620469424
 20
196.0910254269262
 30
0.0
 40
2.5
100
AcDbArc
 50
89.9999820000008
 51
155.1658700000015
  0
ARC
  5
48E7
330
18
100
AcDbEntity
  8
DRAW2
100
AcDbCircle
 10
573.9563915233439
 20
200.5910254269261
 30
0.0
 40
1.5
100
AcDbArc
 50
270.0000199999954
 51
308.2128800000016
  0
LINE
  5
48E8
330
18
100
AcDbEntity
  8
DRAW2
100
AcDbLine
 10
606.2961020469426
 20
198.5910854269262
 30
0.0
 11
612.3582620469427
 21
195.0910854269262
 31
0.0
  0
ARC
  5
48E9
330
18
100
AcDbEntity
  8
DRAW2
100
AcDbCircle
 10
629.2960720469428
 20
196.0910254269262
 30
0.0
 40
1.0
100
AcDbArc
 50
270.0000199999954
 51
0.0
  0
LINE
  5
48EB
330
18
100
AcDbEntity
  8
DRAW2
100
AcDbLine
 10
588.2961920469425
 20
284.0910383305378
 30
0.0
 11
542.2961920469425
 21
284.0910383305378
 31
0.0
  0
LINE
  5
48EC
330
18
100
AcDbEntity
  8
DRAW2
100
AcDbLine
 10
556.6358920469424
 20
224.0910254269262
 30
0.0
 11
573.9563920469427
 21
224.0910254269262
 31
0.0
  0
ARC
  5
48EE
330
18
100
AcDbEntity
  8
DRAW2
100
AcDbCircle
 10
565.2961420469426
 20
236.5910254269262
 30
0.0
 40
9.000000000000024
100
AcDbArc
 50
24.83455900000077
 51
155.165459999996
  0
LINE
  5
48EF
330
18
100
AcDbEntity
  8
DRAW2
100
AcDbLine
 10
569.0489193469426
 20
230.0910254269263
 30
0.0
 11
572.8016962469426
 21
236.5910260570528
 31
0.0
  0
CIRCLE
  5
48F0
330
18
100
AcDbEntity
  8
DRAW2
100
AcDbCircle
 10
565.2961420469428
 20
236.5910254269262
 30
0.0
 40
7.5
  0
CIRCLE
  5
48F1
330
18
100
AcDbEntity
  8
DRAW2
100
AcDbCircle
 10
565.2961420469428
 20
236.5910254269262
 30
0.0
 40
8.0
  0
LINE
  5
48F2
330
18
100
AcDbEntity
  8
DRAW2
100
AcDbLine
 10
572.8016929469426
 20
236.5910233196107
 30
0.0
 11
569.0489158469427
 21
243.0910240269263
 31
0.0
  0
LINE
  5
48F4
330
18
100
AcDbEntity
  8
DRAW2
100
AcDbLine
 10
570.2961167469424
 20
261.2042914269263
 30
0.0
 11
570.2961167469424
 21
266.9777899269261
 31
0.0
  0
LINE
  5
48F5
330
18
100
AcDbEntity
  8
DRAW2
100
AcDbLine
 10
560.2961167469425
 20
261.2042609269263
 30
0.0
 11
560.2961167469426
 21
266.9304679166487
 31
0.0
  0
ARC
  5
48F6
330
18
100
AcDbEntity
  8
DRAW2
100
AcDbCircle
 10
565.2961320469426
 20
264.0910406857153
 30
0.0
 40
4.9999952
100
AcDbArc
 50
143.1302796671763
 51
122.0061648684164
  0
ARC
  5
48F7
330
18
100
AcDbEntity
  8
DRAW2
100
AcDbCircle
 10
565.2961320469426
 20
264.0910406857152
 30
0.0
 40
6.25
100
AcDbArc
 50
151.3147574378263
 51
75.41590358957937
  0
ARC
  5
48F8
330
18
100
AcDbEntity
  8
DRAW2
100
AcDbCircle
 10
565.2961320469426
 20
264.0910406857152
 30
0.0
 40
5.75
100
AcDbArc
 50
148.5511968369693
 51
78.38738427210484
  0
ARC
  5
48F9
330
18
100
AcDbEntity
  8
DRAW2
100
AcDbCircle
 10
507.2460790469442
 20
211.5910254269278
 30
0.0
 40
68.80000299999782
100
AcDbArc
 50
30.21218534445582
 51
48.81978011656002
  0
LINE
  5
48FA
330
18
100
AcDbEntity
  8
DRAW2
100
AcDbLine
 10
542.0460420469425
 20
281.0910254269261
 30
0.0
 11
542.0460420469425
 21
224.0910254269261
 31
0.0
  0
LINE
  5
48FB
330
18
100
AcDbEntity
  8
DRAW2
100
AcDbLine
 10
552.5460420469426
 20
281.0910254269261
 30
0.0
 11
552.5460420469426
 21
245.5910254269261
 31
0.0
  0
LINE
  5
48FC
330
18
100
AcDbEntity
  8
DRAW2
100
AcDbLine
 10
518.3460820469426
 20
224.0910254269261
 30
0.0
 11
518.3460820469426
 21
281.6509519284234
 31
0.0
  0
LINE
  5
48FD
330
18
100
AcDbEntity
  8
DRAW2
100
AcDbLine
 10
520.3460820469427
 20
224.0910254269261
 30
0.0
 11
520.3460820469427
 21
281.6509519284234
 31
0.0
  0
LINE
  5
48FE
330
18
100
AcDbEntity
  8
DRAW2
100
AcDbLine
 10
541.0460320469426
 20
224.0910254269261
 30
0.0
 11
541.0460320469428
 21
281.6509519284232
 31
0.0
  0
LINE
  5
48FF
330
18
100
AcDbEntity
  8
DRAW2
100
AcDbLine
 10
557.7905878469428
 20
236.5910247967997
 30
0.0
 11
561.5433647469426
 21
243.0910254269263
 31
0.0
  0
LINE
  5
4900
330
18
100
AcDbEntity
  8
DRAW2
100
AcDbLine
 10
545.7961420469428
 20
245.5910254269262
 30
0.0
 11
545.7961420469428
 21
224.0910254269262
 31
0.0
  0
LINE
  5
4901
330
18
100
AcDbEntity
  8
DRAW2
100
AcDbLine
 10
547.5994520469426
 20
219.7809954269262
 30
0.0
 11
557.1284420469425
 21
240.3710254269261
 31
0.0
  0
CIRCLE
  5
4902
330
18
100
AcDbEntity
  8
DRAW2
100
AcDbCircle
 10
565.2961420469428
 20
236.5910254269262
 30
0.0
 40
6.500003299999998
  0
ARC
  5
4903
330
18
100
AcDbEntity
  8
DRAW2
100
AcDbCircle
 10
547.9963320469427
 20
226.5910254269262
 30
0.0
 40
2.5
100
AcDbArc
 50
270.0000179999992
 51
335.1655570000026
  0
LINE
  5
4904
330
18
100
AcDbEntity
  8
DRAW2
100
AcDbLine
 10
541.0460320469427
 20
238.5910254269263
 30
0.0
 11
542.0460420469425
 21
238.5910254269263
 31
0.0
  0
ARC
  5
4905
330
18
100
AcDbEntity
  8
DRAW2
100
AcDbCircle
 10
556.6358920469424
 20
222.5910254269262
 30
0.0
 40
1.5
100
AcDbArc
 50
89.9999820000008
 51
128.2129000000006
  0
ARC
  5
4906
330
18
100
AcDbEntity
  8
DRAW2
100
AcDbCircle
 10
563.2961420469426
 20
223.0910254269262
 30
0.0
 40
1.0
100
AcDbArc
 50
0.0
 51
89.9999820000008
  0
ARC
  5
4907
330
18
100
AcDbEntity
  8
DRAW2
100
AcDbCircle
 10
567.2961420469426
 20
223.0910254269262
 30
0.0
 40
1.0
100
AcDbArc
 50
89.9999820000008
 51
179.9999599999992
  0
LINE
  5
4908
330
18
100
AcDbEntity
  8
DRAW2
100
AcDbLine
 10
561.5433732469425
 20
230.0910378269263
 30
0.0
 11
569.0489274469426
 21
230.0910378269263
 31
0.0
  0
LINE
  5
4909
330
18
100
AcDbEntity
  8
DRAW2
100
AcDbLine
 10
561.5433604469426
 20
230.0910225269263
 30
0.0
 11
557.7905835469428
 21
236.5910230042889
 31
0.0
  0
LINE
  5
490A
330
18
100
AcDbEntity
  8
DRAW2
100
AcDbLine
 10
545.7961420469428
 20
245.5910254269262
 30
0.0
 11
565.2961420469428
 21
245.5910254269262
 31
0.0
  0
LINE
  5
490B
330
18
100
AcDbEntity
  8
DRAW2
100
AcDbLine
 10
541.0460320469427
 20
246.5910254269263
 30
0.0
 11
542.0460420469425
 21
246.5910254269263
 31
0.0
  0
ARC
  5
490C
330
18
100
AcDbEntity
  8
DRAW2
100
AcDbCircle
 10
523.5960800469427
 20
211.5910254269262
 30
0.0
 40
52.450001
100
AcDbArc
 50
45.64046371988228
 51
56.49886478986253
  0
LINE
  5
490D
330
18
100
AcDbEntity
  8
DRAW2
100
AcDbLine
 10
562.6460820469426
 20
249.0910254269264
 30
0.0
 11
556.1460821469425
 21
249.0910254269264
 31
0.0
  0
LINE
  5
490E
330
18
100
AcDbEntity
  8
DRAW2
100
AcDbLine
 10
561.5433794469427
 20
243.0910397269263
 30
0.0
 11
569.0489336469426
 21
243.0910397269263
 31
0.0
  0
LINE
  5
490F
330
18
100
AcDbEntity
  8
DRAW2
100
AcDbLine
 10
556.1460821469425
 20
249.8910132269263
 30
0.0
 11
554.1460821469426
 21
249.8910132269263
 31
0.0
  0
LINE
  5
4910
330
18
100
AcDbEntity
  8
DRAW2
100
AcDbLine
 10
554.1460821469426
 20
250.3410254269264
 30
0.0
 11
552.5460760469426
 21
250.3410254269264
 31
0.0
  0
LINE
  5
4911
330
18
100
AcDbEntity
  8
DRAW2
100
AcDbLine
 10
556.1460821469425
 20
249.8910132269263
 30
0.0
 11
556.1460821469425
 21
245.5910254269261
 31
0.0
  0
LINE
  5
4912
330
18
100
AcDbEntity
  8
DRAW2
100
AcDbLine
 10
554.1460821469426
 20
250.3410254269264
 30
0.0
 11
554.1460821469424
 21
245.5910254269261
 31
0.0
  0
ARC
  5
4913
330
18
100
AcDbEntity
  8
DRAW2
100
AcDbCircle
 10
507.2460790469442
 20
211.5910254269278
 30
0.0
 40
68.80000299999782
100
AcDbArc
 50
29.42744841453116
 51
29.80360727591515
  0
LINE
  5
4914
330
18
100
AcDbEntity
  8
DRAW2
100
AcDbLine
 10
566.3211920469426
 20
245.5324611336514
 30
0.0
 11
566.3211920469426
 21
246.5909954269263
 31
0.0
  0
LINE
  5
4915
330
18
100
AcDbEntity
  8
DRAW2
100
AcDbLine
 10
566.9461920469426
 20
245.9660254269263
 30
0.0
 11
566.9461920469426
 21
245.4384733639022
 31
0.0
  0
LINE
  5
4916
330
18
100
AcDbEntity
  8
DRAW2
100
AcDbLine
 10
566.9461920469426
 20
245.9660554269263
 30
0.0
 11
566.3212520469428
 21
246.5910554269263
 31
0.0
  0
LINE
  5
4917
330
18
100
AcDbEntity
  8
DRAW3
100
AcDbLine
 10
562.6460820469426
 20
245.9660554269263
 30
0.0
 11
566.9461920469426
 21
245.9660554269263
 31
0.0
  0
LINE
  5
4918
330
18
100
AcDbEntity
  8
DRAW2
100
AcDbLine
 10
562.6460820469426
 20
246.5910254269263
 30
0.0
 11
566.3212820440628
 21
246.5910254269263
 31
0.0
  0
LINE
  5
4919
330
18
100
AcDbEntity
  8
DRAW2
100
AcDbLine
 10
562.6460820469426
 20
249.0910254269264
 30
0.0
 11
562.6460820469426
 21
245.5910254269261
 31
0.0
  0
ARC
  5
491A
330
18
100
AcDbEntity
  8
DRAW2
100
AcDbCircle
 10
553.2586157169426
 20
245.8410254269264
 30
0.0
 40
9.3874664
100
AcDbArc
 50
358.4739611354898
 51
20.25546999999996
  0
LINE
  5
491B
330
18
100
AcDbEntity
  8
DRAW2
100
AcDbLine
 10
565.2961202712285
 20
258.3175059269263
 30
0.0
 11
560.2961501469423
 21
261.2042397269263
 31
0.0
  0
LINE
  5
491C
330
18
100
AcDbEntity
  8
DRAW2
100
AcDbLine
 10
570.2961873469424
 20
261.2042959269262
 30
0.0
 11
565.2961380342572
 21
258.3175164269262
 31
0.0
  0
LINE
  5
491D
330
18
100
AcDbEntity
  8
DRAW2
100
AcDbLine
 10
541.0460320469428
 20
281.6509519284232
 30
0.0
 11
515.3460820469424
 21
281.6509519284234
 31
0.0
  0
LINE
  5
491E
330
18
100
AcDbEntity
  8
DRAW2
100
AcDbLine
 10
491.3460520469424
 20
284.6509719284237
 30
0.0
 11
491.3460520469424
 21
292.1509719284236
 31
0.0
  0
LINE
  5
491F
330
18
100
AcDbEntity
  8
DRAW2
100
AcDbLine
 10
499.3460120469424
 20
284.6509719284237
 30
0.0
 11
499.3460120469424
 21
292.1509719284236
 31
0.0
  0
ARC
  5
4920
330
18
100
AcDbEntity
  8
DRAW2
100
AcDbCircle
 10
513.3460820469426
 20
282.6509719284237
 30
0.0
 40
2.0
100
AcDbArc
 50
0.0
 51
90.0
  0
LINE
  5
4921
330
18
100
AcDbEntity
  8
DRAW2
100
AcDbLine
 10
515.3460820469424
 20
275.896611400875
 30
0.0
 11
515.3460820469424
 21
282.6509719284237
 31
0.0
  0
LINE
  5
4922
330
18
100
AcDbEntity
  8
DRAW2
100
AcDbLine
 10
498.8461120469423
 20
292.6509719284236
 30
0.0
 11
491.8461120469425
 21
292.6509719284236
 31
0.0
  0
LINE
  5
4923
330
18
100
AcDbEntity
  8
DRAW2
100
AcDbLine
 10
499.3460820469424
 20
292.1509719284236
 30
0.0
 11
491.3460820469424
 21
292.1509719284236
 31
0.0
  0
LINE
  5
4924
330
18
100
AcDbEntity
  8
DRAW2
100
AcDbLine
 10
491.8462020469426
 20
292.6509219284237
 30
0.0
 11
491.3462020469426
 21
292.1509219284237
 31
0.0
  0
LINE
  5
4925
330
18
100
AcDbEntity
  8
DRAW2
100
AcDbLine
 10
499.3461120469423
 20
292.1508919284235
 30
0.0
 11
498.8460820469424
 21
292.6509119284236
 31
0.0
  0
ARC
  5
4926
330
18
100
AcDbEntity
  8
DRAW2
100
AcDbCircle
 10
551.0460420469426
 20
281.0910254269261
 30
0.0
 40
1.5
100
AcDbArc
 50
0.0
 51
90.00001000000102
  0
LINE
  5
4927
330
18
100
AcDbEntity
  8
DRAW2
100
AcDbLine
 10
541.0460320469427
 20
269.5909654269262
 30
0.0
 11
542.0460420469425
 21
269.5909654269262
 31
0.0
  0
LINE
  5
4928
330
18
100
AcDbEntity
  8
DRAW2
100
AcDbLine
 10
541.0460320469428
 20
277.5909954269261
 30
0.0
 11
542.0460420469425
 21
277.5909954269261
 31
0.0
  0
ARC
  5
4929
330
18
100
AcDbEntity
  8
DRAW2
100
AcDbCircle
 10
543.5460420469426
 20
281.0910254269261
 30
0.0
 40
1.5
100
AcDbArc
 50
89.99998999999899
 51
179.999996999999
  0
LINE
  5
492A
330
18
100
AcDbEntity
  8
DRAW2
100
AcDbLine
 10
543.5460420469426
 20
282.5910254269262
 30
0.0
 11
551.0460420469426
 21
282.5910254269262
 31
0.0
  0
LINE
  5
492B
330
18
100
AcDbEntity
  8
DRAW2
100
AcDbLine
 10
542.2961920469425
 20
284.0910383305378
 30
0.0
 11
542.2961920469425
 21
281.9204077136309
 31
0.0
  0
ARC
  5
492C
330
18
100
AcDbEntity
  8
DRAW2
100
AcDbCircle
 10
553.2586157169426
 20
276.8410254269263
 30
0.0
 40
9.3874664
100
AcDbArc
 50
339.7445509999998
 51
20.25546999999996
  0
LINE
  5
492D
330
18
100
AcDbEntity
  8
DRAW2
100
AcDbLine
 10
562.6460820469426
 20
280.0910254269263
 30
0.0
 11
562.6460820469426
 21
267.0910254269263
 31
0.0
  0
LINE
  5
492E
330
18
100
AcDbEntity
  8
DRAW2
100
AcDbLine
 10
566.3211920469426
 20
269.5909954269261
 30
0.0
 11
566.3211920469426
 21
277.5909954269261
 31
0.0
  0
LINE
  5
492F
330
18
100
AcDbEntity
  8
DRAW2
100
AcDbLine
 10
566.9461920469426
 20
276.9660254269262
 30
0.0
 11
566.9461920469426
 21
270.2160254269262
 31
0.0
  0
LINE
  5
4930
330
18
100
AcDbEntity
  8
DRAW2
100
AcDbLine
 10
554.1460821469426
 20
281.3410254269263
 30
0.0
 11
554.1460821469426
 21
265.8410254269262
 31
0.0
  0
LINE
  5
4931
330
18
100
AcDbEntity
  8
DRAW2
100
AcDbLine
 10
556.1460821469425
 20
280.8910132269261
 30
0.0
 11
556.1460821469425
 21
266.2910376269262
 31
0.0
  0
LINE
  5
4932
330
18
100
AcDbEntity
  8
DRAW2
100
AcDbLine
 10
562.0655462469426
 20
273.5910254269263
 30
0.0
 11
556.1460821469425
 21
273.5910254269263
 31
0.0
  0
LINE
  5
4933
330
18
100
AcDbEntity
  8
DRAW2
100
AcDbLine
 10
562.6460820469426
 20
267.0910254269263
 30
0.0
 11
556.1460821469425
 21
267.0910254269263
 31
0.0
  0
LINE
  5
4934
330
18
100
AcDbEntity
  8
DRAW2
100
AcDbLine
 10
556.1460750469425
 20
274.4570238169261
 30
0.0
 11
554.1460606469426
 21
273.3023148369261
 31
0.0
  0
LINE
  5
4935
330
18
100
AcDbEntity
  8
DRAW2
100
AcDbLine
 10
556.1460821469425
 20
266.2910376269262
 30
0.0
 11
554.1460821469426
 21
266.2910376269262
 31
0.0
  0
LINE
  5
4936
330
18
100
AcDbEntity
  8
DRAW2
100
AcDbLine
 10
554.1460821469426
 20
265.8410254269262
 30
0.0
 11
552.5460760469426
 21
265.8410254269262
 31
0.0
  0
LINE
  5
4937
330
18
100
AcDbEntity
  8
DRAW2
100
AcDbLine
 10
556.1460506469426
 20
273.8796735269261
 30
0.0
 11
554.1460627469425
 21
272.7249797769262
 31
0.0
  0
LINE
  5
4938
330
18
100
AcDbEntity
  8
DRAW2
100
AcDbLine
 10
564.8224383974787
 20
269.5910254269263
 30
0.0
 11
562.6460820469426
 21
268.3345056454395
 31
0.0
  0
LINE
  5
4939
330
18
100
AcDbEntity
  8
DRAW2
100
AcDbLine
 10
570.2961501469424
 20
266.9777368269262
 30
0.0
 11
565.7698010842376
 21
269.5910254269262
 31
0.0
  0
LINE
  5
493A
330
18
100
AcDbEntity
  8
DRAW3
100
AcDbLine
 10
562.6460820469426
 20
270.2160554269261
 30
0.0
 11
566.9462520469426
 21
270.2160554269261
 31
0.0
  0
LINE
  5
493B
330
18
100
AcDbEntity
  8
DRAW2
100
AcDbLine
 10
566.9462520469426
 20
270.2160254269262
 30
0.0
 11
566.3211920469426
 21
269.5909654269262
 31
0.0
  0
LINE
  5
493C
330
18
100
AcDbEntity
  8
DRAW2
100
AcDbLine
 10
562.6460820469426
 20
269.5910254269262
 30
0.0
 11
566.3212220469427
 21
269.5910254269262
 31
0.0
  0
ARC
  5
493D
330
18
100
AcDbEntity
  8
DRAW2
100
AcDbCircle
 10
553.2586157169426
 20
270.3410254269263
 30
0.0
 40
9.3874664
100
AcDbArc
 50
339.7445509999998
 51
20.25546999999996
  0
LINE
  5
493E
330
18
100
AcDbEntity
  8
DRAW2
100
AcDbLine
 10
562.6460820469426
 20
280.0910254269263
 30
0.0
 11
556.1460821469425
 21
280.0910254269263
 31
0.0
  0
LINE
  5
493F
330
18
100
AcDbEntity
  8
DRAW2
100
AcDbLine
 10
556.1460821469425
 20
280.8910132269261
 30
0.0
 11
554.1460821469426
 21
280.8910132269261
 31
0.0
  0
LINE
  5
4940
330
18
100
AcDbEntity
  8
DRAW2
100
AcDbLine
 10
554.1460821469426
 20
281.3410254269263
 30
0.0
 11
552.5460760469426
 21
281.3410254269263
 31
0.0
  0
LINE
  5
4941
330
18
100
AcDbEntity
  8
DRAW3
100
AcDbLine
 10
562.6460820469426
 20
276.9660554269261
 30
0.0
 11
566.9461920469426
 21
276.9660554269261
 31
0.0
  0
LINE
  5
4942
330
18
100
AcDbEntity
  8
DRAW2
100
AcDbLine
 10
566.9461920469426
 20
276.9660254269262
 30
0.0
 11
566.3212520469428
 21
277.5910254269262
 31
0.0
  0
LINE
  5
4943
330
18
100
AcDbEntity
  8
DRAW2
100
AcDbLine
 10
562.6460820469426
 20
277.5910254269262
 30
0.0
 11
566.3212820440628
 21
277.5910254269262
 31
0.0
  0
LINE
  5
4944
330
18
100
AcDbEntity
  8
DRAW2
100
AcDbLine
 10
588.2961920469425
 20
284.0910383305378
 30
0.0
 11
588.2961920469425
 21
224.5910383305377
 31
0.0
  0
LINE
  5
4945
330
18
100
AcDbEntity
  8
DRAW2
100
AcDbLine
 10
612.3582320469426
 20
228.0910254269261
 30
0.0
 11
629.2960720469428
 21
228.0910254269261
 31
0.0
  0
LINE
  5
4946
330
18
100
AcDbEntity
  8
DRAW2
100
AcDbLine
 10
582.9928920469426
 20
219.7810254269263
 30
0.0
 11
573.4638920469426
 21
240.3710254269261
 31
0.0
  0
LINE
  5
4947
330
18
100
AcDbEntity
  8
DRAW2
100
AcDbLine
 10
582.364592919607
 20
224.5910254269263
 30
0.0
 11
606.2960320469426
 21
224.5912747087051
 31
0.0
  0
ARC
  5
4948
330
18
100
AcDbEntity
  8
DRAW2
100
AcDbCircle
 10
582.3645920469425
 20
227.0910254269262
 30
0.0
 40
2.5
100
AcDbArc
 50
204.8344299999994
 51
270.0000199999954
  0
ARC
  5
4949
330
18
100
AcDbEntity
  8
DRAW2
100
AcDbCircle
 10
573.9563920469427
 20
222.5910254269262
 30
0.0
 40
1.5
100
AcDbArc
 50
51.78712299999805
 51
89.9999820000008
  0
LINE
  5
494A
330
18
100
AcDbEntity
  8
DRAW2
100
AcDbLine
 10
606.2959120469428
 20
224.5912054269263
 30
0.0
 11
612.3581120469425
 21
228.0912054269263
 31
0.0
  0
ARC
  5
494B
330
18
100
AcDbEntity
  8
DRAW2
100
AcDbCircle
 10
629.2960720469428
 20
227.0910254269261
 30
0.0
 40
1.0
100
AcDbArc
 50
0.0
 51
89.9999820000008
  0
CIRCLE
  5
494C
330
18
100
AcDbEntity
  8
DRAW3
100
AcDbCircle
 10
905.6015861493282
 20
11.92102938154732
 30
0.0
 40
10.45000099999999
  0
CIRCLE
  5
494D
330
18
100
AcDbEntity
  8
DRAW2
100
AcDbCircle
 10
905.6015861493282
 20
11.92102938154732
 30
0.0
 40
9.300000199999999
  0
CIRCLE
  5
494E
330
18
100
AcDbEntity
  8
DRAW2
100
AcDbCircle
 10
905.6015861493282
 20
11.92102938154732
 30
0.0
 40
16.5
  0
LINE
  5
494F
330
18
100
AcDbEntity
  8
DRAW2
100
AcDbLine
 10
939.6015561493282
 20
34.42102938154732
 30
0.0
 11
939.6015561493282
 21
-21.49309061845269
 31
0.0
  0
LINE
  5
4950
330
18
100
AcDbEntity
  8
DRAW2
100
AcDbLine
 10
871.6015861493282
 20
34.42102938154732
 30
0.0
 11
871.6015861493282
 21
-21.49306061845265
 31
0.0
  0
CIRCLE
  5
4952
330
18
100
AcDbEntity
  8
DRAW2
100
AcDbCircle
 10
905.6015861493282
 20
-183.0789706184526
 30
0.0
 40
9.300000199999999
  0
LINE
  5
4953
330
18
100
AcDbEntity
  8
DRAW2
100
AcDbLine
 10
939.6015561493282
 20
-205.5789706184526
 30
0.0
 11
939.6015561493282
 21
-149.6648606184526
 31
0.0
  0
LINE
  5
4954
330
18
100
AcDbEntity
  8
DRAW2
100
AcDbLine
 10
871.6015861493282
 20
-205.5789706184526
 30
0.0
 11
871.6015861493282
 21
-149.6648906184526
 31
0.0
  0
CIRCLE
  5
4955
330
18
100
AcDbEntity
  8
DRAW3
100
AcDbCircle
 10
905.6015861493282
 20
-183.0789706184526
 30
0.0
 40
10.45000099999999
  0
CIRCLE
  5
4956
330
18
100
AcDbEntity
  8
DRAW2
100
AcDbCircle
 10
905.6015861493282
 20
-183.0789706184526
 30
0.0
 40
16.5
  0
LINE
  5
4957
330
18
100
AcDbEntity
  8
DRAW2
100
AcDbLine
 10
978.1015061493283
 20
-215.5788506184526
 30
0.0
 11
973.1014961493281
 21
-220.5788506184526
 31
0.0
  0
LINE
  5
4958
330
18
100
AcDbEntity
  8
DRAW2
100
AcDbLine
 10
833.1015861493282
 20
-205.5789706184526
 30
0.0
 11
978.1015861493282
 21
-205.5789706184526
 31
0.0
  0
LINE
  5
4959
330
18
100
AcDbEntity
  8
DRAW2
100
AcDbLine
 10
838.1015861493281
 20
-220.5789506184526
 30
0.0
 11
973.1015861493283
 21
-220.5789506184526
 31
0.0
  0
LINE
  5
495A
330
18
100
AcDbEntity
  8
DRAW2
100
AcDbLine
 10
871.6015861493282
 20
-205.5789706184526
 30
0.0
 11
939.6015861493282
 21
-205.5789706184526
 31
0.0
  0
ARC
  5
495C
330
18
100
AcDbEntity
  8
DRAW2
100
AcDbCircle
 10
863.6503261493281
 20
-225.5789706184525
 30
0.0
 40
2.0
100
AcDbArc
 50
270.00002
 51
350.77022
  0
ARC
  5
495D
330
18
100
AcDbEntity
  8
DRAW2
100
AcDbCircle
 10
842.5527861493282
 20
-225.5789706184525
 30
0.0
 40
2.0
100
AcDbArc
 50
189.23003
 51
270.00002
  0
LINE
  5
495F
330
18
100
AcDbEntity
  8
DRAW2
100
AcDbLine
 10
863.6503261493281
 20
-227.5789806184526
 30
0.0
 11
842.5527861493282
 21
-227.5789806184526
 31
0.0
  0
ARC
  5
4960
330
18
100
AcDbEntity
  8
DRAW2
100
AcDbCircle
 10
853.1015661493281
 20
-207.0324406184525
 30
0.0
 40
9.553465799999999
100
AcDbArc
 50
72.412149
 51
107.5878799999999
  0
LINE
  5
4961
330
18
100
AcDbEntity
  8
DRAW2
100
AcDbLine
 10
848.1015561493281
 20
-197.4789706184526
 30
0.0
 11
858.1015661493282
 21
-197.4789706184526
 31
0.0
  0
LINE
  5
4962
330
18
100
AcDbEntity
  8
DRAW2
100
AcDbLine
 10
850.6015861493281
 20
-195.5789806184526
 30
0.0
 11
855.6015861493282
 21
-195.5789806184526
 31
0.0
  0
LINE
  5
4963
330
18
100
AcDbEntity
  8
DRAW2
100
AcDbLine
 10
850.1015561493282
 20
-196.0789706184525
 30
0.0
 11
856.1015861493283
 21
-196.0789706184525
 31
0.0
  0
LINE
  5
4964
330
18
100
AcDbEntity
  8
DRAW2
100
AcDbLine
 10
847.3515561493282
 20
-205.5789706184526
 30
0.0
 11
858.8515561493281
 21
-205.5789706184526
 31
0.0
  0
LINE
  5
4965
330
18
100
AcDbEntity
  8
DRAW2
100
AcDbLine
 10
847.3515561493282
 20
-203.9789706184526
 30
0.0
 11
858.8515561493281
 21
-203.9789706184526
 31
0.0
  0
LINE
  5
4966
330
18
100
AcDbEntity
  8
DRAW2
100
AcDbLine
 10
847.3280561493282
 20
-202.4789706184526
 30
0.0
 11
858.8750661493282
 21
-202.4789706184526
 31
0.0
  0
LINE
  5
4967
330
18
100
AcDbEntity
  8
DRAW2
100
AcDbLine
 10
850.2148161493281
 20
-197.9255506184527
 30
0.0
 11
850.2148161493281
 21
-202.4789706184526
 31
0.0
  0
LINE
  5
4968
330
18
100
AcDbEntity
  8
DRAW2
100
AcDbLine
 10
847.3280561493282
 20
-197.9255506184527
 30
0.0
 11
847.3280561493282
 21
-202.4789706184526
 31
0.0
  0
LINE
  5
4969
330
18
100
AcDbEntity
  8
DRAW2
100
AcDbLine
 10
833.101616149328
 20
-215.5790006184525
 30
0.0
 11
838.1015861493281
 21
-220.5789406184526
 31
0.0
  0
LINE
  5
496A
330
18
100
AcDbEntity
  8
DRAW2
100
AcDbLine
 10
833.1015861493282
 20
-205.5789706184526
 30
0.0
 11
833.1015861493282
 21
-215.5790006184525
 31
0.0
  0
LINE
  5
496B
330
18
100
AcDbEntity
  8
DRAW2
100
AcDbLine
 10
840.5786961493282
 20
-225.8998206184526
 30
0.0
 11
839.7140761493282
 21
-220.5789506184526
 31
0.0
  0
LINE
  5
496C
330
18
100
AcDbEntity
  8
DRAW2
100
AcDbLine
 10
852.3798761493281
 20
-202.4789606184526
 30
0.0
 11
853.2459061493282
 21
-203.9789606184526
 31
0.0
  0
LINE
  5
496D
330
18
100
AcDbEntity
  8
DRAW2
100
AcDbLine
 10
852.9572061493283
 20
-202.4789606184526
 30
0.0
 11
853.8232361493282
 21
-203.9789606184526
 31
0.0
  0
LINE
  5
496E
330
18
100
AcDbEntity
  8
DRAW2
100
AcDbLine
 10
847.3515561493282
 20
-202.4789706184526
 30
0.0
 11
847.3515561493282
 21
-205.5789706184526
 31
0.0
  0
ARC
  5
496F
330
18
100
AcDbEntity
  8
DRAW2
100
AcDbCircle
 10
848.7714461493281
 20
-200.0348506184525
 30
0.0
 40
2.555882899999998
100
AcDbArc
 50
55.61669699999999
 51
115.61505
  0
LINE
  5
4970
330
18
100
AcDbEntity
  8
DRAW2
100
AcDbLine
 10
847.3280561493282
 20
-197.9255506184527
 30
0.0
 11
848.1015561493281
 21
-197.4789706184526
 31
0.0
  0
LINE
  5
4971
330
18
100
AcDbEntity
  8
DRAW2
100
AcDbLine
 10
850.6017661493283
 20
-195.5790906184526
 30
0.0
 11
850.1017361493282
 21
-196.0791206184526
 31
0.0
  0
LINE
  5
4972
330
18
100
AcDbEntity
  8
DRAW3
100
AcDbLine
 10
850.6015861493281
 20
-195.5789806184526
 30
0.0
 11
850.6015861493281
 21
-197.4789606184526
 31
0.0
  0
LINE
  5
4973
330
18
100
AcDbEntity
  8
DRAW2
100
AcDbLine
 10
850.1015561493282
 20
-196.0789706184525
 30
0.0
 11
850.1015561493282
 21
-197.4789606184526
 31
0.0
  0
LINE
  5
4974
330
18
100
AcDbEntity
  8
DRAW2
100
AcDbLine
 10
855.9883161493281
 20
-197.9255506184527
 30
0.0
 11
855.9883161493281
 21
-202.4789706184526
 31
0.0
  0
LINE
  5
4975
330
18
100
AcDbEntity
  8
DRAW2
100
AcDbLine
 10
858.8750661493282
 20
-197.9255506184527
 30
0.0
 11
858.8750661493282
 21
-202.4789706184526
 31
0.0
  0
LINE
  5
4976
330
18
100
AcDbEntity
  8
DRAW2
100
AcDbLine
 10
866.4890061493281
 20
-220.5789706184525
 30
0.0
 11
865.6243461493282
 21
-225.8998206184526
 31
0.0
  0
LINE
  5
4977
330
18
100
AcDbEntity
  8
DRAW2
100
AcDbLine
 10
858.8515561493281
 20
-202.4789706184526
 30
0.0
 11
858.8515561493281
 21
-205.5789706184526
 31
0.0
  0
ARC
  5
4978
330
18
100
AcDbEntity
  8
DRAW2
100
AcDbCircle
 10
857.4316961493282
 20
-200.0348006184526
 30
0.0
 40
2.5558336
100
AcDbArc
 50
64.384519
 51
124.3840999999999
  0
LINE
  5
4979
330
18
100
AcDbEntity
  8
DRAW2
100
AcDbLine
 10
858.1015561493282
 20
-197.4789606184526
 30
0.0
 11
858.8750461493281
 21
-197.9255406184526
 31
0.0
  0
LINE
  5
497A
330
18
100
AcDbEntity
  8
DRAW2
100
AcDbLine
 10
855.6015861493282
 20
-195.5790106184525
 30
0.0
 11
856.1015261493281
 21
-196.0789406184526
 31
0.0
  0
LINE
  5
497B
330
18
100
AcDbEntity
  8
DRAW3
100
AcDbLine
 10
855.6015861493282
 20
-195.5789806184526
 30
0.0
 11
855.6015861493282
 21
-197.4789606184526
 31
0.0
  0
LINE
  5
497C
330
18
100
AcDbEntity
  8
DRAW2
100
AcDbLine
 10
856.1015861493283
 20
-196.0789706184525
 30
0.0
 11
856.1015861493283
 21
-197.4789606184526
 31
0.0
  0
ARC
  5
497D
330
18
100
AcDbEntity
  8
DRAW2
100
AcDbCircle
 10
968.6503361493283
 20
-225.5789706184525
 30
0.0
 40
2.0
100
AcDbArc
 50
270.00002
 51
350.77022
  0
ARC
  5
497E
330
18
100
AcDbEntity
  8
DRAW2
100
AcDbCircle
 10
947.5528161493283
 20
-225.5789706184525
 30
0.0
 40
2.0
100
AcDbArc
 50
189.23003
 51
270.00002
  0
LINE
  5
4980
330
18
100
AcDbEntity
  8
DRAW2
100
AcDbLine
 10
968.6503361493283
 20
-227.5789806184526
 30
0.0
 11
947.5528161493283
 21
-227.5789806184526
 31
0.0
  0
LINE
  5
4981
330
18
100
AcDbEntity
  8
DRAW2
100
AcDbLine
 10
955.2148361493282
 20
-197.9255506184527
 30
0.0
 11
955.2148361493282
 21
-202.4789706184526
 31
0.0
  0
LINE
  5
4982
330
18
100
AcDbEntity
  8
DRAW2
100
AcDbLine
 10
960.9883361493283
 20
-197.9255506184527
 30
0.0
 11
960.9883361493283
 21
-202.4789706184526
 31
0.0
  0
LINE
  5
4983
330
18
100
AcDbEntity
  8
DRAW2
100
AcDbLine
 10
963.8750861493281
 20
-197.9255506184527
 30
0.0
 11
963.8750861493281
 21
-202.4789706184526
 31
0.0
  0
LINE
  5
4984
330
18
100
AcDbEntity
  8
DRAW2
100
AcDbLine
 10
952.3280661493281
 20
-197.9255506184527
 30
0.0
 11
952.3280661493281
 21
-202.4789706184526
 31
0.0
  0
LINE
  5
4985
330
18
100
AcDbEntity
  8
DRAW2
100
AcDbLine
 10
952.3515661493281
 20
-205.5789706184526
 30
0.0
 11
963.8515661493281
 21
-205.5789706184526
 31
0.0
  0
LINE
  5
4986
330
18
100
AcDbEntity
  8
DRAW2
100
AcDbLine
 10
952.3515661493281
 20
-203.9789706184526
 30
0.0
 11
963.8515661493281
 21
-203.9789706184526
 31
0.0
  0
LINE
  5
4987
330
18
100
AcDbEntity
  8
DRAW2
100
AcDbLine
 10
952.3280661493281
 20
-202.4789706184526
 30
0.0
 11
963.8750861493281
 21
-202.4789706184526
 31
0.0
  0
LINE
  5
4988
330
18
100
AcDbEntity
  8
DRAW2
100
AcDbLine
 10
945.5786961493281
 20
-225.8997706184526
 30
0.0
 11
944.7140761493281
 21
-220.5790106184525
 31
0.0
  0
LINE
  5
4989
330
18
100
AcDbEntity
  8
DRAW2
100
AcDbLine
 10
952.3515661493281
 20
-202.4789706184526
 30
0.0
 11
952.3515661493281
 21
-205.5789706184526
 31
0.0
  0
LINE
  5
498A
330
18
100
AcDbEntity
  8
DRAW2
100
AcDbLine
 10
971.4889861493281
 20
-220.5789806184526
 30
0.0
 11
970.6243461493281
 21
-225.8998006184526
 31
0.0
  0
LINE
  5
498B
330
18
100
AcDbEntity
  8
DRAW2
100
AcDbLine
 10
957.379886149328
 20
-202.4789606184526
 30
0.0
 11
958.2459161493282
 21
-203.9789606184526
 31
0.0
  0
LINE
  5
498C
330
18
100
AcDbEntity
  8
DRAW2
100
AcDbLine
 10
957.9572261493282
 20
-202.4789606184526
 30
0.0
 11
958.8232561493283
 21
-203.9789606184526
 31
0.0
  0
LINE
  5
498D
330
18
100
AcDbEntity
  8
DRAW2
100
AcDbLine
 10
963.8515661493281
 20
-202.4789706184526
 30
0.0
 11
963.8515661493281
 21
-205.5789706184526
 31
0.0
  0
ARC
  5
498E
330
18
100
AcDbEntity
  8
DRAW2
100
AcDbCircle
 10
958.1015861493282
 20
-207.0324406184525
 30
0.0
 40
9.553465799999999
100
AcDbArc
 50
72.412149
 51
107.5878799999999
  0
LINE
  5
498F
330
18
100
AcDbEntity
  8
DRAW2
100
AcDbLine
 10
953.1015661493281
 20
-197.4789706184526
 30
0.0
 11
963.1015861493281
 21
-197.4789706184526
 31
0.0
  0
LINE
  5
4990
330
18
100
AcDbEntity
  8
DRAW2
100
AcDbLine
 10
961.1015961493281
 20
-196.0789706184525
 30
0.0
 11
955.1015561493281
 21
-196.0789706184525
 31
0.0
  0
LINE
  5
4991
330
18
100
AcDbEntity
  8
DRAW2
100
AcDbLine
 10
960.6015861493283
 20
-195.5789806184526
 30
0.0
 11
955.6015861493282
 21
-195.5789806184526
 31
0.0
  0
ARC
  5
4992
330
18
100
AcDbEntity
  8
DRAW2
100
AcDbCircle
 10
953.7714561493281
 20
-200.0348506184525
 30
0.0
 40
2.555882899999998
100
AcDbArc
 50
55.61669699999999
 51
115.61505
  0
LINE
  5
4993
330
18
100
AcDbEntity
  8
DRAW2
100
AcDbLine
 10
952.3280661493281
 20
-197.9255506184527
 30
0.0
 11
953.1015661493281
 21
-197.4789706184526
 31
0.0
  0
LINE
  5
4994
330
18
100
AcDbEntity
  8
DRAW2
100
AcDbLine
 10
955.6016161493282
 20
-195.5790306184526
 30
0.0
 11
955.1016161493281
 21
-196.0790106184527
 31
0.0
  0
LINE
  5
4995
330
18
100
AcDbEntity
  8
DRAW3
100
AcDbLine
 10
955.6015861493282
 20
-195.5789806184526
 30
0.0
 11
955.6015861493282
 21
-197.4789606184526
 31
0.0
  0
LINE
  5
4996
330
18
100
AcDbEntity
  8
DRAW2
100
AcDbLine
 10
955.1015561493281
 20
-196.0789706184525
 30
0.0
 11
955.1015561493281
 21
-197.4789606184526
 31
0.0
  0
ARC
  5
4997
330
18
100
AcDbEntity
  8
DRAW2
100
AcDbCircle
 10
962.4317061493282
 20
-200.0348006184526
 30
0.0
 40
2.5558336
100
AcDbArc
 50
64.384519
 51
124.3840999999999
  0
LINE
  5
4998
330
18
100
AcDbEntity
  8
DRAW2
100
AcDbLine
 10
963.1015661493282
 20
-197.4789606184526
 30
0.0
 11
963.8750661493281
 21
-197.9255406184526
 31
0.0
  0
LINE
  5
4999
330
18
100
AcDbEntity
  8
DRAW2
100
AcDbLine
 10
961.1015961493281
 20
-196.0789706184525
 30
0.0
 11
961.1015961493281
 21
-197.4789606184526
 31
0.0
  0
LINE
  5
499A
330
18
100
AcDbEntity
  8
DRAW3
100
AcDbLine
 10
960.6015661493282
 20
-195.5789806184526
 30
0.0
 11
960.6015661493282
 21
-197.4789606184526
 31
0.0
  0
LINE
  5
499B
330
18
100
AcDbEntity
  8
DRAW2
100
AcDbLine
 10
960.6015361493282
 20
-195.5789806184526
 30
0.0
 11
961.1015661493281
 21
-196.0790306184526
 31
0.0
  0
LINE
  5
499C
330
18
100
AcDbEntity
  8
DRAW2
100
AcDbLine
 10
978.1015861493282
 20
-205.5789706184526
 30
0.0
 11
978.1015861493282
 21
-215.5790006184525
 31
0.0
  0
ARC
  5
499E
330
18
100
AcDbEntity
  8
DRAW2
100
AcDbCircle
 10
905.6015861493282
 20
-85.57897061845267
 30
0.0
 40
67.5
100
AcDbArc
 50
8.703885099999999
 51
51.296053
  0
ARC
  5
499F
330
18
100
AcDbEntity
  8
DRAW2
100
AcDbCircle
 10
978.3546061493282
 20
-79.57894061845269
 30
0.0
 40
2.0
100
AcDbArc
 50
89.99998199999998
 51
184.7149399999999
  0
LINE
  5
49A2
330
18
100
AcDbEntity
  8
DRAW2
100
AcDbLine
 10
958.7899361493281
 20
-37.57897061845267
 30
0.0
 11
977.6015961493282
 21
-37.57897061845267
 31
0.0
  0
ARC
  5
49A3
330
18
100
AcDbEntity
  8
DRAW2
100
AcDbCircle
 10
905.6015861493282
 20
-85.57897061845267
 30
0.0
 40
67.5
100
AcDbArc
 50
308.70395
 51
351.29611
  0
ARC
  5
49A4
330
18
100
AcDbEntity
  8
DRAW2
100
AcDbCircle
 10
905.6015861493282
 20
-85.57897061845267
 30
0.0
 40
71.000008
100
AcDbArc
 50
300.0
 51
60.000002
  0
CIRCLE
  5
49A5
330
18
100
AcDbEntity
  8
DRAW2
100
AcDbCircle
 10
967.6015361493282
 20
-85.57897061845267
 30
0.0
 40
7.8000011
  0
CIRCLE
  5
49A6
330
18
100
AcDbEntity
  8
DRAW2
100
AcDbCircle
 10
967.6015361493282
 20
-85.57897061845267
 30
0.0
 40
8.500000999999999
  0
LINE
  5
49A8
330
18
100
AcDbEntity
  8
DRAW2
100
AcDbLine
 10
961.6015561493282
 20
-82.1148906184527
 30
0.0
 11
967.6015361493282
 21
-78.6507806184527
 31
0.0
  0
LINE
  5
49A9
330
18
100
AcDbEntity
  8
DRAW2
100
AcDbLine
 10
967.6015861493281
 20
-78.65081061845268
 30
0.0
 11
973.6015361493281
 21
-82.1148906184527
 31
0.0
  0
ARC
  5
49AA
330
18
100
AcDbEntity
  8
DRAW2
100
AcDbCircle
 10
905.6015861493282
 20
-85.57897061845267
 30
0.0
 40
47.890007
100
AcDbArc
 50
1.794899199999999
 51
28.205101
  0
ARC
  5
49AB
330
18
100
AcDbEntity
  8
DRAW2
100
AcDbCircle
 10
959.5515661493282
 20
-92.18358061845265
 30
0.0
 40
52.450005
100
AcDbArc
 50
138.57533
 51
169.3112399999999
  0
LINE
  5
49AC
330
18
100
AcDbEntity
  8
DRAW2
100
AcDbLine
 10
908.0116461493282
 20
-82.45553061845271
 30
0.0
 11
950.7325661493283
 21
-57.79061061845266
 31
0.0
  0
LINE
  5
49AD
330
18
100
AcDbEntity
  8
DRAW2
100
AcDbLine
 10
916.0477261493282
 20
-81.27996061845266
 30
0.0
 11
952.2325361493281
 21
-60.38863061845268
 31
0.0
  0
LINE
  5
49AE
330
18
100
AcDbEntity
  8
DRAW2
100
AcDbLine
 10
904.1015561493281
 20
-50.59350061845265
 30
0.0
 11
904.1015561493281
 21
-120.5644606184525
 31
0.0
  0
LINE
  5
49AF
330
18
100
AcDbEntity
  8
DRAW2
100
AcDbLine
 10
907.1015561493281
 20
-50.59350061845265
 30
0.0
 11
907.1015561493281
 21
-120.5644606184525
 31
0.0
  0
CIRCLE
  5
49B0
330
18
100
AcDbEntity
  8
DRAW2
100
AcDbCircle
 10
843.6015861493283
 20
-85.57897061845267
 30
0.0
 40
7.8000011
  0
CIRCLE
  5
49B1
330
18
100
AcDbEntity
  8
DRAW2
100
AcDbCircle
 10
843.6015861493283
 20
-85.57897061845267
 30
0.0
 40
8.500000999999999
  0
LINE
  5
49B2
330
18
100
AcDbEntity
  8
DRAW2
100
AcDbLine
 10
837.6015861493282
 20
-82.1148906184527
 30
0.0
 11
843.6015861493283
 21
-78.65081061845268
 31
0.0
  0
LINE
  5
49B3
330
18
100
AcDbEntity
  8
DRAW2
100
AcDbLine
 10
843.6015861493283
 20
-78.65081061845268
 30
0.0
 11
849.6015561493281
 21
-82.11492061845268
 31
0.0
  0
ARC
  5
49B5
330
18
100
AcDbEntity
  8
DRAW2
100
AcDbCircle
 10
905.6015861493282
 20
-85.57897061845267
 30
0.0
 40
47.890007
100
AcDbArc
 50
151.7949
 51
178.2050999999999
  0
LINE
  5
49B6
330
18
100
AcDbEntity
  8
DRAW2
100
AcDbLine
 10
895.1554461493282
 20
-81.27996061845266
 30
0.0
 11
858.9706061493282
 21
-60.38863061845268
 31
0.0
  0
ARC
  5
49B7
330
18
100
AcDbEntity
  8
DRAW2
100
AcDbCircle
 10
851.6515461493282
 20
-92.18358061845265
 30
0.0
 40
52.450005
100
AcDbArc
 50
10.68877
 51
41.42466999999999
  0
LINE
  5
49B8
330
18
100
AcDbEntity
  8
DRAW2
100
AcDbLine
 10
903.191516149328
 20
-82.4554906184527
 30
0.0
 11
860.4706061493281
 21
-57.79058061845268
 31
0.0
  0
ARC
  5
49B9
330
18
100
AcDbEntity
  8
DRAW2
100
AcDbCircle
 10
905.6015861493282
 20
-85.57897061845267
 30
0.0
 40
52.99999599999999
100
AcDbArc
 50
291.5876799999998
 51
68.412322
  0
ARC
  5
49BA
330
18
100
AcDbEntity
  8
DRAW2
100
AcDbCircle
 10
905.6015861493282
 20
-85.57897061845267
 30
0.0
 40
52.99999599999999
100
AcDbArc
 50
111.58768
 51
248.41231
  0
ARC
  5
49BB
330
18
100
AcDbEntity
  8
DRAW2
100
AcDbCircle
 10
905.6015861493282
 20
-85.57897061845267
 30
0.0
 40
71.000008
100
AcDbArc
 50
119.99998
 51
240.00001
  0
ARC
  5
49BC
330
18
100
AcDbEntity
  8
DRAW2
100
AcDbCircle
 10
894.4054161493282
 20
-82.57897061845268
 30
0.0
 40
1.5000001
100
AcDbArc
 50
270.0
 51
60.000002
  0
ARC
  5
49BD
330
18
100
AcDbEntity
  8
DRAW2
100
AcDbCircle
 10
894.4054161493282
 20
-88.57900061845271
 30
0.0
 40
1.5000001
100
AcDbArc
 50
300.0
 51
90.00000300000001
  0
ARC
  5
49BE
330
18
100
AcDbEntity
  8
DRAW2
100
AcDbCircle
 10
851.6515461493282
 20
-78.97439061845273
 30
0.0
 40
52.450005
100
AcDbArc
 50
318.57533
 51
349.3112299999998
  0
ARC
  5
49BF
330
18
100
AcDbEntity
  8
DRAW2
100
AcDbCircle
 10
905.6015861493282
 20
-126.5789806184525
 30
0.0
 40
19.50000199999998
100
AcDbArc
 50
94.41172400000002
 51
180.00001
  0
LINE
  5
49C0
330
18
100
AcDbEntity
  8
DRAW2
100
AcDbLine
 10
903.191516149328
 20
-88.70247061845271
 30
0.0
 11
860.4706061493281
 21
-113.3674206184525
 31
0.0
  0
LINE
  5
49C1
330
18
100
AcDbEntity
  8
DRAW2
100
AcDbLine
 10
871.601616149328
 20
-156.5790106184525
 30
0.0
 11
895.6015861493282
 21
-142.7226306184526
 31
0.0
  0
LINE
  5
49C2
330
18
100
AcDbEntity
  8
DRAW2
100
AcDbLine
 10
871.6015861493282
 20
-166.5790006184526
 30
0.0
 11
939.6015861493282
 21
-166.5790006184526
 31
0.0
  0
ARC
  5
49C3
330
18
100
AcDbEntity
  8
DRAW2
100
AcDbCircle
 10
905.6015861493282
 20
-85.57897061845267
 30
0.0
 40
47.890007
100
AcDbArc
 50
211.79489
 51
246.2424799999999
  0
ARC
  5
49C4
330
18
100
AcDbEntity
  8
DRAW2
100
AcDbCircle
 10
905.6015861493282
 20
-85.57897061845267
 30
0.0
 40
56.500004
100
AcDbArc
 50
189.2860099999998
 51
230.7139299999999
  0
ARC
  5
49C5
330
18
100
AcDbEntity
  8
DRAW2
100
AcDbCircle
 10
905.6015861493282
 20
-85.57897061845267
 30
0.0
 40
67.5
100
AcDbArc
 50
188.70388
 51
231.2960499999999
  0
LINE
  5
49C6
330
18
100
AcDbEntity
  8
DRAW2
100
AcDbLine
 10
886.1015561493282
 20
-126.5789806184525
 30
0.0
 11
886.1015561493282
 21
-145.3206806184525
 31
0.0
  0
CIRCLE
  5
49C7
330
18
100
AcDbEntity
  8
DRAW2
100
AcDbCircle
 10
874.6015561493281
 20
-139.2725306184526
 30
0.0
 40
4.0
  0
CIRCLE
  5
49C8
330
18
100
AcDbEntity
  8
DRAW3
100
AcDbCircle
 10
874.6015561493281
 20
-139.2725306184526
 30
0.0
 40
3.375
  0
CIRCLE
  5
49C9
330
18
100
AcDbEntity
  8
DRAW2
100
AcDbCircle
 10
874.6016461493281
 20
-139.2725606184526
 30
0.0
 40
6.000001
  0
LINE
  5
49CB
330
18
100
AcDbEntity
  8
DRAW2
100
AcDbLine
 10
880.601616149328
 20
-142.7366506184525
 30
0.0
 11
874.601616149328
 21
-146.2007606184525
 31
0.0
  0
CIRCLE
  5
49CC
330
18
100
AcDbEntity
  8
DRAW2
100
AcDbCircle
 10
874.6016461493281
 20
-139.2725606184526
 30
0.0
 40
7.8000011
  0
CIRCLE
  5
49CD
330
18
100
AcDbEntity
  8
DRAW2
100
AcDbCircle
 10
874.6016461493281
 20
-139.2725606184526
 30
0.0
 40
8.500000999999999
  0
LINE
  5
49CE
330
18
100
AcDbEntity
  8
DRAW2
100
AcDbLine
 10
874.6016461493281
 20
-132.3443806184527
 30
0.0
 11
880.601616149328
 21
-135.8084606184526
 31
0.0
  0
LINE
  5
49D0
330
18
100
AcDbEntity
  8
DRAW2
100
AcDbLine
 10
868.6016461493281
 20
-142.7366706184525
 30
0.0
 11
868.6016461493281
 21
-135.8084606184526
 31
0.0
  0
LINE
  5
49D1
330
18
100
AcDbEntity
  8
DRAW2
100
AcDbLine
 10
874.601616149328
 20
-146.2007806184526
 30
0.0
 11
868.6016461493281
 21
-142.7367006184525
 31
0.0
  0
ARC
  5
49D2
330
18
100
AcDbEntity
  8
DRAW2
100
AcDbCircle
 10
868.6015861493283
 20
-149.6648906184526
 30
0.0
 40
3.0000002
100
AcDbArc
 50
0.0
 51
60.00002199999999
  0
ARC
  5
49D3
330
18
100
AcDbEntity
  8
DRAW2
100
AcDbCircle
 10
864.3319661493281
 20
-137.0845706184525
 30
0.0
 40
1.5000001
100
AcDbArc
 50
231.2960499999999
 51
347.9726499999998
  0
ARC
  5
49D4
330
18
100
AcDbEntity
  8
DRAW2
100
AcDbCircle
 10
868.8763961493283
 20
-130.4706506184526
 30
0.0
 40
1.5000001
100
AcDbArc
 50
303.04171
 51
50.713933
  0
ARC
  5
49D5
330
18
100
AcDbEntity
  8
DRAW2
100
AcDbCircle
 10
874.6015261493282
 20
-139.2725306184526
 30
0.0
 40
9.000000999999997
100
AcDbArc
 50
123.0417099999999
 51
167.97266
  0
LINE
  5
49D6
330
18
100
AcDbEntity
  8
DRAW2
100
AcDbLine
 10
868.6016161493281
 20
-135.8084906184526
 30
0.0
 11
874.6016461493281
 21
-132.3443806184527
 31
0.0
  0
LINE
  5
49D7
330
18
100
AcDbEntity
  8
DRAW2
100
AcDbLine
 10
880.601616149328
 20
-135.8084606184526
 30
0.0
 11
880.601616149328
 21
-142.7366706184525
 31
0.0
  0
ARC
  5
49D8
330
18
100
AcDbEntity
  8
DRAW2
100
AcDbCircle
 10
881.1015561493281
 20
-145.3206806184525
 30
0.0
 40
5.000001
100
AcDbArc
 50
300.0
 51
0.0
  0
LINE
  5
49D9
330
18
100
AcDbEntity
  8
DRAW2
100
AcDbLine
 10
894.4054161493282
 20
-84.07897061845266
 30
0.0
 11
852.6227961493281
 21
-84.07897061845266
 31
0.0
  0
LINE
  5
49DA
330
18
100
AcDbEntity
  8
DRAW2
100
AcDbLine
 10
894.4054161493282
 20
-87.07897061845267
 30
0.0
 11
852.6227961493281
 21
-87.07897061845267
 31
0.0
  0
LINE
  5
49DB
330
18
100
AcDbEntity
  8
DRAW2
100
AcDbLine
 10
843.6015861493283
 20
-92.50719061845268
 30
0.0
 11
837.6015861493282
 21
-89.04311061845261
 31
0.0
  0
LINE
  5
49DC
330
18
100
AcDbEntity
  8
DRAW2
100
AcDbLine
 10
849.6015561493281
 20
-89.04308061845268
 30
0.0
 11
843.6015861493283
 21
-92.50716061845265
 31
0.0
  0
CIRCLE
  5
49DD
330
18
100
AcDbEntity
  8
DRAW2
100
AcDbCircle
 10
843.6015861493283
 20
-85.57897061845267
 30
0.0
 40
6.000001
  0
ARC
  5
49DE
330
18
100
AcDbEntity
  8
DRAW2
100
AcDbCircle
 10
843.6015861493283
 20
-85.57897061845267
 30
0.0
 40
9.000000999999997
100
AcDbArc
 50
252.0272799999999
 51
296.9582299999999
  0
ARC
  5
49DF
330
18
100
AcDbEntity
  8
DRAW2
100
AcDbCircle
 10
840.3616261493281
 20
-95.56664061845276
 30
0.0
 40
1.5000001
100
AcDbArc
 50
72.02728900000002
 51
188.70388
  0
ARC
  5
49E0
330
18
100
AcDbEntity
  8
DRAW2
100
AcDbCircle
 10
848.3616261493281
 20
-94.9380106184526
 30
0.0
 40
1.5000001
100
AcDbArc
 50
9.286005899999999
 51
116.95823
  0
CIRCLE
  5
49E1
330
18
100
AcDbEntity
  8
DRAW3
100
AcDbCircle
 10
843.6016161493281
 20
-85.57897061845267
 30
0.0
 40
3.375
  0
CIRCLE
  5
49E2
330
18
100
AcDbEntity
  8
DRAW2
100
AcDbCircle
 10
843.6016161493281
 20
-85.57897061845267
 30
0.0
 40
4.0
  0
LINE
  5
49E3
330
18
100
AcDbEntity
  8
DRAW2
100
AcDbLine
 10
837.6015561493282
 20
-89.04308061845268
 30
0.0
 11
837.6015561493282
 21
-82.11486061845267
 31
0.0
  0
LINE
  5
49E4
330
18
100
AcDbEntity
  8
DRAW2
100
AcDbLine
 10
849.6015861493281
 20
-82.11486061845267
 30
0.0
 11
849.6015861493281
 21
-89.04308061845268
 31
0.0
  0
ARC
  5
49E5
330
18
100
AcDbEntity
  8
DRAW2
100
AcDbCircle
 10
905.6015861493282
 20
-85.57897061845267
 30
0.0
 40
47.890007
100
AcDbArc
 50
181.7949
 51
208.2051
  0
LINE
  5
49E6
330
18
100
AcDbEntity
  8
DRAW2
100
AcDbLine
 10
895.1554461493282
 20
-89.87807061845273
 30
0.0
 11
858.9706361493281
 21
-110.7694006184526
 31
0.0
  0
ARC
  5
49E7
330
18
100
AcDbEntity
  8
DRAW2
100
AcDbCircle
 10
905.6015861493282
 20
-85.57897061845267
 30
0.0
 40
56.500004
100
AcDbArc
 50
309.28607
 51
350.7139899999998
  0
ARC
  5
49E8
330
18
100
AcDbEntity
  8
DRAW2
100
AcDbCircle
 10
905.6015861493282
 20
-85.57897061845267
 30
0.0
 40
47.890007
100
AcDbArc
 50
293.7575299999998
 51
328.2051
  0
LINE
  5
49E9
330
18
100
AcDbEntity
  8
DRAW2
100
AcDbLine
 10
925.101586149328
 20
-126.5789806184525
 30
0.0
 11
925.101586149328
 21
-145.3206806184525
 31
0.0
  0
CIRCLE
  5
49EA
330
18
100
AcDbEntity
  8
DRAW2
100
AcDbCircle
 10
936.6015561493282
 20
-139.2725606184526
 30
0.0
 40
4.0
  0
CIRCLE
  5
49EB
330
18
100
AcDbEntity
  8
DRAW3
100
AcDbCircle
 10
936.6015561493282
 20
-139.2725606184526
 30
0.0
 40
3.375
  0
CIRCLE
  5
49EC
330
18
100
AcDbEntity
  8
DRAW2
100
AcDbCircle
 10
936.6015861493282
 20
-139.2725606184526
 30
0.0
 40
6.000001
  0
LINE
  5
49ED
330
18
100
AcDbEntity
  8
DRAW2
100
AcDbLine
 10
936.6015561493282
 20
-146.2007606184525
 30
0.0
 11
930.601616149328
 21
-142.7366806184527
 31
0.0
  0
LINE
  5
49EE
330
18
100
AcDbEntity
  8
DRAW2
100
AcDbLine
 10
939.6015561493282
 20
-156.5790006184526
 30
0.0
 11
915.601616149328
 21
-142.7226306184526
 31
0.0
  0
CIRCLE
  5
49EF
330
18
100
AcDbEntity
  8
DRAW2
100
AcDbCircle
 10
936.6015861493282
 20
-139.2725606184526
 30
0.0
 40
7.8000011
  0
CIRCLE
  5
49F0
330
18
100
AcDbEntity
  8
DRAW2
100
AcDbCircle
 10
936.6015861493282
 20
-139.2725606184526
 30
0.0
 40
8.500000999999999
  0
LINE
  5
49F2
330
18
100
AcDbEntity
  8
DRAW2
100
AcDbLine
 10
930.6015861493282
 20
-135.8084806184525
 30
0.0
 11
936.6015561493282
 21
-132.3444006184526
 31
0.0
  0
ARC
  5
49F4
330
18
100
AcDbEntity
  8
DRAW2
100
AcDbCircle
 10
918.1015861493282
 20
-138.3924606184525
 30
0.0
 40
5.000001
100
AcDbArc
 50
179.9999899999999
 51
240.00001
  0
ARC
  5
49F5
330
18
100
AcDbEntity
  8
DRAW2
100
AcDbCircle
 10
893.1015861493282
 20
-138.3924606184525
 30
0.0
 40
5.000001
100
AcDbArc
 50
300.0
 51
0.0
  0
LINE
  5
49F6
330
18
100
AcDbEntity
  8
DRAW2
100
AcDbLine
 10
930.6015861493282
 20
-142.7366706184525
 30
0.0
 11
930.6015861493282
 21
-135.8084506184525
 31
0.0
  0
ARC
  5
49F7
330
18
100
AcDbEntity
  8
DRAW2
100
AcDbCircle
 10
930.1015561493281
 20
-145.3206806184525
 30
0.0
 40
5.000001
100
AcDbArc
 50
179.9999899999999
 51
240.00001
  0
LINE
  5
49F8
330
18
100
AcDbEntity
  8
DRAW2
100
AcDbLine
 10
942.6015561493281
 20
-135.8084506184525
 30
0.0
 11
942.6015561493281
 21
-142.7366706184525
 31
0.0
  0
LINE
  5
49F9
330
18
100
AcDbEntity
  8
DRAW2
100
AcDbLine
 10
942.6015561493281
 20
-142.7367006184525
 30
0.0
 11
936.6015861493282
 21
-146.2007806184526
 31
0.0
  0
ARC
  5
49FA
330
18
100
AcDbEntity
  8
DRAW2
100
AcDbCircle
 10
942.6015561493281
 20
-149.6648606184526
 30
0.0
 40
3.0000002
100
AcDbArc
 50
119.9999999999999
 51
180.00001
  0
ARC
  5
49FB
330
18
100
AcDbEntity
  8
DRAW2
100
AcDbCircle
 10
946.8711461493281
 20
-137.0845706184525
 30
0.0
 40
1.5000001
100
AcDbArc
 50
192.0273399999999
 51
308.70395
  0
ARC
  5
49FC
330
18
100
AcDbEntity
  8
DRAW2
100
AcDbCircle
 10
936.6016161493281
 20
-139.2725306184526
 30
0.0
 40
9.000000999999997
100
AcDbArc
 50
12.027349
 51
56.95829
  0
ARC
  5
49FD
330
18
100
AcDbEntity
  8
DRAW2
100
AcDbCircle
 10
942.3267461493281
 20
-130.4706506184526
 30
0.0
 40
1.5000001
100
AcDbArc
 50
129.28607
 51
236.9582799999999
  0
LINE
  5
49FE
330
18
100
AcDbEntity
  8
DRAW2
100
AcDbLine
 10
936.6016161493281
 20
-132.3443806184527
 30
0.0
 11
942.6015561493281
 21
-135.8084606184526
 31
0.0
  0
LINE
  5
49FF
330
18
100
AcDbEntity
  8
DRAW2
100
AcDbLine
 10
916.797726149328
 20
-84.07897061845266
 30
0.0
 11
958.580326149328
 21
-84.07897061845266
 31
0.0
  0
LINE
  5
4A00
330
18
100
AcDbEntity
  8
DRAW2
100
AcDbLine
 10
916.797726149328
 20
-87.07897061845267
 30
0.0
 11
958.580326149328
 21
-87.07897061845267
 31
0.0
  0
LINE
  5
4A01
330
18
100
AcDbEntity
  8
DRAW2
100
AcDbLine
 10
916.0477561493282
 20
-89.8780406184527
 30
0.0
 11
952.2325361493281
 21
-110.7693406184525
 31
0.0
  0
LINE
  5
4A02
330
18
100
AcDbEntity
  8
DRAW2
100
AcDbLine
 10
908.0116161493283
 20
-88.70247061845271
 30
0.0
 11
950.7325361493281
 21
-113.3674206184525
 31
0.0
  0
ARC
  5
4A03
330
18
100
AcDbEntity
  8
DRAW2
100
AcDbCircle
 10
959.5515661493282
 20
-78.97439061845273
 30
0.0
 40
52.450005
100
AcDbArc
 50
190.68876
 51
221.42467
  0
ARC
  5
4A04
330
18
100
AcDbEntity
  8
DRAW2
100
AcDbCircle
 10
905.6015861493282
 20
-126.5789806184525
 30
0.0
 40
19.50000199999998
100
AcDbArc
 50
0.0
 51
85.588274
  0
LINE
  5
4A05
330
18
100
AcDbEntity
  8
DRAW2
100
AcDbLine
 10
905.601556149328
 20
-126.5790106184525
 30
0.0
 11
904.1015561493281
 21
-120.5644706184525
 31
0.0
  0
LINE
  5
4A06
330
18
100
AcDbEntity
  8
DRAW2
100
AcDbLine
 10
905.601556149328
 20
-126.5790006184525
 30
0.0
 11
907.1015561493281
 21
-120.5644706184525
 31
0.0
  0
ARC
  5
4A07
330
18
100
AcDbEntity
  8
DRAW2
100
AcDbCircle
 10
916.797726149328
 20
-88.57900061845271
 30
0.0
 40
1.5000001
100
AcDbArc
 50
90.00000300000001
 51
240.00001
  0
ARC
  5
4A08
330
18
100
AcDbEntity
  8
DRAW2
100
AcDbCircle
 10
916.797726149328
 20
-82.57897061845268
 30
0.0
 40
1.5000001
100
AcDbArc
 50
119.9999999999999
 51
270.0
  0
ARC
  5
4A09
330
18
100
AcDbEntity
  8
DRAW2
100
AcDbCircle
 10
905.6015861493282
 20
-85.57897061845267
 30
0.0
 40
47.890007
100
AcDbArc
 50
331.7949
 51
358.2051
  0
LINE
  5
4A0B
330
18
100
AcDbEntity
  8
DRAW2
100
AcDbLine
 10
970.6015661493282
 20
-114.1446706184526
 30
0.0
 11
970.6015661493282
 21
-125.5790106184525
 31
0.0
  0
LINE
  5
4A0C
330
18
100
AcDbEntity
  8
DRAW2
100
AcDbLine
 10
962.8466761493282
 20
-127.5790306184526
 30
0.0
 11
968.6015961493282
 21
-127.5790306184526
 31
0.0
  0
ARC
  5
4A0D
330
18
100
AcDbEntity
  8
DRAW2
100
AcDbCircle
 10
968.6015561493283
 20
-125.5790306184526
 30
0.0
 40
2.0
100
AcDbArc
 50
270.00002
 51
0.0
  0
LINE
  5
4A0E
330
18
100
AcDbEntity
  8
DRAW2
100
AcDbLine
 10
973.6015361493281
 20
-89.04311061845261
 30
0.0
 11
967.6015561493283
 21
-92.50719061845268
 31
0.0
  0
LINE
  5
4A0F
330
18
100
AcDbEntity
  8
DRAW2
100
AcDbLine
 10
967.6015561493283
 20
-92.50716061845265
 30
0.0
 11
961.6015861493281
 21
-89.04308061845268
 31
0.0
  0
CIRCLE
  5
4A10
330
18
100
AcDbEntity
  8
DRAW2
100
AcDbCircle
 10
967.6015361493282
 20
-85.57897061845267
 30
0.0
 40
6.000001
  0
ARC
  5
4A11
330
18
100
AcDbEntity
  8
DRAW2
100
AcDbCircle
 10
967.6015361493282
 20
-85.57897061845267
 30
0.0
 40
9.000000999999997
100
AcDbArc
 50
243.04177
 51
287.97271
  0
ARC
  5
4A12
330
18
100
AcDbEntity
  8
DRAW2
100
AcDbCircle
 10
962.841496149328
 20
-94.9380106184526
 30
0.0
 40
1.5000001
100
AcDbArc
 50
63.04177199999999
 51
170.71399
  0
ARC
  5
4A13
330
18
100
AcDbEntity
  8
DRAW2
100
AcDbCircle
 10
970.8414861493283
 20
-95.56664061845276
 30
0.0
 40
1.5000001
100
AcDbArc
 50
351.29611
 51
107.9727199999999
  0
CIRCLE
  5
4A14
330
18
100
AcDbEntity
  8
DRAW3
100
AcDbCircle
 10
967.6015661493281
 20
-85.57903061845269
 30
0.0
 40
3.375
  0
CIRCLE
  5
4A15
330
18
100
AcDbEntity
  8
DRAW2
100
AcDbCircle
 10
967.6015661493281
 20
-85.57903061845269
 30
0.0
 40
4.0
  0
LINE
  5
4A16
330
18
100
AcDbEntity
  8
DRAW2
100
AcDbLine
 10
961.6015561493282
 20
-89.04308061845268
 30
0.0
 11
961.6015561493282
 21
-82.11486061845267
 31
0.0
  0
LINE
  5
4A17
330
18
100
AcDbEntity
  8
DRAW2
100
AcDbLine
 10
973.6015361493281
 20
-82.11486061845267
 30
0.0
 11
973.6015361493281
 21
-89.04308061845268
 31
0.0
  0
ARC
  5
4A19
330
18
100
AcDbEntity
  8
DRAW2
100
AcDbCircle
 10
905.6015861493282
 20
-44.57897061845267
 30
0.0
 40
19.50000199999998
100
AcDbArc
 50
179.9999899999999
 51
265.58827
  0
LINE
  5
4A1A
330
18
100
AcDbEntity
  8
DRAW2
100
AcDbLine
 10
871.601616149328
 20
-14.57900061845265
 30
0.0
 11
895.6015861493282
 21
-28.43541061845269
 31
0.0
  0
LINE
  5
4A1B
330
18
100
AcDbEntity
  8
DRAW2
100
AcDbLine
 10
871.6015861493282
 20
-4.579000618452653
 30
0.0
 11
939.6015861493282
 21
-4.579000618452653
 31
0.0
  0
CIRCLE
  5
4A1C
330
18
100
AcDbEntity
  8
DRAW2
100
AcDbCircle
 10
874.601616149328
 20
-31.88540061845265
 30
0.0
 40
4.0
  0
CIRCLE
  5
4A1D
330
18
100
AcDbEntity
  8
DRAW3
100
AcDbCircle
 10
874.601616149328
 20
-31.88540061845265
 30
0.0
 40
3.375
  0
CIRCLE
  5
4A1E
330
18
100
AcDbEntity
  8
DRAW2
100
AcDbCircle
 10
874.601616149328
 20
-31.88540061845265
 30
0.0
 40
7.8000011
  0
CIRCLE
  5
4A1F
330
18
100
AcDbEntity
  8
DRAW2
100
AcDbCircle
 10
874.601616149328
 20
-31.88540061845265
 30
0.0
 40
8.500000999999999
  0
CIRCLE
  5
4A20
330
18
100
AcDbEntity
  8
DRAW2
100
AcDbCircle
 10
874.601616149328
 20
-31.88540061845265
 30
0.0
 40
6.000001
  0
LINE
  5
4A22
330
18
100
AcDbEntity
  8
DRAW2
100
AcDbLine
 10
868.6015861493283
 20
-35.34951061845265
 30
0.0
 11
868.6015861493283
 21
-28.42132061845268
 31
0.0
  0
LINE
  5
4A23
330
18
100
AcDbEntity
  8
DRAW2
100
AcDbLine
 10
880.601616149328
 20
-28.42132061845268
 30
0.0
 11
880.601616149328
 21
-35.34951061845265
 31
0.0
  0
LINE
  5
4A24
330
18
100
AcDbEntity
  8
DRAW2
100
AcDbLine
 10
886.1015561493282
 20
-44.57897061845267
 30
0.0
 11
886.1015561493282
 21
-25.83733061845271
 31
0.0
  0
ARC
  5
4A26
330
18
100
AcDbEntity
  8
DRAW2
100
AcDbCircle
 10
828.1015861493282
 20
-31.07894061845269
 30
0.0
 40
1.0
100
AcDbArc
 50
0.0
 51
90.0
  0
ARC
  5
4A27
330
18
100
AcDbEntity
  8
DRAW2
100
AcDbCircle
 10
818.1015861493282
 20
-31.07894061845269
 30
0.0
 40
1.0
100
AcDbArc
 50
90.0
 51
180.0
  0
ARC
  5
4A28
330
18
100
AcDbEntity
  8
DRAW2
100
AcDbCircle
 10
905.6015861493282
 20
-85.57897061845267
 30
0.0
 40
56.500004
100
AcDbArc
 50
129.28607
 51
170.71399
  0
ARC
  5
4A29
330
18
100
AcDbEntity
  8
DRAW2
100
AcDbCircle
 10
905.6015861493282
 20
-85.57897061845267
 30
0.0
 40
67.5
100
AcDbArc
 50
128.7039499999998
 51
171.29612
  0
ARC
  5
4A2A
330
18
100
AcDbEntity
  8
DRAW2
100
AcDbCircle
 10
815.0689561393267
 20
-57.57894061845269
 30
0.0
 40
16.24081062144512
100
AcDbArc
 50
347.0172251576913
 51
12.98277484230863
  0
LINE
  5
4A2B
330
18
100
AcDbEntity
  8
DRAW2
100
AcDbLine
 10
832.3241084381924
 20
-50.8358319399797
 30
0.0
 11
832.3241084381924
 21
-64.32204929692568
 31
0.0
  0
LINE
  5
4A2C
330
18
100
AcDbEntity
  8
DRAW2
100
AcDbLine
 10
833.8915861493282
 20
-64.27306561845267
 30
0.0
 11
833.8915861493282
 21
-50.8848156184527
 31
0.0
  0
LINE
  5
4A2D
330
18
100
AcDbEntity
  8
DRAW2
100
AcDbLine
 10
834.6015861493281
 20
-47.57894061845269
 30
0.0
 11
834.6015861493281
 21
-67.57897061845267
 31
0.0
  0
ARC
  5
4A2E
330
18
100
AcDbEntity
  8
DRAW2
100
AcDbCircle
 10
836.6016161493281
 20
-67.57897061845267
 30
0.0
 40
2.0
100
AcDbArc
 50
179.9999799999999
 51
231.82121
  0
LINE
  5
4A2F
330
18
100
AcDbEntity
  8
DRAW2
100
AcDbLine
 10
830.8946134603242
 20
-61.22757049828431
 30
0.0
 11
830.8946134603242
 21
-63.11584161070459
 31
0.0
  0
LINE
  5
4A30
330
18
100
AcDbEntity
  8
DRAW3
100
AcDbLine
 10
832.3241084381924
 20
-64.32204929692568
 30
0.0
 11
833.8915861493282
 21
-63.41706561845268
 31
0.0
  0
LINE
  5
4A31
330
18
100
AcDbEntity
  8
DRAW2
100
AcDbLine
 10
832.3241084381924
 20
-64.32204929692568
 30
0.0
 11
834.6015861493281
 21
-64.2508781184527
 31
0.0
  0
LINE
  5
4A32
330
18
100
AcDbEntity
  8
DRAW3
100
AcDbLine
 10
833.8915861493282
 20
-63.41706561845268
 30
0.0
 11
834.6015861493281
 21
-63.39487811845265
 31
0.0
  0
LINE
  5
4A33
330
18
100
AcDbEntity
  8
DRAW2
100
AcDbLine
 10
830.8946134603242
 20
-66.76447149053621
 30
0.0
 11
830.8946134603242
 21
-66.82894061845269
 31
0.0
  0
ARC
  5
4A34
330
18
100
AcDbEntity
  8
DRAW2
100
AcDbCircle
 10
827.0446730211128
 20
-64.92559321783153
 30
0.0
 40
4.266557709360186
100
AcDbArc
 50
334.4690811414818
 51
25.53091885851397
  0
LINE
  5
4A35
330
18
100
AcDbEntity
  8
DRAW2
100
AcDbLine
 10
832.3241084381924
 20
-64.32204929692568
 30
0.0
 11
830.8946134603242
 21
-66.82894061845269
 31
0.0
  0
ARC
  5
4A36
330
18
100
AcDbEntity
  8
DRAW2
100
AcDbCircle
 10
843.6015861493283
 20
-85.57897061845267
 30
0.0
 40
9.000000999999997
100
AcDbArc
 50
63.04177199999999
 51
107.9727199999999
  0
ARC
  5
4A37
330
18
100
AcDbEntity
  8
DRAW2
100
AcDbCircle
 10
840.3616261493281
 20
-75.59136061845265
 30
0.0
 40
1.5000001
100
AcDbArc
 50
171.29612
 51
287.97271
  0
ARC
  5
4A38
330
18
100
AcDbEntity
  8
DRAW2
100
AcDbCircle
 10
834.1290861493282
 20
-70.7233206184527
 30
0.0
 40
2.0
100
AcDbArc
 50
348.25782
 51
51.821905
  0
ARC
  5
4A39
330
18
100
AcDbEntity
  8
DRAW2
100
AcDbCircle
 10
848.3616261493281
 20
-76.21996061845266
 30
0.0
 40
1.5000001
100
AcDbArc
 50
243.04177
 51
350.7139899999998
  0
ARC
  5
4A3A
330
18
100
AcDbEntity
  8
DRAW2
100
AcDbCircle
 10
836.6016161493281
 20
-47.57900061845265
 30
0.0
 40
2.0
100
AcDbArc
 50
89.99998199999998
 51
179.99996
  0
LINE
  5
4A3B
330
18
100
AcDbEntity
  8
DRAW2
100
AcDbLine
 10
831.1015861493283
 20
-40.57894061845269
 30
0.0
 11
831.1015861493283
 21
-44.57894061845268
 31
0.0
  0
LINE
  5
4A3C
330
18
100
AcDbEntity
  8
DRAW2
100
AcDbLine
 10
815.1015861493283
 20
-40.57894061845269
 30
0.0
 11
815.1015861493283
 21
-44.57894061845268
 31
0.0
  0
LINE
  5
4A3D
330
18
100
AcDbEntity
  8
DRAW2
100
AcDbLine
 10
830.1015861493281
 20
-45.57894061845269
 30
0.0
 11
816.1015861493282
 21
-45.57894061845269
 31
0.0
  0
ARC
  5
4A3E
330
18
100
AcDbEntity
  8
DRAW2
100
AcDbCircle
 10
823.1015861493283
 20
-43.84020499981153
 30
0.0
 40
7.099207522960409
100
AcDbArc
 50
224.7428329428409
 51
315.2571670571589
  0
LINE
  5
4A3F
330
18
100
AcDbEntity
  8
DRAW2
100
AcDbLine
 10
817.6015861493281
 20
-45.57894061845269
 30
0.0
 11
817.6015861493281
 21
-46.82894061845269
 31
0.0
  0
ARC
  5
4A40
330
18
100
AcDbEntity
  8
DRAW2
100
AcDbCircle
 10
816.1015861493282
 20
-44.57894061845268
 30
0.0
 40
1.0
100
AcDbArc
 50
180.0
 51
270.0
  0
ARC
  5
4A41
330
18
100
AcDbEntity
  8
DRAW2
100
AcDbCircle
 10
816.9937974890034
 20
-49.89340974636917
 30
0.0
 40
1.5
100
AcDbArc
 50
44.74283294284098
 51
90.0
  0
ARC
  5
4A42
330
18
100
AcDbEntity
  8
DRAW2
100
AcDbCircle
 10
816.1015861493282
 20
-46.82894061845269
 30
0.0
 40
1.5
100
AcDbArc
 50
270.0
 51
0.0
  0
ARC
  5
4A43
330
18
100
AcDbEntity
  8
DRAW2
100
AcDbCircle
 10
830.1015861493281
 20
-44.57894061845268
 30
0.0
 40
1.0
100
AcDbArc
 50
270.0
 51
0.0
  0
LINE
  5
4A44
330
18
100
AcDbEntity
  8
DRAW2
100
AcDbLine
 10
828.6015861493282
 20
-45.57894061845269
 30
0.0
 11
828.6015861493282
 21
-46.82894061845269
 31
0.0
  0
ARC
  5
4A45
330
18
100
AcDbEntity
  8
DRAW2
100
AcDbCircle
 10
829.2093748096529
 20
-49.89340974636911
 30
0.0
 40
1.5
100
AcDbArc
 50
90.0
 51
135.257167057159
  0
LINE
  5
4A46
330
18
100
AcDbEntity
  8
DRAW2
100
AcDbLine
 10
830.8946134603242
 20
-48.39340974636917
 30
0.0
 11
830.8946134603242
 21
-48.32894061845269
 31
0.0
  0
LINE
  5
4A47
330
18
100
AcDbEntity
  8
DRAW2
100
AcDbLine
 10
830.8946134603242
 20
-53.93031073862108
 30
0.0
 11
830.8946134603242
 21
-52.04203962620079
 31
0.0
  0
LINE
  5
4A48
330
18
100
AcDbEntity
  8
DRAW2
100
AcDbLine
 10
830.8946134603242
 20
-48.39340974636917
 30
0.0
 11
829.2093748096529
 21
-48.39340974636917
 31
0.0
  0
ARC
  5
4A49
330
18
100
AcDbEntity
  8
DRAW2
100
AcDbCircle
 10
827.0446730211128
 20
-50.23228801907385
 30
0.0
 40
4.266557709360186
100
AcDbArc
 50
334.4690811414808
 51
25.53091885852309
  0
LINE
  5
4A4A
330
18
100
AcDbEntity
  8
DRAW2
100
AcDbLine
 10
830.8946134603242
 20
-48.32894061845269
 30
0.0
 11
830.1015861493281
 21
-48.32894061845269
 31
0.0
  0
LINE
  5
4A4B
330
18
100
AcDbEntity
  8
DRAW2
100
AcDbLine
 10
832.3241084381924
 20
-50.8358319399797
 30
0.0
 11
830.8946134603242
 21
-48.32894061845269
 31
0.0
  0
LINE
  5
4A4C
330
18
100
AcDbEntity
  8
DRAW3
100
AcDbLine
 10
832.3241084381924
 20
-50.8358319399797
 30
0.0
 11
833.8915861493282
 21
-51.7408156184527
 31
0.0
  0
LINE
  5
4A4D
330
18
100
AcDbEntity
  8
DRAW3
100
AcDbLine
 10
833.8915861493282
 20
-51.7408156184527
 30
0.0
 11
834.6015861493281
 21
-51.76300311845273
 31
0.0
  0
LINE
  5
4A4E
330
18
100
AcDbEntity
  8
DRAW2
100
AcDbLine
 10
832.3241084381924
 20
-50.8358319399797
 30
0.0
 11
834.6015861493281
 21
-50.90700311845267
 31
0.0
  0
ARC
  5
4A4F
330
18
100
AcDbEntity
  8
DRAW2
100
AcDbCircle
 10
830.1015861493281
 20
-46.82894061845269
 30
0.0
 40
1.5
100
AcDbArc
 50
180.0
 51
270.0
  0
LINE
  5
4A50
330
18
100
AcDbEntity
  8
DRAW2
100
AcDbLine
 10
830.1015861493281
 20
-39.57894061845269
 30
0.0
 11
816.1015861493282
 21
-39.57894061845269
 31
0.0
  0
ARC
  5
4A51
330
18
100
AcDbEntity
  8
DRAW2
100
AcDbCircle
 10
816.1015861493282
 20
-40.57894061845269
 30
0.0
 40
1.0
100
AcDbArc
 50
90.0
 51
180.0
  0
LINE
  5
4A52
330
18
100
AcDbEntity
  8
DRAW2
100
AcDbLine
 10
817.1015861493282
 20
-31.07894061845269
 30
0.0
 11
817.1015861493282
 21
-39.57894061845269
 31
0.0
  0
ARC
  5
4A53
330
18
100
AcDbEntity
  8
DRAW2
100
AcDbCircle
 10
830.1015861493281
 20
-40.57894061845269
 30
0.0
 40
1.0
100
AcDbArc
 50
0.0
 51
90.0
  0
LINE
  5
4A54
330
18
100
AcDbEntity
  8
DRAW2
100
AcDbLine
 10
829.1015861493281
 20
-31.07894061845269
 30
0.0
 11
829.1015861493281
 21
-39.57894061845269
 31
0.0
  0
LINE
  5
4A55
330
18
100
AcDbEntity
  8
DRAW2
100
AcDbLine
 10
836.6016161493281
 20
-45.57900061845265
 30
0.0
 11
845.8939761493281
 21
-45.57900061845265
 31
0.0
  0
ARC
  5
4A56
330
18
100
AcDbEntity
  8
DRAW2
100
AcDbCircle
 10
845.8939761493281
 20
-43.57894061845269
 30
0.0
 40
2.0
100
AcDbArc
 50
270.00002
 51
324.87627
  0
ARC
  5
4A57
330
18
100
AcDbEntity
  8
DRAW2
100
AcDbCircle
 10
905.6015861493282
 20
-85.57897061845267
 30
0.0
 40
47.890007
100
AcDbArc
 50
114.02801
 51
148.20511
  0
LINE
  5
4A58
330
18
100
AcDbEntity
  8
DRAW2
100
AcDbLine
 10
880.601616149328
 20
-35.34951061845265
 30
0.0
 11
874.601616149328
 21
-38.81362061845265
 31
0.0
  0
ARC
  5
4A59
330
18
100
AcDbEntity
  8
DRAW2
100
AcDbCircle
 10
864.3319661493281
 20
-34.07345061845268
 30
0.0
 40
1.5000001
100
AcDbArc
 50
12.027349
 51
128.7039499999998
  0
ARC
  5
4A5A
330
18
100
AcDbEntity
  8
DRAW2
100
AcDbCircle
 10
874.6015261493282
 20
-31.88543061845269
 30
0.0
 40
9.000000999999997
100
AcDbArc
 50
192.0273399999999
 51
236.9582899999999
  0
ARC
  5
4A5B
330
18
100
AcDbEntity
  8
DRAW2
100
AcDbCircle
 10
868.8763961493283
 20
-40.68731061845267
 30
0.0
 40
1.5000001
100
AcDbArc
 50
309.28607
 51
56.95829
  0
LINE
  5
4A5C
330
18
100
AcDbEntity
  8
DRAW2
100
AcDbLine
 10
874.601616149328
 20
-38.81362061845265
 30
0.0
 11
868.6016461493281
 21
-35.34954061845269
 31
0.0
  0
LINE
  5
4A5D
330
18
100
AcDbEntity
  8
DRAW2
100
AcDbLine
 10
827.1015861493282
 20
-28.57894061845269
 30
0.0
 11
819.1015861493282
 21
-28.57894061845269
 31
0.0
  0
ARC
  5
4A5E
330
18
100
AcDbEntity
  8
DRAW2
100
AcDbCircle
 10
819.1015861493282
 20
-29.57894061845269
 30
0.0
 40
1.0
100
AcDbArc
 50
90.0
 51
180.0
  0
LINE
  5
4A5F
330
18
100
AcDbEntity
  8
DRAW2
100
AcDbLine
 10
818.1015861493282
 20
-29.57894061845269
 30
0.0
 11
818.1015861493282
 21
-30.07894061845269
 31
0.0
  0
ARC
  5
4A60
330
18
100
AcDbEntity
  8
DRAW2
100
AcDbCircle
 10
827.1015861493282
 20
-29.57894061845269
 30
0.0
 40
1.0
100
AcDbArc
 50
0.0
 51
90.0
  0
LINE
  5
4A61
330
18
100
AcDbEntity
  8
DRAW2
100
AcDbLine
 10
828.1015861493282
 20
-29.57894061845269
 30
0.0
 11
828.1015861493282
 21
-30.07894061845269
 31
0.0
  0
LINE
  5
4A62
330
18
100
AcDbEntity
  8
DRAW2
100
AcDbLine
 10
874.6016461493281
 20
-24.95727061845269
 30
0.0
 11
880.601616149328
 21
-28.42135061845266
 31
0.0
  0
ARC
  5
4A63
330
18
100
AcDbEntity
  8
DRAW2
100
AcDbCircle
 10
868.6015861493283
 20
-21.49306061845265
 30
0.0
 40
3.0000002
100
AcDbArc
 50
299.9999799999999
 51
0.0
  0
LINE
  5
4A64
330
18
100
AcDbEntity
  8
DRAW2
100
AcDbLine
 10
868.6016161493281
 20
-28.42135061845266
 30
0.0
 11
874.6016461493281
 21
-24.95723061845268
 31
0.0
  0
ARC
  5
4A65
330
18
100
AcDbEntity
  8
DRAW2
100
AcDbCircle
 10
881.1015561493281
 20
-25.83733061845271
 30
0.0
 40
5.000001
100
AcDbArc
 50
0.0
 51
60.000002
  0
LINE
  5
4A66
330
18
100
AcDbEntity
  8
DRAW2
100
AcDbLine
 10
942.6016161493281
 20
-28.42135061845266
 30
0.0
 11
942.6016161493281
 21
-35.34957061845267
 31
0.0
  0
ARC
  5
4A67
330
18
100
AcDbEntity
  8
DRAW2
100
AcDbCircle
 10
918.1015861493282
 20
-32.7654906184527
 30
0.0
 40
5.000001
100
AcDbArc
 50
119.9999999999999
 51
180.00001
  0
ARC
  5
4A68
330
18
100
AcDbEntity
  8
DRAW2
100
AcDbCircle
 10
893.1015861493282
 20
-32.7654906184527
 30
0.0
 40
5.000001
100
AcDbArc
 50
0.0
 51
60.000002
  0
LINE
  5
4A69
330
18
100
AcDbEntity
  8
DRAW2
100
AcDbLine
 10
930.601616149328
 20
-35.34957061845267
 30
0.0
 11
930.601616149328
 21
-28.42135061845266
 31
0.0
  0
LINE
  5
4A6A
330
18
100
AcDbEntity
  8
DRAW2
100
AcDbLine
 10
925.101586149328
 20
-44.57897061845267
 30
0.0
 11
925.101586149328
 21
-25.83733061845271
 31
0.0
  0
CIRCLE
  5
4A6B
330
18
100
AcDbEntity
  8
DRAW3
100
AcDbCircle
 10
936.6016161493281
 20
-31.88543061845269
 30
0.0
 40
3.375
  0
CIRCLE
  5
4A6C
330
18
100
AcDbEntity
  8
DRAW2
100
AcDbCircle
 10
936.6016161493281
 20
-31.88543061845269
 30
0.0
 40
4.0
  0
CIRCLE
  5
4A6D
330
18
100
AcDbEntity
  8
DRAW2
100
AcDbCircle
 10
936.6016161493281
 20
-31.88543061845269
 30
0.0
 40
7.8000011
  0
CIRCLE
  5
4A6E
330
18
100
AcDbEntity
  8
DRAW2
100
AcDbCircle
 10
936.6016161493281
 20
-31.88543061845269
 30
0.0
 40
8.500000999999999
  0
CIRCLE
  5
4A6F
330
18
100
AcDbEntity
  8
DRAW2
100
AcDbCircle
 10
936.6016161493281
 20
-31.88543061845269
 30
0.0
 40
6.000001
  0
ARC
  5
4A72
330
18
100
AcDbEntity
  8
DRAW2
100
AcDbCircle
 10
905.6015861493282
 20
-85.57897061845267
 30
0.0
 40
47.890007
100
AcDbArc
 50
31.794899
 51
65.971991
  0
LINE
  5
4A73
330
18
100
AcDbEntity
  8
DRAW2
100
AcDbLine
 10
936.6016461493282
 20
-38.81368061845268
 30
0.0
 11
930.6016461493282
 21
-35.34957061845267
 31
0.0
  0
ARC
  5
4A74
330
18
100
AcDbEntity
  8
DRAW2
100
AcDbCircle
 10
905.6015861493282
 20
-44.57897061845267
 30
0.0
 40
19.50000199999998
100
AcDbArc
 50
274.4117299999999
 51
0.0
  0
LINE
  5
4A75
330
18
100
AcDbEntity
  8
DRAW2
100
AcDbLine
 10
905.601556149328
 20
-44.57900061845265
 30
0.0
 11
904.1015861493281
 21
-50.59350061845265
 31
0.0
  0
LINE
  5
4A76
330
18
100
AcDbEntity
  8
DRAW2
100
AcDbLine
 10
905.601556149328
 20
-44.57900061845265
 30
0.0
 11
907.1015561493281
 21
-50.59353061845269
 31
0.0
  0
ARC
  5
4A77
330
18
100
AcDbEntity
  8
DRAW2
100
AcDbCircle
 10
905.6015861493282
 20
-85.57897061845267
 30
0.0
 40
56.500004
100
AcDbArc
 50
9.286005899999999
 51
50.713933
  0
ARC
  5
4A78
330
18
100
AcDbEntity
  8
DRAW2
100
AcDbCircle
 10
967.6015361493282
 20
-85.57897061845267
 30
0.0
 40
9.000000999999997
100
AcDbArc
 50
72.02728900000002
 51
116.95823
  0
ARC
  5
4A79
330
18
100
AcDbEntity
  8
DRAW2
100
AcDbCircle
 10
962.841496149328
 20
-76.21996061845266
 30
0.0
 40
1.5000001
100
AcDbArc
 50
189.2860099999998
 51
296.9582299999999
  0
ARC
  5
4A7A
330
18
100
AcDbEntity
  8
DRAW2
100
AcDbCircle
 10
970.8414861493283
 20
-75.59136061845265
 30
0.0
 40
1.5000001
100
AcDbArc
 50
252.0272799999999
 51
8.703885099999999
  0
ARC
  5
4A7B
330
18
100
AcDbEntity
  8
DRAW2
100
AcDbCircle
 10
946.8711461493281
 20
-34.07345061845268
 30
0.0
 40
1.5000001
100
AcDbArc
 50
51.296053
 51
167.97266
  0
ARC
  5
4A7C
330
18
100
AcDbEntity
  8
DRAW2
100
AcDbCircle
 10
936.6016161493281
 20
-31.88543061845269
 30
0.0
 40
9.000000999999997
100
AcDbArc
 50
303.04171
 51
347.9726499999998
  0
ARC
  5
4A7D
330
18
100
AcDbEntity
  8
DRAW2
100
AcDbCircle
 10
942.3267461493281
 20
-40.68731061845267
 30
0.0
 40
1.5000001
100
AcDbArc
 50
123.0417099999999
 51
230.7139299999999
  0
LINE
  5
4A7E
330
18
100
AcDbEntity
  8
DRAW2
100
AcDbLine
 10
942.6016461493281
 20
-35.34957061845267
 30
0.0
 11
936.6016461493282
 21
-38.81368061845268
 31
0.0
  0
ARC
  5
4A7F
330
18
100
AcDbEntity
  8
DRAW2
100
AcDbCircle
 10
958.7899361493281
 20
-35.57897061845267
 30
0.0
 40
2.0
100
AcDbArc
 50
223.22979
 51
270.00002
  0
LINE
  5
4A80
330
18
100
AcDbEntity
  8
DRAW2
100
AcDbLine
 10
930.601676149328
 20
-28.4213806184527
 30
0.0
 11
936.6016461493282
 21
-24.95730061845268
 31
0.0
  0
LINE
  5
4A81
330
18
100
AcDbEntity
  8
DRAW2
100
AcDbLine
 10
939.6015561493282
 20
-14.57900061845265
 30
0.0
 11
915.6015861493282
 21
-28.43538061845271
 31
0.0
  0
ARC
  5
4A82
330
18
100
AcDbEntity
  8
DRAW2
100
AcDbCircle
 10
930.1015561493281
 20
-25.83733061845271
 30
0.0
 40
5.000001
100
AcDbArc
 50
119.9999999999999
 51
180.00001
  0
ARC
  5
4A83
330
18
100
AcDbEntity
  8
DRAW2
100
AcDbCircle
 10
942.6015561493281
 20
-21.49309061845269
 30
0.0
 40
3.0000002
100
AcDbArc
 50
179.9999899999999
 51
240.00001
  0
LINE
  5
4A84
330
18
100
AcDbEntity
  8
DRAW2
100
AcDbLine
 10
936.6016761493282
 20
-24.95727061845269
 30
0.0
 11
942.6016461493281
 21
-28.42135061845266
 31
0.0
  0
LINE
  5
4A88
330
18
100
AcDbEntity
  8
DRAW2
100
AcDbLine
 10
988.6016061493281
 20
-54.07894061845269
 30
0.0
 11
988.6016061493281
 21
-61.07894061845269
 31
0.0
  0
LINE
  5
4A89
330
18
100
AcDbEntity
  8
DRAW2
100
AcDbLine
 10
988.1016061493282
 20
-53.57897061845267
 30
0.0
 11
988.1016061493282
 21
-61.57894061845269
 31
0.0
  0
LINE
  5
4A8A
330
18
100
AcDbEntity
  8
DRAW2
100
AcDbLine
 10
980.6015961493281
 20
-41.57894061845269
 30
0.0
 11
980.6015961493281
 21
-73.57894061845269
 31
0.0
  0
LINE
  5
4A8B
330
18
100
AcDbEntity
  8
DRAW2
100
AcDbLine
 10
979.6015661493283
 20
-39.57894061845269
 30
0.0
 11
979.6015661493283
 21
-75.57894061845269
 31
0.0
  0
LINE
  5
4A8C
330
18
100
AcDbEntity
  8
DRAW2
100
AcDbLine
 10
979.6015661493283
 20
-61.57894061845269
 30
0.0
 11
979.6015661493283
 21
-73.57894061845269
 31
0.0
  0
ARC
  5
4A8D
330
18
100
AcDbEntity
  8
DRAW2
100
AcDbCircle
 10
977.6015961493282
 20
-75.57897061845267
 30
0.0
 40
2.0
100
AcDbArc
 50
270.00002
 51
0.0
  0
LINE
  5
4A8E
330
18
100
AcDbEntity
  8
DRAW2
100
AcDbLine
 10
979.6015661493283
 20
-73.57894061845269
 30
0.0
 11
980.6015961493281
 21
-73.57894061845269
 31
0.0
  0
LINE
  5
4A8F
330
18
100
AcDbEntity
  8
DRAW2
100
AcDbLine
 10
977.6015961493282
 20
-77.57894061845269
 30
0.0
 11
978.3546061493282
 21
-77.57894061845269
 31
0.0
  0
LINE
  5
4A90
330
18
100
AcDbEntity
  8
DRAW2
100
AcDbLine
 10
980.6015961493281
 20
-61.57900984920769
 30
0.0
 11
988.1016061493282
 21
-61.57894061845269
 31
0.0
  0
LINE
  5
4A91
330
18
100
AcDbEntity
  8
DRAW2
100
AcDbLine
 10
988.6015361493281
 20
-61.07882061845271
 30
0.0
 11
988.1015361493282
 21
-61.57885061845269
 31
0.0
  0
LINE
  5
4A92
330
18
100
AcDbEntity
  8
DRAW2
100
AcDbLine
 10
979.6015661493283
 20
-41.57894061845269
 30
0.0
 11
979.6015661493283
 21
-53.57897061845267
 31
0.0
  0
LINE
  5
4A93
330
18
100
AcDbEntity
  8
DRAW2
100
AcDbLine
 10
980.6015961493281
 20
-53.57897061845267
 30
0.0
 11
988.1016061493282
 21
-53.57897061845267
 31
0.0
  0
LINE
  5
4A94
330
18
100
AcDbEntity
  8
DRAW2
100
AcDbLine
 10
988.1015461493282
 20
-53.57897061845267
 30
0.0
 11
988.6015161493283
 21
-54.07894061845269
 31
0.0
  0
ARC
  5
4A95
330
18
100
AcDbEntity
  8
DRAW2
100
AcDbCircle
 10
977.6015961493282
 20
-39.57897061845267
 30
0.0
 40
2.0
100
AcDbArc
 50
0.0
 51
89.99998199999998
  0
LINE
  5
4A96
330
18
100
AcDbEntity
  8
DRAW2
100
AcDbLine
 10
979.6015661493283
 20
-41.57894061845269
 30
0.0
 11
980.6015961493281
 21
-41.57894061845269
 31
0.0
  0
LINE
  5
4A97
330
18
100
AcDbEntity
  8
DRAW2
100
AcDbLine
 10
871.6015861493282
 20
34.42102938154732
 30
0.0
 11
939.6015861493282
 21
34.42102938154732
 31
0.0
  0
LINE
  5
4A98
330
18
100
AcDbEntity
  8
DRAW2
100
AcDbLine
 10
887.1015561493281
 20
43.52103938154733
 30
0.0
 11
887.1015561493281
 21
38.02103938154732
 31
0.0
  0
ARC
  5
4A99
330
18
100
AcDbEntity
  8
DRAW2
100
AcDbCircle
 10
883.8515561493281
 20
34.13358938154732
 30
0.0
 40
9.3874664
100
AcDbArc
 50
69.744551
 51
110.2554699999999
  0
LINE
  5
4A9A
330
18
100
AcDbEntity
  8
DRAW2
100
AcDbLine
 10
874.1015861493282
 20
43.52103938154733
 30
0.0
 11
874.1015861493282
 21
38.02103938154732
 31
0.0
  0
ARC
  5
4A9B
330
18
100
AcDbEntity
  8
DRAW2
100
AcDbCircle
 10
877.3515561493281
 20
34.13358938154732
 30
0.0
 40
9.3874664
100
AcDbArc
 50
69.744551
 51
110.2554699999999
  0
LINE
  5
4A9D
330
18
100
AcDbEntity
  8
DRAW2
100
AcDbLine
 10
873.3015961493281
 20
38.02103938154732
 30
0.0
 11
887.9015761493281
 21
38.02103938154732
 31
0.0
  0
LINE
  5
4A9E
330
18
100
AcDbEntity
  8
DRAW2
100
AcDbLine
 10
872.8515861493281
 20
36.0210693815473
 30
0.0
 11
888.3515561493281
 21
36.0210693815473
 31
0.0
  0
LINE
  5
4A9F
330
18
100
AcDbEntity
  8
DRAW2
100
AcDbLine
 10
872.8515861493281
 20
36.02109938154734
 30
0.0
 11
872.8515861493281
 21
34.42102938154732
 31
0.0
  0
LINE
  5
4AA0
330
18
100
AcDbEntity
  8
DRAW2
100
AcDbLine
 10
873.3015961493281
 20
38.02103938154732
 30
0.0
 11
873.3015961493281
 21
36.02109938154734
 31
0.0
  0
LINE
  5
4AA1
330
18
100
AcDbEntity
  8
DRAW2
100
AcDbLine
 10
880.6015561493282
 20
42.9405593815473
 30
0.0
 11
880.6015561493282
 21
38.02103938154732
 31
0.0
  0
LINE
  5
4AA2
330
18
100
AcDbEntity
  8
DRAW2
100
AcDbLine
 10
879.7356161493281
 20
38.02100938154728
 30
0.0
 11
880.8903161493281
 21
36.02103938154732
 31
0.0
  0
LINE
  5
4AA3
330
18
100
AcDbEntity
  8
DRAW2
100
AcDbLine
 10
880.3129761493281
 20
38.02100938154728
 30
0.0
 11
881.4676461493283
 21
36.0210693815473
 31
0.0
  0
LINE
  5
4AA4
330
18
100
AcDbEntity
  8
DRAW2
100
AcDbLine
 10
888.3515561493281
 20
36.02109938154734
 30
0.0
 11
888.3515561493281
 21
34.42102938154732
 31
0.0
  0
LINE
  5
4AA5
330
18
100
AcDbEntity
  8
DRAW2
100
AcDbLine
 10
887.9015461493283
 20
38.02103938154732
 30
0.0
 11
887.9015461493283
 21
36.02109938154734
 31
0.0
  0
LINE
  5
4AA6
330
18
100
AcDbEntity
  8
DRAW2
100
AcDbLine
 10
874.1015861493282
 20
43.52103938154733
 30
0.0
 11
887.1015561493281
 21
43.52103938154733
 31
0.0
  0
ARC
  5
4AA7
330
18
100
AcDbEntity
  8
DRAW2
100
AcDbCircle
 10
933.8515861493281
 20
34.13358938154732
 30
0.0
 40
9.3874664
100
AcDbArc
 50
69.744551
 51
110.2554699999999
  0
LINE
  5
4AA8
330
18
100
AcDbEntity
  8
DRAW2
100
AcDbLine
 10
924.1015861493281
 20
43.52103938154733
 30
0.0
 11
937.1015561493281
 21
43.52103938154733
 31
0.0
  0
LINE
  5
4AA9
330
18
100
AcDbEntity
  8
DRAW2
100
AcDbLine
 10
923.3016261493281
 20
38.02103938154732
 30
0.0
 11
937.9015761493281
 21
38.02103938154732
 31
0.0
  0
LINE
  5
4AAA
330
18
100
AcDbEntity
  8
DRAW2
100
AcDbLine
 10
922.8515861493281
 20
36.0210693815473
 30
0.0
 11
938.3515561493281
 21
36.0210693815473
 31
0.0
  0
LINE
  5
4AAB
330
18
100
AcDbEntity
  8
DRAW2
100
AcDbLine
 10
924.1015861493281
 20
43.52103938154733
 30
0.0
 11
924.1015861493281
 21
38.02103938154732
 31
0.0
  0
ARC
  5
4AAC
330
18
100
AcDbEntity
  8
DRAW2
100
AcDbCircle
 10
927.3515561493281
 20
34.13358938154732
 30
0.0
 40
9.3874664
100
AcDbArc
 50
69.744551
 51
110.2554699999999
  0
LINE
  5
4AAE
330
18
100
AcDbEntity
  8
DRAW2
100
AcDbLine
 10
922.8515861493281
 20
36.02109938154734
 30
0.0
 11
922.8515861493281
 21
34.42102938154732
 31
0.0
  0
LINE
  5
4AAF
330
18
100
AcDbEntity
  8
DRAW2
100
AcDbLine
 10
923.3015961493281
 20
38.02103938154732
 30
0.0
 11
923.3015961493281
 21
36.02109938154734
 31
0.0
  0
LINE
  5
4AB0
330
18
100
AcDbEntity
  8
DRAW2
100
AcDbLine
 10
930.6015861493282
 20
42.9405593815473
 30
0.0
 11
930.6015861493282
 21
38.02103938154732
 31
0.0
  0
LINE
  5
4AB1
330
18
100
AcDbEntity
  8
DRAW2
100
AcDbLine
 10
929.7356461493281
 20
38.02109938154734
 30
0.0
 11
930.8903761493281
 21
36.0210693815473
 31
0.0
  0
LINE
  5
4AB2
330
18
100
AcDbEntity
  8
DRAW2
100
AcDbLine
 10
930.3129761493281
 20
38.0209793815473
 30
0.0
 11
931.4676761493281
 21
36.02103938154732
 31
0.0
  0
LINE
  5
4AB3
330
18
100
AcDbEntity
  8
DRAW2
100
AcDbLine
 10
937.1015561493281
 20
43.52103938154733
 30
0.0
 11
937.1015561493281
 21
38.02103938154732
 31
0.0
  0
LINE
  5
4AB4
330
18
100
AcDbEntity
  8
DRAW2
100
AcDbLine
 10
938.3515861493282
 20
36.02109938154734
 30
0.0
 11
938.3515861493282
 21
34.42102938154732
 31
0.0
  0
LINE
  5
4AB5
330
18
100
AcDbEntity
  8
DRAW2
100
AcDbLine
 10
937.9015761493281
 20
38.02103938154732
 30
0.0
 11
937.9015761493281
 21
36.02109938154734
 31
0.0
  0
VIEWPORT
  5
BD5
330
15
100
AcDbEntity
 67
     1
  8
0
100
AcDbViewport
 10
296.9950122070312
 20
209.9950000476836
 30
0.0
 40
632.1056339387388
 41
423.1939163498098
 68
     1
 69
     1
 12
296.9950122070312
 22
209.9950000476836
 13
0.0
 23
0.0
 14
5.0
 24
5.0
 15
10.0
 25
10.0
 16
0.0
 26
0.0
 36
1.0
 17
0.0
 27
0.0
 37
0.0
 42
50.0
 43
0.0
 44
0.0
 45
423.1939163498098
 50
0.0
 51
0.0
 72
   100
 90
    32768
  1

281
     0
 71
     1
 74
     0
110
0.0
120
0.0
130
0.0
111
1.0
121
0.0
131
0.0
112
0.0
122
1.0
132
0.0
 79
     0
146
0.0
  0
ENDSEC
  0
SECTION
  2
OBJECTS
  0
DICTIONARY
  5
C
330
0
100
AcDbDictionary
281
     1
  3
ACAD_GROUP
350
D
  3
ACAD_LAYOUT
350
1CEF
  3
ACAD_MLINESTYLE
350
E
  3
ACAD_PLOTSETTINGS
350
1CF0
  3
ACAD_PLOTSTYLENAME
350
1CED
  0
DICTIONARY
  5
27C3
330
18
100
AcDbDictionary
280
     1
281
     1
  3
ACAD_LAYOUTSELFREF
360
27F2
  0
DICTIONARY
  5
27C1
330
15
100
AcDbDictionary
280
     1
281
     1
  3
ACAD_LAYOUTSELFREF
360
27F1
  0
DICTIONARY
  5
D
102
{ACAD_REACTORS
330
C
102
}
330
C
100
AcDbDictionary
281
     1
  0
DICTIONARY
  5
1CEF
102
{ACAD_REACTORS
330
C
102
}
330
C
100
AcDbDictionary
281
     1
  3
Model
350
27CD
  3
ﾚｲｱｳﾄ1
350
27CE
  0
DICTIONARY
  5
E
102
{ACAD_REACTORS
330
C
102
}
330
C
100
AcDbDictionary
281
     1
  3
STANDARD
350
1B
  0
DICTIONARY
  5
1CF0
102
{ACAD_REACTORS
330
C
102
}
330
C
100
AcDbDictionary
281
     1
  3
AdobePDF_A2
350
2828
  3
AdobePDF_A3
350
2829
  3
AdobePDF_A4
350
282A
  3
トレース紙Ａ２_LP-2150_WinNT40
350
2825
  3
普通紙Ａ２からＡ３_XL-5800_WinNT40
350
2826
  3
普通紙Ａ２からＡ４_XL-5800_WinNT40
350
2827
  0
ACDBDICTIONARYWDFLT
  5
1CED
102
{ACAD_REACTORS
330
C
102
}
330
C
100
AcDbDictionary
281
     1
  3
Normal
350
1CEE
100
AcDbDictionaryWithDefault
340
1CEE
1001
ACAD
1000
TREAT_AS_HARD
1070
     0
  0
XRECORD
  5
27F2
102
{ACAD_REACTORS
330
27C3
102
}
330
27C3
100
AcDbXrecord
280
     1
340
18
  0
XRECORD
  5
27F1
102
{ACAD_REACTORS
330
27C1
102
}
330
27C1
100
AcDbXrecord
280
     1
340
15
  0
LAYOUT
  5
27CD
102
{ACAD_REACTORS
330
1CEF
102
}
330
1CEF
100
AcDbPlotSettings
  1

  2
FUJITSU XL-5300
  4

  6

 40
0.0
 41
0.0
 42
0.0
 43
0.0
 44
0.0
 45
0.0
 46
0.0
 47
0.0
 48
0.0
 49
0.0
140
0.0
141
0.0
142
1.0
143
1.0
 70
  1712
 72
     0
 73
     0
 74
     0
  7

 75
     0
147
1.0
148
0.0
149
0.0
100
AcDbLayout
  1
Model
 70
     1
 71
     0
 10
0.0
 20
0.0
 11
12.0
 21
9.0
 12
0.0
 22
0.0
 32
0.0
 14
0.0
 24
0.0
 34
0.0
 15
0.0
 25
0.0
 35
0.0
146
0.0
 13
0.0
 23
0.0
 33
0.0
 16
1.0
 26
0.0
 36
0.0
 17
0.0
 27
1.0
 37
0.0
 76
     0
330
18
  0
LAYOUT
  5
27CE
102
{ACAD_REACTORS
330
1CEF
102
}
330
1CEF
100
AcDbPlotSettings
  1
AdobePDF_A2
  2
Adobe PDF
  4
User66
  6
A1
 40
3.174999952316284
 41
3.174999952316284
 42
3.17498779296875
 43
3.17498779296875
 44
420.0
 45
594.0
 46
-3.169999999999999
 47
-3.169999999999999
 48
0.0
 49
0.0
140
594.0
141
420.0
142
1.0
143
1.0
 70
   692
 72
     1
 73
     1
 74
     4
  7
LineScale_10.ctb
 75
    16
147
1.0
148
0.0
149
0.0
100
AcDbLayout
  1
ﾚｲｱｳﾄ1
 70
     1
 71
     1
 10
-0.0049877929687501
 20
-0.0049999523162843
 11
593.9950122070312
 21
419.9950000476837
 12
0.0
 22
0.0
 32
0.0
 14
1.000000000000000E+20
 24
1.000000000000000E+20
 34
1.000000000000000E+20
 15
-1.000000000000000E+20
 25
-1.000000000000000E+20
 35
-1.000000000000000E+20
146
0.0
 13
0.0
 23
0.0
 33
0.0
 16
1.0
 26
0.0
 36
0.0
 17
0.0
 27
1.0
 37
0.0
 76
     0
330
15
331
BD5
  0
MLINESTYLE
  5
1B
102
{ACAD_REACTORS
330
E
102
}
330
E
100
AcDbMlineStyle
  2
STANDARD
 70
     0
  3

 62
     0
 51
90.0
 52
90.0
 71
     2
 49
0.5
 62
   256
  6
BYLAYER
 49
-0.5
 62
   256
  6
BYLAYER
  0
PLOTSETTINGS
  5
2828
102
{ACAD_REACTORS
330
1CF0
102
}
330
1CF0
100
AcDbPlotSettings
  1
AdobePDF_A2
  2
Adobe PDF
  4
User66
  6
A1
 40
3.174999952316284
 41
3.174999952316284
 42
3.17498779296875
 43
3.17498779296875
 44
420.0
 45
594.0
 46
-3.169999999999999
 47
-3.169999999999999
 48
0.0
 49
0.0
140
594.0
141
420.0
142
1.0
143
1.0
 70
   692
 72
     1
 73
     1
 74
     4
  7
LineScale_10.ctb
 75
    16
147
1.0
148
0.0
149
0.0
  0
PLOTSETTINGS
  5
2829
102
{ACAD_REACTORS
330
1CF0
102
}
330
1CF0
100
AcDbPlotSettings
  1
AdobePDF_A3
  2
Adobe PDF
  4
A3
  6
A1
 40
3.174999952316284
 41
3.174999952316284
 42
3.17498779296875
 43
3.17498779296875
 44
297.0318298339843
 45
420.1583251953125
 46
-3.16
 47
-3.1
 48
0.0
 49
0.0
140
420.0
141
297.0
142
1.0
143
1.0
 70
   692
 72
     1
 73
     1
 74
     4
  7
LineScale_10.ctb
 75
    16
147
1.0
148
0.0
149
0.0
  0
PLOTSETTINGS
  5
282A
102
{ACAD_REACTORS
330
1CF0
102
}
330
1CF0
100
AcDbPlotSettings
  1
AdobePDF_A4
  2
Adobe PDF
  4
A4
  6
A1
 40
3.174999952316284
 41
3.174999952316284
 42
3.175003051757812
 43
3.17498779296875
 44
209.9098358154297
 45
297.0318298339843
 46
-3.22
 47
-3.16
 48
0.0
 49
0.0
140
210.0
141
297.0
142
1.0
143
1.0
 70
   692
 72
     1
 73
     0
 74
     4
  7
LineScale_10.ctb
 75
    16
147
1.0
148
0.0
149
0.0
  0
PLOTSETTINGS
  5
2825
102
{ACAD_REACTORS
330
1CF0
102
}
330
1CF0
100
AcDbPlotSettings
  1
トレース紙Ａ２_LP-2150_WinNT40
  2
SII LP-2150 (D-SCAN)
  4
User118
  6
A1
 40
3.174999952316284
 41
3.174999952316284
 42
3.17498779296875
 43
3.17498779296875
 44
593.97900390625
 45
419.9889831542968
 46
-0.8100000000000001
 47
-3.799999999999999
 48
0.0
 49
0.0
140
841.0
141
594.0
142
1.0
143
1.0
 70
   688
 72
     1
 73
     0
 74
     4
  7
LineScale_10.ctb
 75
    16
147
1.0
148
0.0
149
0.0
  0
PLOTSETTINGS
  5
2826
102
{ACAD_REACTORS
330
1CF0
102
}
330
1CF0
100
AcDbPlotSettings
  1
普通紙Ａ２からＡ３_XL-5800_WinNT40
  2
FUJITSU XL-5800
  4
A3
  6
A1
 40
5.873749732971191
 41
5.873747825622558
 42
5.70440673828125
 43
5.873748779296875
 44
296.9259948730469
 45
420.1159973144531
 46
-5.089999999999999
 47
-6.83
 48
0.0
 49
0.0
140
594.0
141
420.0
142
0.7071066999999999
143
1.0
 70
   672
 72
     1
 73
     1
 74
     4
  7
LineScale_07.ctb
 75
     0
147
0.7071066999999999
148
0.0
149
0.0
  0
PLOTSETTINGS
  5
2827
102
{ACAD_REACTORS
330
1CF0
102
}
330
1CF0
100
AcDbPlotSettings
  1
普通紙Ａ２からＡ４_XL-5800_WinNT40
  2
FUJITSU XL-5800
  4
A4
  6
A1
 40
5.873749732971191
 41
5.704405784606933
 42
5.873748779296875
 43
5.873748779296875
 44
210.0579986572265
 45
296.9259948730469
 46
-6.48
 47
-5.7
 48
0.0
 49
0.0
140
594.0
141
420.0
142
1.0
143
2.0
 70
   688
 72
     1
 73
     1
 74
     4
  7
LineScale_05.ctb
 75
    17
147
0.5
148
0.0
149
0.0
  0
ACDBPLACEHOLDER
  5
1CEE
102
{ACAD_REACTORS
330
1CED
102
}
330
1CED
  0
ENDSEC
  0
EOF
