  0
SECTION
  2
HEADER
  9
$ACADVER
  1
AC1015
  9
$ACADMAINTVER
 70
     6
  9
$DWGCODEPAGE
  3
ANSI_932
  9
$INSBASE
 10
0.0
 20
0.0
 30
0.0
  9
$EXTMIN
 10
49.27734870263066
 20
64.15802753938852
 30
-0.0015258207003583
  9
$EXTMAX
 10
594.4079626135153
 20
634.0944301938216
 30
0.0000000349246037
  9
$LIMMIN
 10
-841.0
 20
-594.0
  9
$LIMMAX
 10
841.0
 20
594.0
  9
$ORTHOMODE
 70
     1
  9
$REGENMODE
 70
     1
  9
$FILLMODE
 70
     1
  9
$QTEXTMODE
 70
     0
  9
$MIRRTEXT
 70
     0
  9
$LTSCALE
 40
7.0
  9
$ATTMODE
 70
     1
  9
$TEXTSIZE
 40
4.799999999999999
  9
$TRACEWID
 40
1.0
  9
$TEXTSTYLE
  7
DIMFONT
  9
$CLAYER
  8
DRAW2
  9
$CELTYPE
  6
BYLAYER
  9
$CECOLOR
 62
   256
  9
$CELTSCALE
 40
1.0
  9
$DISPSILH
 70
     0
  9
$DIMSCALE
 40
2.0
  9
$DIMASZ
 40
3.0
  9
$DIMEXO
 40
0.0
  9
$DIMDLI
 40
10.0
  9
$DIMRND
 40
0.0
  9
$DIMDLE
 40
0.0
  9
$DIMEXE
 40
1.0
  9
$DIMTP
 40
0.0
  9
$DIMTM
 40
0.0
  9
$DIMTXT
 40
3.2
  9
$DIMCEN
 40
0.0
  9
$DIMTSZ
 40
0.0
  9
$DIMTOL
 70
     0
  9
$DIMLIM
 70
     0
  9
$DIMTIH
 70
     0
  9
$DIMTOH
 70
     0
  9
$DIMSE1
 70
     0
  9
$DIMSE2
 70
     0
  9
$DIMTAD
 70
     3
  9
$DIMZIN
 70
     8
  9
$DIMBLK
  1

  9
$DIMASO
 70
     1
  9
$DIMSHO
 70
     1
  9
$DIMPOST
  1

  9
$DIMAPOST
  1

  9
$DIMALT
 70
     0
  9
$DIMALTD
 70
     2
  9
$DIMALTF
 40
25.4
  9
$DIMLFAC
 40
1.0
  9
$DIMTOFL
 70
     1
  9
$DIMTVP
 40
0.0
  9
$DIMTIX
 70
     0
  9
$DIMSOXD
 70
     0
  9
$DIMSAH
 70
     1
  9
$DIMBLK1
  1
OPEN
  9
$DIMBLK2
  1
OPEN
  9
$DIMSTYLE
  2
1_2
  9
$DIMCLRD
 70
     0
  9
$DIMCLRE
 70
     0
  9
$DIMCLRT
 70
     0
  9
$DIMTFAC
 40
0.75
  9
$DIMGAP
 40
1.0
  9
$DIMJUST
 70
     0
  9
$DIMSD1
 70
     0
  9
$DIMSD2
 70
     0
  9
$DIMTOLJ
 70
     1
  9
$DIMTZIN
 70
     8
  9
$DIMALTZ
 70
     0
  9
$DIMALTTZ
 70
     0
  9
$DIMUPT
 70
     0
  9
$DIMDEC
 70
     4
  9
$DIMTDEC
 70
     4
  9
$DIMALTU
 70
     2
  9
$DIMALTTD
 70
     2
  9
$DIMTXSTY
  7
DIMFONT
  9
$DIMAUNIT
 70
     0
  9
$DIMADEC
 70
     0
  9
$DIMALTRND
 40
0.0
  9
$DIMAZIN
 70
     0
  9
$DIMDSEP
 70
    46
  9
$DIMATFIT
 70
     3
  9
$DIMFRAC
 70
     0
  9
$DIMLDRBLK
  1
OPEN
  9
$DIMLUNIT
 70
     2
  9
$DIMLWD
 70
    -2
  9
$DIMLWE
 70
    -2
  9
$DIMTMOVE
 70
     0
  9
$LUNITS
 70
     2
  9
$LUPREC
 70
     4
  9
$SKETCHINC
 40
1.0
  9
$FILLETRAD
 40
0.0
  9
$AUNITS
 70
     0
  9
$AUPREC
 70
     4
  9
$MENU
  1
acad
  9
$ELEVATION
 40
0.0
  9
$PELEVATION
 40
0.0
  9
$THICKNESS
 40
0.0
  9
$LIMCHECK
 70
     0
  9
$CHAMFERA
 40
0.0
  9
$CHAMFERB
 40
0.0
  9
$CHAMFERC
 40
0.0
  9
$CHAMFERD
 40
0.0
  9
$SKPOLY
 70
     0
  9
$TDCREATE
 40
2452830.557051852
  9
$TDUCREATE
 40
2452830.182051851
  9
$TDUPDATE
 40
2455048.475602025
  9
$TDUUPDATE
 40
2455048.100602025
  9
$TDINDWG
 40
0.1786989005
  9
$TDUSRTIMER
 40
0.1786989005
  9
$USRTIMER
 70
     1
  9
$ANGBASE
 50
0.0
  9
$ANGDIR
 70
     0
  9
$PDMODE
 70
    35
  9
$PDSIZE
 40
0.5
  9
$PLINEWID
 40
0.0
  9
$SPLFRAME
 70
     0
  9
$SPLINETYPE
 70
     6
  9
$SPLINESEGS
 70
     8
  9
$HANDSEED
  5
52C1
  9
$SURFTAB1
 70
     6
  9
$SURFTAB2
 70
     6
  9
$SURFTYPE
 70
     6
  9
$SURFU
 70
     6
  9
$SURFV
 70
     6
  9
$UCSBASE
  2

  9
$UCSNAME
  2

  9
$UCSORG
 10
0.0
 20
0.0
 30
0.0
  9
$UCSXDIR
 10
1.0
 20
0.0
 30
0.0
  9
$UCSYDIR
 10
0.0
 20
1.0
 30
0.0
  9
$UCSORTHOREF
  2

  9
$UCSORTHOVIEW
 70
     0
  9
$UCSORGTOP
 10
0.0
 20
0.0
 30
0.0
  9
$UCSORGBOTTOM
 10
0.0
 20
0.0
 30
0.0
  9
$UCSORGLEFT
 10
0.0
 20
0.0
 30
0.0
  9
$UCSORGRIGHT
 10
0.0
 20
0.0
 30
0.0
  9
$UCSORGFRONT
 10
0.0
 20
0.0
 30
0.0
  9
$UCSORGBACK
 10
0.0
 20
0.0
 30
0.0
  9
$PUCSBASE
  2

  9
$PUCSNAME
  2

  9
$PUCSORG
 10
0.0
 20
0.0
 30
0.0
  9
$PUCSXDIR
 10
1.0
 20
0.0
 30
0.0
  9
$PUCSYDIR
 10
0.0
 20
1.0
 30
0.0
  9
$PUCSORTHOREF
  2

  9
$PUCSORTHOVIEW
 70
     0
  9
$PUCSORGTOP
 10
0.0
 20
0.0
 30
0.0
  9
$PUCSORGBOTTOM
 10
0.0
 20
0.0
 30
0.0
  9
$PUCSORGLEFT
 10
0.0
 20
0.0
 30
0.0
  9
$PUCSORGRIGHT
 10
0.0
 20
0.0
 30
0.0
  9
$PUCSORGFRONT
 10
0.0
 20
0.0
 30
0.0
  9
$PUCSORGBACK
 10
0.0
 20
0.0
 30
0.0
  9
$USERI1
 70
     0
  9
$USERI2
 70
     0
  9
$USERI3
 70
     0
  9
$USERI4
 70
     0
  9
$USERI5
 70
     0
  9
$USERR1
 40
0.0
  9
$USERR2
 40
0.0
  9
$USERR3
 40
0.0
  9
$USERR4
 40
0.0
  9
$USERR5
 40
0.0
  9
$WORLDVIEW
 70
     1
  9
$SHADEDGE
 70
     3
  9
$SHADEDIF
 70
    70
  9
$TILEMODE
 70
     1
  9
$MAXACTVP
 70
    48
  9
$PINSBASE
 10
0.0
 20
0.0
 30
0.0
  9
$PLIMCHECK
 70
     0
  9
$PEXTMIN
 10
1.000000000000000E+20
 20
1.000000000000000E+20
 30
1.000000000000000E+20
  9
$PEXTMAX
 10
-1.000000000000000E+20
 20
-1.000000000000000E+20
 30
-1.000000000000000E+20
  9
$PLIMMIN
 10
-0.0049877929687501
 20
-0.0049999523162843
  9
$PLIMMAX
 10
593.9950122070312
 20
419.9950000476837
  9
$UNITMODE
 70
     0
  9
$VISRETAIN
 70
     0
  9
$PLINEGEN
 70
     1
  9
$PSLTSCALE
 70
     1
  9
$TREEDEPTH
 70
  3020
  9
$CMLSTYLE
  2
STANDARD
  9
$CMLJUST
 70
     0
  9
$CMLSCALE
 40
20.0
  9
$PROXYGRAPHICS
 70
     1
  9
$MEASUREMENT
 70
     0
  9
$CELWEIGHT
370
    -1
  9
$ENDCAPS
280
     0
  9
$JOINSTYLE
280
     0
  9
$LWDISPLAY
290
     0
  9
$INSUNITS
 70
     0
  9
$HYPERLINKBASE
  1

  9
$STYLESHEET
  1

  9
$XEDIT
290
     1
  9
$CEPSNTYPE
380
     0
  9
$PSTYLEMODE
290
     1
  9
$FINGERPRINTGUID
  2
{C817B933-B7E6-4411-ACC1-71D04B3DFE17}
  9
$VERSIONGUID
  2
{D732E02E-7577-443A-BA4B-B68A54693363}
  9
$EXTNAMES
290
     1
  9
$PSVPSCALE
 40
0.0
  9
$OLESTARTUP
290
     0
  0
ENDSEC
  0
SECTION
  2
CLASSES
  0
CLASS
  1
LWPOLYLINE
  2
AcDbPolyline
  3
AutoCAD 2000
 90
    32768
280
     0
281
     1
  0
CLASS
  1
ACDBDICTIONARYWDFLT
  2
AcDbDictionaryWithDefault
  3
AutoCAD 2000
 90
        0
280
     0
281
     0
  0
CLASS
  1
ACDBPLACEHOLDER
  2
AcDbPlaceHolder
  3
AutoCAD 2000
 90
        0
280
     0
281
     0
  0
CLASS
  1
LAYOUT
  2
AcDbLayout
  3
AutoCAD 2000
 90
        0
280
     0
281
     0
  0
CLASS
  1
PLOTSETTINGS
  2
AcDbPlotSettings
  3
AutoCAD 2000
 90
        0
280
     0
281
     0
  0
CLASS
  1
RASTERVARIABLES
  2
AcDbRasterVariables
  3
ISM
 90
        0
280
     0
281
     0
  0
CLASS
  1
LONG_TRANSACTION
  2
AcDbLongTransaction
  3
AutoCAD 2000
 90
    32768
280
     0
281
     0
  0
CLASS
  1
LWPOLYLINE
  2
AcDbPolyline
  3
AutoCAD 2000
 90
    32768
280
     0
281
     1
  0
CLASS
  1
HATCH
  2
AcDbHatch
  3
AutoCAD 2000
 90
    32768
280
     0
281
     1
  0
CLASS
  1
XRECORD
  2
AcDbXrecord
  3
AutoCAD 2000
 90
    32768
280
     0
281
     0
  0
ENDSEC
  0
SECTION
  2
TABLES
  0
TABLE
  2
VPORT
  5
8
330
0
100
AcDbSymbolTable
 70
     3
  0
VPORT
  5
52C0
330
8
100
AcDbSymbolTableRecord
100
AcDbViewportTableRecord
  2
*Active
 70
     0
 10
0.0
 20
0.0
 11
1.0
 21
1.0
 12
321.8426556580729
 22
349.126228866605
 13
0.0
 23
0.0
 14
5.0
 24
5.0
 15
10.0
 25
10.0
 16
0.0
 26
0.0
 36
1.0
 17
0.0
 27
0.0
 37
0.0
 40
574.2002660159376
 41
1.469413233458177
 42
50.0
 43
0.0
 44
0.0
 50
0.0
 51
0.0
 71
     0
 72
   100
 73
     1
 74
     0
 75
     0
 76
     0
 77
     0
 78
     0
281
     0
 65
     1
110
0.0
120
0.0
130
0.0
111
1.0
121
0.0
131
0.0
112
0.0
122
1.0
132
0.0
 79
     0
146
0.0
  0
ENDTAB
  0
TABLE
  2
LTYPE
  5
5
330
0
100
AcDbSymbolTable
 70
     4
  0
LTYPE
  5
12
330
5
100
AcDbSymbolTableRecord
100
AcDbLinetypeTableRecord
  2
BYBLOCK
 70
     0
  3

 72
    65
 73
     0
 40
0.0
  0
LTYPE
  5
13
330
5
100
AcDbSymbolTableRecord
100
AcDbLinetypeTableRecord
  2
BYLAYER
 70
     0
  3

 72
    65
 73
     0
 40
0.0
  0
LTYPE
  5
14
330
5
100
AcDbSymbolTableRecord
100
AcDbLinetypeTableRecord
  2
CONTINUOUS
 70
     0
  3
Solid line
 72
    65
 73
     0
 40
0.0
  0
ENDTAB
  0
TABLE
  2
LAYER
  5
2
330
0
100
AcDbSymbolTable
 70
    16
  0
LAYER
  5
E
330
2
100
AcDbSymbolTableRecord
100
AcDbLayerTableRecord
  2
0
 70
     0
 62
     7
  6
CONTINUOUS
370
    -3
390
1D4E
  0
LAYER
  5
29
330
2
100
AcDbSymbolTableRecord
100
AcDbLayerTableRecord
  2
DRAW2
 70
     0
 62
     4
  6
CONTINUOUS
370
    -3
390
1D4E
  0
LAYER
  5
2A
330
2
100
AcDbSymbolTableRecord
100
AcDbLayerTableRecord
  2
DRAW3
 70
     0
 62
     1
  6
CONTINUOUS
370
    -3
390
1D4E
  0
LAYER
  5
133
330
2
100
AcDbSymbolTableRecord
100
AcDbLayerTableRecord
  2
DEFPOINTS
 70
     0
 62
     7
  6
CONTINUOUS
290
     0
370
    -3
390
1D4E
  0
LAYER
  5
1D64
330
2
100
AcDbSymbolTableRecord
100
AcDbLayerTableRecord
  2
POINT
 70
     0
 62
     6
  6
CONTINUOUS
290
     0
370
    -3
390
1D4E
  0
ENDTAB
  0
TABLE
  2
STYLE
  5
3
330
0
100
AcDbSymbolTable
 70
     4
  0
STYLE
  5
F
330
3
100
AcDbSymbolTableRecord
100
AcDbTextStyleTableRecord
  2
STANDARD
 70
     0
 40
0.0
 41
1.0
 50
0.0
 71
     0
 42
2.5
  3
txt
  4

  0
STYLE
  5
30
330
3
100
AcDbSymbolTableRecord
100
AcDbTextStyleTableRecord
  2
DIMFONT
 70
     0
 40
0.0
 41
1.0
 50
10.0
 71
     0
 42
4.799999999999999
  3
romans.shx
  4
extfont.shx
  0
ENDTAB
  0
TABLE
  2
VIEW
  5
6
330
0
100
AcDbSymbolTable
 70
     4
  0
VIEW
  5
39
330
6
100
AcDbSymbolTableRecord
100
AcDbViewTableRecord
  2
A1
 70
     1
 40
660.0
 10
420.5
 20
297.0
 41
1136.871508379887
 11
0.0
 21
0.0
 31
1.0
 12
0.0
 22
0.0
 32
0.0
 42
50.0
 43
0.0
 44
0.0
 50
0.0
 71
     0
281
     0
 72
     0
  0
VIEW
  5
3A
330
6
100
AcDbSymbolTableRecord
100
AcDbViewTableRecord
  2
A2
 70
     1
 40
466.6666666666666
 10
297.0
 20
210.0
 41
803.8485412787087
 11
0.0
 21
0.0
 31
1.0
 12
0.0
 22
0.0
 32
0.0
 42
50.0
 43
0.0
 44
0.0
 50
0.0
 71
     0
281
     0
 72
     0
  0
VIEW
  5
3B
330
6
100
AcDbSymbolTableRecord
100
AcDbViewTableRecord
  2
A3
 70
     1
 40
330.0
 10
210.0
 20
148.5
 41
568.4357541899442
 11
0.0
 21
0.0
 31
1.0
 12
0.0
 22
0.0
 32
0.0
 42
50.0
 43
0.0
 44
0.0
 50
0.0
 71
     0
281
     0
 72
     0
  0
VIEW
  5
3C
330
6
100
AcDbSymbolTableRecord
100
AcDbViewTableRecord
  2
A4
 70
     1
 40
330.0
 10
105.0
 20
148.5
 41
568.4357541899442
 11
0.0
 21
0.0
 31
1.0
 12
0.0
 22
0.0
 32
0.0
 42
50.0
 43
0.0
 44
0.0
 50
0.0
 71
     0
281
     0
 72
     0
  0
ENDTAB
  0
TABLE
  2
UCS
  5
7
330
0
100
AcDbSymbolTable
 70
     0
  0
ENDTAB
  0
TABLE
  2
APPID
  5
9
330
0
100
AcDbSymbolTable
 70
     1
  0
APPID
  5
10
330
9
100
AcDbSymbolTableRecord
100
AcDbRegAppTableRecord
  2
ACAD
 70
     0
  0
ENDTAB
  0
TABLE
  2
DIMSTYLE
  5
A
330
0
100
AcDbSymbolTable
 70
    11
100
AcDbDimStyleTable
 71
     1
340
4B
  0
DIMSTYLE
105
1D
330
A
100
AcDbSymbolTableRecord
100
AcDbDimStyleTableRecord
  2
STANDARD
 70
     0
340
F
  0
DIMSTYLE
105
4B
102
{ACAD_REACTORS
330
195A
330
1471
330
148F
330
1490
330
1943
330
1944
330
1945
330
1946
330
1947
330
1956
330
1957
330
1958
330
1962
330
1963
330
48FD
102
}
330
A
100
AcDbSymbolTableRecord
100
AcDbDimStyleTableRecord
  2
1_2
 70
     0
 40
2.0
 41
3.0
 42
0.0
 43
10.0
 44
1.0
 73
     0
 74
     0
 77
     3
 78
     8
140
3.2
141
0.0
146
0.75
147
1.0
172
     1
173
     1
284
     8
340
30
341
125
343
125
344
125
  0
ENDTAB
  0
TABLE
  2
BLOCK_RECORD
  5
1
330
0
100
AcDbSymbolTable
 70
    20
  0
BLOCK_RECORD
  5
18
102
{ACAD_XDICTIONARY
360
1D45
102
}
330
1
100
AcDbSymbolTableRecord
100
AcDbBlockTableRecord
  2
*MODEL_SPACE
340
1D4F
  0
BLOCK_RECORD
  5
15
102
{ACAD_XDICTIONARY
360
1D43
102
}
330
1
100
AcDbSymbolTableRecord
100
AcDbBlockTableRecord
  2
*PAPER_SPACE
340
1D50
  0
BLOCK_RECORD
  5
125
330
1
100
AcDbSymbolTableRecord
100
AcDbBlockTableRecord
  2
_OPEN
340
0
102
{BLKREFS
331
5212
331
5213
331
521B
331
521C
331
522D
331
522E
331
5236
331
5237
331
523F
331
5240
331
5248
331
5249
331
5251
331
5252
331
525A
331
525B
331
5263
331
5264
331
526C
331
526D
331
5275
331
5276
331
527E
331
527F
331
5287
331
5288
331
5290
331
5291
331
52A2
331
52A3
102
}
  0
ENDTAB
  0
ENDSEC
  0
SECTION
  2
BLOCKS
  0
BLOCK
  5
19
330
18
100
AcDbEntity
  8
0
100
AcDbBlockBegin
  2
*MODEL_SPACE
 70
     0
 10
0.0
 20
0.0
 30
0.0
  3
*MODEL_SPACE
  1

  0
ENDBLK
  5
1A
330
18
100
AcDbEntity
  8
0
100
AcDbBlockEnd
  0
BLOCK
  5
16
330
15
100
AcDbEntity
 67
     1
  8
0
100
AcDbBlockBegin
  2
*PAPER_SPACE
 70
     0
 10
0.0
 20
0.0
 30
0.0
  3
*PAPER_SPACE
  1

  0
ENDBLK
  5
17
330
15
100
AcDbEntity
 67
     1
  8
0
100
AcDbBlockEnd
  0
BLOCK
  5
126
330
125
100
AcDbEntity
  8
0
100
AcDbBlockBegin
  2
_OPEN
 70
     0
 10
0.0
 20
0.0
 30
0.0
  3
_OPEN
  1

  0
LINE
  5
127
330
125
100
AcDbEntity
  8
0
  6
ByBlock
 62
     0
100
AcDbLine
 10
-1.0
 20
0.1666666666666666
 30
0.0
 11
0.0
 21
0.0
 31
0.0
  0
LINE
  5
128
330
125
100
AcDbEntity
  8
0
  6
ByBlock
 62
     0
100
AcDbLine
 10
0.0
 20
0.0
 30
0.0
 11
-1.0
 21
-0.1666666666666666
 31
0.0
  0
LINE
  5
129
330
125
100
AcDbEntity
  8
0
  6
ByBlock
 62
     0
100
AcDbLine
 10
0.0
 20
0.0
 30
0.0
 11
-1.0
 21
0.0
 31
0.0
  0
ENDBLK
  5
12A
330
125
100
AcDbEntity
  8
0
100
AcDbBlockEnd
  0
ENDSEC
  0
SECTION
  2
ENTITIES
  0
ARC
  5
1472
330
18
100
AcDbEntity
  8
DRAW2
100
AcDbCircle
 10
142.2094155447786
 20
739.4999403847393
 30
0.0
 40
400.0
100
AcDbArc
 50
264.584651668614
 51
270.000005000002
  0
LINE
  5
1474
330
18
100
AcDbEntity
  8
DRAW2
100
AcDbLine
 10
104.4594155447786
 20
324.7500003847391
 30
0.0
 11
142.2094504513777
 21
324.7500003847391
 31
0.0
  0
LINE
  5
1476
330
18
100
AcDbEntity
  8
DRAW2
100
AcDbLine
 10
104.4594155447786
 20
322.2500003847391
 30
0.0
 11
142.2094504513777
 21
322.2500003847391
 31
0.0
  0
ARC
  5
1477
330
18
100
AcDbEntity
  8
DRAW2
100
AcDbCircle
 10
142.2094155447786
 20
730.8253203847392
 30
0.0
 40
400.0
100
AcDbArc
 50
264.3403299999993
 51
270.000005000002
  0
ARC
  5
1478
330
18
100
AcDbEntity
  8
DRAW2
100
AcDbCircle
 10
142.2094155447786
 20
735.1065703847392
 30
0.0
 40
400.0
100
AcDbArc
 50
264.1891299999997
 51
270.000005000002
  0
ARC
  5
1479
330
18
100
AcDbEntity
  8
DRAW2
100
AcDbCircle
 10
142.2094155447786
 20
733.417360384739
 30
0.0
 40
400.0
100
AcDbArc
 50
264.0754399999971
 51
270.000005000002
  0
ARC
  5
147A
330
18
100
AcDbEntity
  8
DRAW2
100
AcDbCircle
 10
142.2094155447786
 20
-92.50001961526072
 30
0.0
 40
400.0
100
AcDbArc
 50
89.99999499999798
 51
95.41534833138589
  0
ARC
  5
147B
330
18
100
AcDbEntity
  8
DRAW2
100
AcDbCircle
 10
142.2094155447786
 20
-88.10664661526084
 30
0.0
 40
400.0
100
AcDbArc
 50
89.99999499999798
 51
95.81086799999914
  0
ARC
  5
147C
330
18
100
AcDbEntity
  8
DRAW2
100
AcDbCircle
 10
142.2094155447786
 20
-86.41742161526076
 30
0.0
 40
400.0
100
AcDbArc
 50
89.99999499999798
 51
95.92455599999698
  0
ARC
  5
147D
330
18
100
AcDbEntity
  8
DRAW2
100
AcDbCircle
 10
142.2094155447786
 20
-83.82533861526075
 30
0.0
 40
400.0
100
AcDbArc
 50
89.99999499999798
 51
95.6596679999993
  0
LINE
  5
147F
330
18
100
AcDbEntity
  8
DRAW2
100
AcDbLine
 10
107.5093455447786
 20
282.9999703847391
 30
0.0
 11
177.2203699548446
 21
282.9999703847391
 31
0.0
  0
LINE
  5
1482
330
18
100
AcDbEntity
  8
DRAW2
100
AcDbLine
 10
104.4594155447786
 20
117.249970384739
 30
0.0
 11
142.2094155447785
 21
117.249970384739
 31
0.0
  0
LINE
  5
1484
330
18
100
AcDbEntity
  8
DRAW2
100
AcDbLine
 10
104.4594155447786
 20
119.749990384739
 30
0.0
 11
142.2094155447785
 21
119.749990384739
 31
0.0
  0
ARC
  5
1485
330
18
100
AcDbEntity
  8
DRAW2
100
AcDbCircle
 10
142.2094155447786
 20
-288.8253496152607
 30
0.0
 40
400.0
100
AcDbArc
 50
90.00000000000003
 51
95.6596679999993
  0
ARC
  5
1486
330
18
100
AcDbEntity
  8
DRAW2
100
AcDbCircle
 10
142.2094155447786
 20
-291.4173996152608
 30
0.0
 40
400.0
100
AcDbArc
 50
90.00000000000003
 51
95.92455599999698
  0
ARC
  5
1487
330
18
100
AcDbEntity
  8
DRAW2
100
AcDbCircle
 10
142.2094155447786
 20
534.5000003847391
 30
0.0
 40
400.0
100
AcDbArc
 50
264.584651668614
 51
270.0
  0
ARC
  5
1488
330
18
100
AcDbEntity
  8
DRAW2
100
AcDbCircle
 10
142.2094155447786
 20
530.1065703847391
 30
0.0
 40
400.0
100
AcDbArc
 50
264.1891299999997
 51
270.0
  0
ARC
  5
1489
330
18
100
AcDbEntity
  8
DRAW2
100
AcDbCircle
 10
142.2094155447786
 20
528.4173603847391
 30
0.0
 40
400.0
100
AcDbArc
 50
264.0754399999971
 51
270.0
  0
ARC
  5
148A
330
18
100
AcDbEntity
  8
DRAW2
100
AcDbCircle
 10
142.2094155447786
 20
525.8252603847392
 30
0.0
 40
400.0
100
AcDbArc
 50
264.3403299999993
 51
270.0
  0
ARC
  5
148B
330
18
100
AcDbEntity
  8
DRAW2
100
AcDbCircle
 10
142.2094155447786
 20
-297.5000396152605
 30
0.0
 40
400.0
100
AcDbArc
 50
90.00000000000003
 51
95.41534833138589
  0
ARC
  5
148C
330
18
100
AcDbEntity
  8
DRAW2
100
AcDbCircle
 10
142.2094155447786
 20
-293.1066596152607
 30
0.0
 40
400.0
100
AcDbArc
 50
90.00000000000003
 51
95.81086799999914
  0
LINE
  5
148E
330
18
100
AcDbEntity
  8
DRAW2
100
AcDbLine
 10
107.5093455447786
 20
158.9999903847391
 30
0.0
 11
177.2094155447785
 21
158.9999903847391
 31
0.0
  0
LINE
  5
1491
330
18
100
AcDbEntity
  8
DRAW2
100
AcDbLine
 10
104.4594155447786
 20
119.749990384739
 30
0.0
 11
104.4594155447786
 21
127.6105726847498
 31
0.0
  0
LINE
  5
1492
330
18
100
AcDbEntity
  8
DRAW2
100
AcDbLine
 10
58.45941554477864
 20
99.49997038473917
 30
0.0
 11
58.45941554477864
 21
138.499970384739
 31
0.0
  0
LINE
  5
1494
330
18
100
AcDbEntity
  8
DRAW2
100
AcDbLine
 10
78.33447554477863
 20
107.4999403847392
 30
0.0
 11
85.08441554477855
 21
107.4999403847392
 31
0.0
  0
ARC
  5
1495
330
18
100
AcDbEntity
  8
DRAW2
100
AcDbCircle
 10
81.70941554477854
 20
94.69371038473923
 30
0.0
 40
10.90625399999999
100
AcDbArc
 50
71.48062800000198
 51
108.5193699999966
  0
LINE
  5
1497
330
18
100
AcDbEntity
  8
DRAW2
100
AcDbLine
 10
87.65942554477858
 20
105.599990384739
 30
0.0
 11
75.75946554477861
 21
105.599990384739
 31
0.0
  0
LINE
  5
1499
330
18
100
AcDbEntity
  8
DRAW2
100
AcDbLine
 10
58.70941554477855
 20
79.49999038473919
 30
0.0
 11
104.7094155447785
 21
79.49999038473919
 31
0.0
  0
LINE
  5
149A
330
18
100
AcDbEntity
  8
DRAW2
100
AcDbLine
 10
60.70941554477855
 20
95.49999038473918
 30
0.0
 11
102.7094155447785
 21
95.49999038473918
 31
0.0
  0
LINE
  5
149B
330
18
100
AcDbEntity
  8
DRAW2
100
AcDbLine
 10
100.7094155447785
 20
88.28018038473917
 30
0.0
 11
62.70947554477863
 21
88.28018038473917
 31
0.0
  0
LINE
  5
149C
330
18
100
AcDbEntity
  8
DRAW2
100
AcDbLine
 10
77.70941554477855
 20
106.8749403847392
 30
0.0
 11
85.70941554477855
 21
106.8749403847392
 31
0.0
  0
LINE
  5
149D
330
18
100
AcDbEntity
  8
DRAW2
100
AcDbLine
 10
95.4176055447786
 20
64.49998038473919
 30
0.0
 11
68.0010955447786
 21
64.49998038473919
 31
0.0
  0
LINE
  5
149E
330
18
100
AcDbEntity
  8
DRAW2
100
AcDbLine
 10
72.70941554477855
 20
95.49999038473918
 30
0.0
 11
72.70941554477855
 21
91.2802003847392
 31
0.0
  0
LINE
  5
149F
330
18
100
AcDbEntity
  8
DRAW2
100
AcDbLine
 10
58.70941554477855
 20
79.49999038473919
 30
0.0
 11
58.70941554477855
 21
98.49997038473922
 31
0.0
  0
ARC
  5
14A0
330
18
100
AcDbEntity
  8
DRAW2
100
AcDbCircle
 10
62.70947554477863
 20
84.28020038473921
 30
0.0
 40
4.0
100
AcDbArc
 50
90.00000299999769
 51
180.0000099999992
  0
LINE
  5
14A1
330
18
100
AcDbEntity
  8
DRAW2
100
AcDbLine
 10
66.51776554477857
 20
65.77748038473919
 30
0.0
 11
64.45941554477855
 21
79.49999038473919
 31
0.0
  0
ARC
  5
14A2
330
18
100
AcDbEntity
  8
DRAW2
100
AcDbCircle
 10
68.0010955447786
 20
65.99996038473921
 30
0.0
 40
1.5000001
100
AcDbArc
 50
188.5307599999999
 51
270.0
  0
ARC
  5
14A3
330
18
100
AcDbEntity
  8
DRAW2
100
AcDbCircle
 10
69.70941554477855
 20
91.2802003847392
 30
0.0
 40
3.0000002
100
AcDbArc
 50
270.0
 51
0.0
  0
LINE
  5
14A4
330
18
100
AcDbEntity
  8
DRAW2
100
AcDbLine
 10
58.70941554477855
 20
98.49997038473922
 30
0.0
 11
74.40942554477857
 21
98.49997038473922
 31
0.0
  0
LINE
  5
14A5
330
18
100
AcDbEntity
  8
DRAW2
100
AcDbLine
 10
58.45941554477864
 20
99.49997038473917
 30
0.0
 11
74.78118554477856
 21
99.49997038473917
 31
0.0
  0
ARC
  5
14A6
330
18
100
AcDbEntity
  8
DRAW2
100
AcDbCircle
 10
59.45947554477871
 20
99.49997038473917
 30
0.0
 40
1.0
100
AcDbArc
 50
179.9999900000006
 51
270.0
  0
ARC
  5
14A7
330
18
100
AcDbEntity
  8
DRAW2
100
AcDbCircle
 10
60.70941554477855
 20
93.49999038473923
 30
0.0
 40
2.0
100
AcDbArc
 50
90.00000299999769
 51
180.0000099999992
  0
LINE
  5
14A8
330
18
100
AcDbEntity
  8
DRAW2
100
AcDbLine
 10
78.33441554477855
 20
107.499880384739
 30
0.0
 11
77.70941554477855
 21
106.8749103847392
 31
0.0
  0
LINE
  5
14A9
330
18
100
AcDbEntity
  8
DRAW2
100
AcDbLine
 10
74.78118554477856
 20
105.0352003847391
 30
0.0
 11
74.78118554477856
 21
99.09996038473924
 31
0.0
  0
LINE
  5
14AA
330
18
100
AcDbEntity
  8
DRAW2
100
AcDbLine
 10
78.24530554477854
 20
105.0352003847391
 30
0.0
 11
78.24530554477854
 21
99.09996038473924
 31
0.0
  0
LINE
  5
14AB
330
18
100
AcDbEntity
  8
DRAW2
100
AcDbLine
 10
75.75939554477855
 20
105.5999603847391
 30
0.0
 11
74.78118554477856
 21
105.0352003847391
 31
0.0
  0
ARC
  5
14AC
330
18
100
AcDbEntity
  8
DRAW2
100
AcDbCircle
 10
75.69634554477858
 20
99.5689903847392
 30
0.0
 40
6.031330099999999
100
AcDbArc
 50
64.99984400000115
 51
89.40087200000242
  0
LINE
  5
14AF
330
18
100
AcDbEntity
  8
DRAW2
100
AcDbLine
 10
77.70941554477855
 20
105.599990384739
 30
0.0
 11
77.70941554477855
 21
106.8749403847392
 31
0.0
  0
LINE
  5
14B0
330
18
100
AcDbEntity
  8
DRAW3
100
AcDbLine
 10
78.33447554477863
 20
105.599990384739
 30
0.0
 11
78.33447554477863
 21
107.4999403847392
 31
0.0
  0
LINE
  5
14B1
330
18
100
AcDbEntity
  8
DRAW2
100
AcDbLine
 10
90.70935554477859
 20
95.49999038473918
 30
0.0
 11
90.70935554477859
 21
91.2802003847392
 31
0.0
  0
LINE
  5
14B2
330
18
100
AcDbEntity
  8
DRAW2
100
AcDbLine
 10
104.7094155447785
 20
79.49999038473919
 30
0.0
 11
104.7094155447785
 21
98.49997038473922
 31
0.0
  0
ARC
  5
14B3
330
18
100
AcDbEntity
  8
DRAW2
100
AcDbCircle
 10
95.4176055447786
 20
65.99996038473921
 30
0.0
 40
1.5000001
100
AcDbArc
 50
270.0
 51
351.4692400000001
  0
ARC
  5
14B4
330
18
100
AcDbEntity
  8
DRAW2
100
AcDbCircle
 10
93.70947554477863
 20
91.2802003847392
 30
0.0
 40
3.0000002
100
AcDbArc
 50
179.9999900000006
 51
270.0
  0
LINE
  5
14B5
330
18
100
AcDbEntity
  8
DRAW2
100
AcDbLine
 10
96.90106554477853
 20
65.77747038473922
 30
0.0
 11
98.95941554477856
 21
79.49997038473918
 31
0.0
  0
ARC
  5
14B6
330
18
100
AcDbEntity
  8
DRAW2
100
AcDbCircle
 10
100.7094155447785
 20
84.28020038473921
 30
0.0
 40
4.0
100
AcDbArc
 50
0.0
 51
90.00000299999769
  0
LINE
  5
14B9
330
18
100
AcDbEntity
  8
DRAW2
100
AcDbLine
 10
89.44622554477874
 20
118.499990384739
 30
0.0
 11
104.4592855447786
 21
117.2500003847392
 31
0.0
  0
LINE
  5
14BA
330
18
100
AcDbEntity
  8
DRAW2
100
AcDbLine
 10
89.44616554477866
 20
118.499970384739
 30
0.0
 11
104.4594155447786
 21
119.749970384739
 31
0.0
  0
LINE
  5
14BB
330
18
100
AcDbEntity
  8
DRAW2
100
AcDbLine
 10
89.00940554477859
 20
98.49997038473919
 30
0.0
 11
104.7094155447785
 21
98.49997038473921
 31
0.0
  0
LINE
  5
14BC
330
18
100
AcDbEntity
  8
DRAW2
100
AcDbLine
 10
87.6593655447786
 20
105.6000103847392
 30
0.0
 11
88.6375755447786
 21
105.0352203847392
 31
0.0
  0
LINE
  5
14BD
330
18
100
AcDbEntity
  8
DRAW2
100
AcDbLine
 10
85.70941554477855
 20
105.599990384739
 30
0.0
 11
85.70941554477855
 21
106.8749403847392
 31
0.0
  0
LINE
  5
14BE
330
18
100
AcDbEntity
  8
DRAW2
100
AcDbLine
 10
85.17346554477859
 20
105.0352003847391
 30
0.0
 11
85.17346554477859
 21
99.09996038473924
 31
0.0
  0
LINE
  5
14C0
330
18
100
AcDbEntity
  8
DRAW3
100
AcDbLine
 10
85.08441554477855
 20
105.599990384739
 30
0.0
 11
85.08441554477855
 21
107.4999403847392
 31
0.0
  0
LINE
  5
14C1
330
18
100
AcDbEntity
  8
DRAW2
100
AcDbLine
 10
85.08441554477855
 20
107.499880384739
 30
0.0
 11
85.70935554477859
 21
106.8749103847392
 31
0.0
  0
ARC
  5
14C2
330
18
100
AcDbEntity
  8
DRAW2
100
AcDbCircle
 10
87.72253554477861
 20
99.5689903847392
 30
0.0
 40
6.031330099999999
100
AcDbArc
 50
90.59911900000095
 51
115.0001500000023
  0
LINE
  5
14C3
330
18
100
AcDbEntity
  8
DRAW2
100
AcDbLine
 10
88.63751554477852
 20
105.0352003847391
 30
0.0
 11
88.63751554477852
 21
99.09996038473924
 31
0.0
  0
LINE
  5
14C6
330
18
100
AcDbEntity
  8
DRAW2
100
AcDbLine
 10
102.7617155447786
 20
109.2247603847392
 30
0.0
 11
100.8754855447786
 21
106.441210384739
 31
0.0
  0
ARC
  5
14C7
330
18
100
AcDbEntity
  8
DRAW2
100
AcDbCircle
 10
103.4594155447786
 20
99.49997038473917
 30
0.0
 40
1.0
100
AcDbArc
 50
270.0
 51
0.0
  0
ARC
  5
14C8
330
18
100
AcDbEntity
  8
DRAW2
100
AcDbCircle
 10
102.7094155447785
 20
93.49999038473923
 30
0.0
 40
2.0
100
AcDbArc
 50
0.0
 51
90.00000299999769
  0
LINE
  5
14C9
330
18
100
AcDbEntity
  8
DRAW2
100
AcDbLine
 10
104.4594155447786
 20
99.49997038473917
 30
0.0
 11
104.4594155447786
 21
105.1080280847285
 31
0.0
  0
ARC
  5
14CA
330
18
100
AcDbEntity
  8
DRAW2
100
AcDbCircle
 10
103.4194955447785
 20
106.7481503847391
 30
0.0
 40
2.562481399999998
100
AcDbArc
 50
186.8789200000003
 51
228.1965799999993
  0
LINE
  5
14CB
330
18
100
AcDbEntity
  8
DRAW2
100
AcDbLine
 10
104.4594155447786
 20
109.3893380847283
 30
0.0
 11
104.4594155447786
 21
117.249970384739
 31
0.0
  0
LINE
  5
14CC
330
18
100
AcDbEntity
  8
DRAW2
100
AcDbLine
 10
57.20935554477847
 20
301.5000003847391
 30
0.0
 11
57.20935554477847
 21
140.499970384739
 31
0.0
  0
LINE
  5
14CD
330
18
100
AcDbEntity
  8
DRAW2
100
AcDbLine
 10
105.2093555447784
 20
282.9999703847391
 30
0.0
 11
105.2093555447784
 21
158.9999903847391
 31
0.0
  0
LINE
  5
14CE
330
18
100
AcDbEntity
  8
DRAW2
100
AcDbLine
 10
105.5094055447785
 20
281.0000003847391
 30
0.0
 11
105.5094055447785
 21
160.9999903847391
 31
0.0
  0
LINE
  5
14D0
330
18
100
AcDbEntity
  8
DRAW2
100
AcDbLine
 10
78.70935554477847
 20
177.7315703847392
 30
0.0
 11
80.20935554477848
 21
183.329640384739
 31
0.0
  0
LINE
  5
14D1
330
18
100
AcDbEntity
  8
DRAW2
100
AcDbLine
 10
81.70929554477851
 20
177.7315803847391
 30
0.0
 11
80.2092955447785
 21
183.329640384739
 31
0.0
  0
ARC
  5
14D2
330
18
100
AcDbEntity
  8
DRAW2
100
AcDbCircle
 10
76.70941554477855
 20
143.499970384739
 30
0.0
 40
2.0
100
AcDbArc
 50
270.0
 51
0.0
  0
LINE
  5
14D4
330
18
100
AcDbEntity
  8
DRAW2
100
AcDbLine
 10
58.45941554477864
 20
138.499970384739
 30
0.0
 11
104.4594155447786
 21
138.499970384739
 31
0.0
  0
LINE
  5
14D5
330
18
100
AcDbEntity
  8
DRAW2
100
AcDbLine
 10
78.70935554477847
 20
143.499970384739
 30
0.0
 11
78.70935554477847
 21
177.7315803847391
 31
0.0
  0
ARC
  5
14D6
330
18
100
AcDbEntity
  8
DRAW2
100
AcDbCircle
 10
59.20935554477847
 20
140.499970384739
 30
0.0
 40
2.0
100
AcDbArc
 50
180.0000099999992
 51
270.0
  0
ARC
  5
14D7
330
18
100
AcDbEntity
  8
DRAW2
100
AcDbCircle
 10
59.20935554477847
 20
140.499970384739
 30
0.0
 40
2.0
100
AcDbArc
 50
179.9999900000006
 51
270.0
  0
LINE
  5
14D8
330
18
100
AcDbEntity
  8
DRAW2
100
AcDbLine
 10
78.70935554477847
 20
158.9999903847391
 30
0.0
 11
57.20935554477847
 21
158.9999903847391
 31
0.0
  0
LINE
  5
14E7
330
18
100
AcDbEntity
  8
DRAW2
100
AcDbLine
 10
81.70929554477851
 20
143.499970384739
 30
0.0
 11
81.70929554477851
 21
177.7315803847391
 31
0.0
  0
LINE
  5
14E8
330
18
100
AcDbEntity
  8
DRAW2
100
AcDbLine
 10
103.2093555447784
 20
157.999970384739
 30
0.0
 11
103.2093555447784
 21
138.4999703847391
 31
0.0
  0
ARC
  5
14E9
330
18
100
AcDbEntity
  8
DRAW2
100
AcDbCircle
 10
83.70935554477847
 20
143.499970384739
 30
0.0
 40
2.0
100
AcDbArc
 50
179.9999900000006
 51
270.0
  0
LINE
  5
14EA
330
18
100
AcDbEntity
  8
DRAW2
100
AcDbLine
 10
104.4594155447786
 20
131.8918826847498
 30
0.0
 11
104.4594155447786
 21
138.4999703847391
 31
0.0
  0
LINE
  5
14EB
330
18
100
AcDbEntity
  8
DRAW2
100
AcDbLine
 10
102.7617155447786
 20
127.7752103847392
 30
0.0
 11
100.8754855447786
 21
130.558730384739
 31
0.0
  0
ARC
  5
14EC
330
18
100
AcDbEntity
  8
DRAW2
100
AcDbCircle
 10
103.4194955447785
 20
130.251820384739
 30
0.0
 40
2.562481399999998
100
AcDbArc
 50
131.8034200000004
 51
173.1210799999995
  0
LINE
  5
14ED
330
18
100
AcDbEntity
  8
DRAW2
100
AcDbLine
 10
105.2093555447784
 20
158.9999903847391
 30
0.0
 11
81.70929554477851
 21
158.9999903847391
 31
0.0
  0
ARC
  5
14EE
330
18
100
AcDbEntity
  8
DRAW2
100
AcDbCircle
 10
104.2093555447784
 20
157.999970384739
 30
0.0
 40
1.0
100
AcDbArc
 50
90.00000299999769
 51
180.0000099999992
  0
ARC
  5
14EF
330
18
100
AcDbEntity
  8
DRAW2
100
AcDbCircle
 10
107.5093455447786
 20
160.9999903847391
 30
0.0
 40
2.0
100
AcDbArc
 50
179.9999900000006
 51
270.0
  0
LINE
  5
14FE
330
18
100
AcDbEntity
  8
DRAW2
100
AcDbLine
 10
103.2093555447784
 20
303.4999703847391
 30
0.0
 11
103.2093555447784
 21
283.9999703847391
 31
0.0
  0
LINE
  5
14FF
330
18
100
AcDbEntity
  8
DRAW2
100
AcDbLine
 10
78.70935554477847
 20
298.4999703847392
 30
0.0
 11
78.70935554477847
 21
264.2683703847391
 31
0.0
  0
LINE
  5
1500
330
18
100
AcDbEntity
  8
DRAW2
100
AcDbLine
 10
81.70929554477851
 20
298.4999703847392
 30
0.0
 11
81.70929554477851
 21
264.2683703847391
 31
0.0
  0
LINE
  5
1501
330
18
100
AcDbEntity
  8
DRAW2
100
AcDbLine
 10
78.70935554477847
 20
264.2683703847391
 30
0.0
 11
80.20935554477848
 21
258.6703503847392
 31
0.0
  0
LINE
  5
1506
330
18
100
AcDbEntity
  8
DRAW2
100
AcDbLine
 10
78.70935554477847
 20
282.9999703847391
 30
0.0
 11
57.20935554477847
 21
282.9999703847391
 31
0.0
  0
LINE
  5
1511
330
18
100
AcDbEntity
  8
DRAW2
100
AcDbLine
 10
81.70935554477848
 20
264.2683703847391
 30
0.0
 11
80.20935554477848
 21
258.6703203847391
 31
0.0
  0
LINE
  5
1512
330
18
100
AcDbEntity
  8
DRAW2
100
AcDbLine
 10
105.2093555447784
 20
282.9999703847391
 30
0.0
 11
81.70929554477851
 21
282.9999703847391
 31
0.0
  0
ARC
  5
1513
330
18
100
AcDbEntity
  8
DRAW2
100
AcDbCircle
 10
107.5093455447786
 20
281.0000003847391
 30
0.0
 40
2.0
100
AcDbArc
 50
90.00000299999769
 51
180.0000099999992
  0
ARC
  5
1514
330
18
100
AcDbEntity
  8
DRAW2
100
AcDbCircle
 10
104.2093555447784
 20
283.9999703847391
 30
0.0
 40
1.0
100
AcDbArc
 50
180.0000099999992
 51
270.0
  0
LINE
  5
1516
330
18
100
AcDbEntity
  8
DRAW2
100
AcDbLine
 10
59.45947554477871
 20
343.5000003847391
 30
0.0
 11
103.4594155447786
 21
343.5000003847391
 31
0.0
  0
ARC
  5
151A
330
18
100
AcDbEntity
  8
DRAW2
100
AcDbCircle
 10
76.70941554477855
 20
298.4999703847392
 30
0.0
 40
2.0
100
AcDbArc
 50
0.0
 51
90.00000299999769
  0
LINE
  5
151B
330
18
100
AcDbEntity
  8
DRAW2
100
AcDbLine
 10
58.45941554477864
 20
303.4999703847391
 30
0.0
 11
104.4594155447786
 21
303.4999703847391
 31
0.0
  0
LINE
  5
151C
330
18
100
AcDbEntity
  8
DRAW2
100
AcDbLine
 10
58.45941554477864
 20
342.5000003847391
 30
0.0
 11
58.45941554477864
 21
303.4999703847391
 31
0.0
  0
ARC
  5
151D
330
18
100
AcDbEntity
  8
DRAW2
100
AcDbCircle
 10
59.20935554477847
 20
301.5000003847391
 30
0.0
 40
2.0
100
AcDbArc
 50
90.00000299999769
 51
180.0000099999992
  0
ARC
  5
151E
330
18
100
AcDbEntity
  8
DRAW2
100
AcDbCircle
 10
59.45947554477871
 20
342.5000003847391
 30
0.0
 40
1.0
100
AcDbArc
 50
90.00000299999769
 51
180.0000099999992
  0
LINE
  5
1525
330
18
100
AcDbEntity
  8
DRAW2
100
AcDbLine
 10
104.4594155447786
 20
332.6106326847498
 30
0.0
 11
104.4594155447786
 21
324.7500003847391
 31
0.0
  0
LINE
  5
1528
330
18
100
AcDbEntity
  8
DRAW2
100
AcDbLine
 10
89.44622554477874
 20
323.4999703847392
 30
0.0
 11
104.4594155447786
 21
324.7499703847391
 31
0.0
  0
LINE
  5
1529
330
18
100
AcDbEntity
  8
DRAW2
100
AcDbLine
 10
89.44616554477866
 20
323.5000003847391
 30
0.0
 11
104.4593555447786
 21
322.2500003847391
 31
0.0
  0
ARC
  5
152A
330
18
100
AcDbEntity
  8
DRAW2
100
AcDbCircle
 10
83.70935554477847
 20
298.4999703847392
 30
0.0
 40
2.0
100
AcDbArc
 50
90.00000299999769
 51
180.0000099999992
  0
LINE
  5
152B
330
18
100
AcDbEntity
  8
DRAW2
100
AcDbLine
 10
102.7617155447786
 20
314.2247603847391
 30
0.0
 11
100.8754855447786
 21
311.4412203847392
 31
0.0
  0
ARC
  5
152C
330
18
100
AcDbEntity
  8
DRAW2
100
AcDbCircle
 10
103.4194955447785
 20
311.7481703847392
 30
0.0
 40
2.562481399999998
100
AcDbArc
 50
186.8789200000003
 51
228.1965799999993
  0
LINE
  5
152D
330
18
100
AcDbEntity
  8
DRAW2
100
AcDbLine
 10
104.4594155447786
 20
310.1080410847283
 30
0.0
 11
104.4594155447786
 21
303.4999703847391
 31
0.0
  0
LINE
  5
152E
330
18
100
AcDbEntity
  8
DRAW2
100
AcDbLine
 10
104.4594155447786
 20
322.2500003847391
 30
0.0
 11
104.4594155447786
 21
314.3893490847285
 31
0.0
  0
LINE
  5
1536
330
18
100
AcDbEntity
  8
DRAW2
100
AcDbLine
 10
104.4594155447786
 20
342.5000003847391
 30
0.0
 11
104.4594155447786
 21
336.8918826847501
 31
0.0
  0
LINE
  5
1537
330
18
100
AcDbEntity
  8
DRAW2
100
AcDbLine
 10
102.7617155447786
 20
332.775180384739
 30
0.0
 11
100.8754255447786
 21
335.5587503847392
 31
0.0
  0
ARC
  5
1538
330
18
100
AcDbEntity
  8
DRAW2
100
AcDbCircle
 10
103.4194955447785
 20
335.2518303847392
 30
0.0
 40
2.562481399999998
100
AcDbArc
 50
131.8034200000004
 51
173.1210799999995
  0
ARC
  5
1539
330
18
100
AcDbEntity
  8
DRAW2
100
AcDbCircle
 10
103.4594155447786
 20
342.5000003847391
 30
0.0
 40
1.0
100
AcDbArc
 50
0.0
 51
90.00000299999769
  0
LINE
  5
153A
330
18
100
AcDbEntity
  8
DRAW2
100
AcDbLine
 10
243.9594155447785
 20
119.499970384739
 30
0.0
 11
243.9594155447785
 21
133.999970384739
 31
0.0
  0
LINE
  5
153B
330
18
100
AcDbEntity
  8
DRAW2
100
AcDbLine
 10
268.9594155447785
 20
104.081570384739
 30
0.0
 11
268.9594155447785
 21
132.918380384739
 31
0.0
  0
LINE
  5
153C
330
18
100
AcDbEntity
  8
DRAW2
100
AcDbLine
 10
225.9594155447785
 20
119.499970384739
 30
0.0
 11
225.9594155447785
 21
138.4999703847391
 31
0.0
  0
LINE
  5
153D
330
18
100
AcDbEntity
  8
DRAW2
100
AcDbLine
 10
237.0311855447785
 20
119.499970384739
 30
0.0
 11
237.0311855447785
 21
129.999970384739
 31
0.0
  0
LINE
  5
153E
330
18
100
AcDbEntity
  8
DRAW2
100
AcDbLine
 10
179.9594155447785
 20
119.749990384739
 30
0.0
 11
179.9594155447785
 21
127.6105726847498
 31
0.0
  0
LINE
  5
1548
330
18
100
AcDbEntity
  8
DRAW2
100
AcDbLine
 10
255.2594655447787
 20
118.499990384739
 30
0.0
 11
243.9593555447787
 21
117.499990384739
 31
0.0
  0
LINE
  5
1549
330
18
100
AcDbEntity
  8
DRAW2
100
AcDbLine
 10
255.2593355447787
 20
118.499990384739
 30
0.0
 11
243.9594155447785
 21
119.499990384739
 31
0.0
  0
LINE
  5
154A
330
18
100
AcDbEntity
  8
DRAW2
100
AcDbLine
 10
266.8794555447786
 20
102.0831603847391
 30
0.0
 11
243.9594155447785
 21
102.9999603847391
 31
0.0
  0
LINE
  5
154B
330
18
100
AcDbEntity
  8
DRAW2
100
AcDbLine
 10
225.9594155447785
 20
101.4451777760434
 30
0.0
 11
249.9594155447785
 21
102.7599603847391
 31
0.0
  0
LINE
  5
154F
330
18
100
AcDbEntity
  8
DRAW2
100
AcDbLine
 10
179.9594155447785
 20
117.249970384739
 30
0.0
 11
142.2094155447785
 21
117.249970384739
 31
0.0
  0
LINE
  5
1550
330
18
100
AcDbEntity
  8
DRAW2
100
AcDbLine
 10
179.9594155447785
 20
119.749990384739
 30
0.0
 11
142.2094155447785
 21
119.749990384739
 31
0.0
  0
ARC
  5
1553
330
18
100
AcDbEntity
  8
DRAW2
100
AcDbCircle
 10
142.2094155447786
 20
-291.4173996152608
 30
0.0
 40
400.0
100
AcDbArc
 50
84.07544899999706
 51
90.00000000000003
  0
ARC
  5
1554
330
18
100
AcDbEntity
  8
DRAW2
100
AcDbCircle
 10
142.2094155447786
 20
-288.8253496152607
 30
0.0
 40
400.0
100
AcDbArc
 50
84.34032999999944
 51
90.00000000000003
  0
ARC
  5
1555
330
18
100
AcDbEntity
  8
DRAW2
100
AcDbCircle
 10
142.2094155447786
 20
-297.5000396152605
 30
0.0
 40
400.0
100
AcDbArc
 50
84.58465166861408
 51
90.00000000000003
  0
ARC
  5
1556
330
18
100
AcDbEntity
  8
DRAW2
100
AcDbCircle
 10
142.2094155447786
 20
-293.1066596152607
 30
0.0
 40
400.0
100
AcDbArc
 50
84.18912999999978
 51
90.00000000000003
  0
LINE
  5
1591
330
18
100
AcDbEntity
  8
DRAW2
100
AcDbLine
 10
210.4158355447785
 20
118.499970384739
 30
0.0
 11
225.9593555447787
 21
119.499970384739
 31
0.0
  0
LINE
  5
1592
330
18
100
AcDbEntity
  8
DRAW2
100
AcDbLine
 10
210.4158955447785
 20
118.499970384739
 30
0.0
 11
225.9594155447785
 21
117.499990384739
 31
0.0
  0
LINE
  5
1593
330
18
100
AcDbEntity
  8
DRAW2
100
AcDbLine
 10
210.7593711270652
 20
98.49997038473922
 30
0.0
 11
226.4594111270651
 21
98.49997038473922
 31
0.0
  0
ARC
  5
1594
330
18
100
AcDbEntity
  8
DRAW2
100
AcDbCircle
 10
215.4594111270651
 20
91.2802003847392
 30
0.0
 40
3.0000002
100
AcDbArc
 50
179.9999900000006
 51
270.0
  0
LINE
  5
1595
330
18
100
AcDbEntity
  8
DRAW2
100
AcDbLine
 10
180.4594111270651
 20
79.49999038473919
 30
0.0
 11
226.4594111270651
 21
79.49999038473919
 31
0.0
  0
LINE
  5
1596
330
18
100
AcDbEntity
  8
DRAW2
100
AcDbLine
 10
222.4594111270651
 20
88.28018038473917
 30
0.0
 11
184.4594111270651
 21
88.28018038473917
 31
0.0
  0
LINE
  5
1597
330
18
100
AcDbEntity
  8
DRAW2
100
AcDbLine
 10
182.4594111270651
 20
95.49999038473918
 30
0.0
 11
224.4593511270652
 21
95.49999038473918
 31
0.0
  0
LINE
  5
1598
330
18
100
AcDbEntity
  8
DRAW2
100
AcDbLine
 10
217.1676011270652
 20
64.49998038473919
 30
0.0
 11
189.7511511270651
 21
64.49998038473919
 31
0.0
  0
LINE
  5
1599
330
18
100
AcDbEntity
  8
DRAW2
100
AcDbLine
 10
194.4594111270651
 20
95.49999038473918
 30
0.0
 11
194.4594111270651
 21
91.2802003847392
 31
0.0
  0
LINE
  5
159A
330
18
100
AcDbEntity
  8
DRAW2
100
AcDbLine
 10
180.4594111270651
 20
79.49999038473919
 30
0.0
 11
180.4594111270651
 21
98.49997038473922
 31
0.0
  0
LINE
  5
159B
330
18
100
AcDbEntity
  8
DRAW2
100
AcDbLine
 10
188.2678211270652
 20
65.77745038473921
 30
0.0
 11
186.2094111270651
 21
79.49997038473918
 31
0.0
  0
ARC
  5
159C
330
18
100
AcDbEntity
  8
DRAW2
100
AcDbCircle
 10
189.7511511270651
 20
65.99996038473921
 30
0.0
 40
1.5000001
100
AcDbArc
 50
188.5307599999999
 51
270.0
  0
ARC
  5
159D
330
18
100
AcDbEntity
  8
DRAW2
100
AcDbCircle
 10
184.4594111270651
 20
84.28020038473921
 30
0.0
 40
4.0
100
AcDbArc
 50
90.00000299999769
 51
180.0000099999992
  0
ARC
  5
159E
330
18
100
AcDbEntity
  8
DRAW2
100
AcDbCircle
 10
191.4594111270651
 20
91.2802003847392
 30
0.0
 40
3.0000002
100
AcDbArc
 50
270.0
 51
0.0
  0
LINE
  5
15A2
330
18
100
AcDbEntity
  8
DRAW2
100
AcDbLine
 10
180.4594111270651
 20
98.49997038473917
 30
0.0
 11
196.1593911270652
 21
98.49997038473921
 31
0.0
  0
LINE
  5
15A3
330
18
100
AcDbEntity
  8
DRAW2
100
AcDbLine
 10
225.9594155447785
 20
99.4999703847392
 30
0.0
 11
210.3875711270652
 21
99.49997038473918
 31
0.0
  0
LINE
  5
15A4
330
18
100
AcDbEntity
  8
DRAW2
100
AcDbLine
 10
181.6106868654095
 20
109.2296122374577
 30
0.0
 11
183.4969168654095
 21
106.4460722374576
 31
0.0
  0
LINE
  5
15A5
330
18
100
AcDbEntity
  8
DRAW2
100
AcDbLine
 10
179.9594155447785
 20
99.49997038473917
 30
0.0
 11
179.9594155447785
 21
105.1080280847285
 31
0.0
  0
ARC
  5
15A6
330
18
100
AcDbEntity
  8
DRAW2
100
AcDbCircle
 10
180.9593555447786
 20
99.49997038473917
 30
0.0
 40
1.0
100
AcDbArc
 50
179.9999900000006
 51
270.0
  0
ARC
  5
15A7
330
18
100
AcDbEntity
  8
DRAW2
100
AcDbCircle
 10
182.4594111270651
 20
93.49999038473923
 30
0.0
 40
2.0
100
AcDbArc
 50
90.00000299999769
 51
180.0000099999992
  0
ARC
  5
15A8
330
18
100
AcDbEntity
  8
DRAW2
100
AcDbCircle
 10
180.9528468654094
 20
106.7529722374577
 30
0.0
 40
2.562481399999998
100
AcDbArc
 50
311.8034099999978
 51
353.1210799999994
  0
LINE
  5
15AA
330
18
100
AcDbEntity
  8
DRAW2
100
AcDbLine
 10
194.9725955447786
 20
118.499990384739
 30
0.0
 11
179.9594155447785
 21
119.749990384739
 31
0.0
  0
LINE
  5
15AB
330
18
100
AcDbEntity
  8
DRAW2
100
AcDbLine
 10
194.9726555447785
 20
118.499970384739
 30
0.0
 11
179.9594155447785
 21
117.249970384739
 31
0.0
  0
LINE
  5
15AC
330
18
100
AcDbEntity
  8
DRAW2
100
AcDbLine
 10
179.9594155447785
 20
109.3893380847283
 30
0.0
 11
179.9594155447785
 21
117.249970384739
 31
0.0
  0
LINE
  5
15AD
330
18
100
AcDbEntity
  8
DRAW2
100
AcDbLine
 10
200.0844111270651
 20
107.4999403847392
 30
0.0
 11
206.8344111270651
 21
107.4999403847392
 31
0.0
  0
LINE
  5
15AE
330
18
100
AcDbEntity
  8
DRAW2
100
AcDbLine
 10
199.4594111270651
 20
106.8749403847392
 30
0.0
 11
207.4594111270651
 21
106.8749403847392
 31
0.0
  0
LINE
  5
15B1
330
18
100
AcDbEntity
  8
DRAW2
100
AcDbLine
 10
209.4093611270652
 20
105.599990384739
 30
0.0
 11
197.5093311270652
 21
105.599990384739
 31
0.0
  0
ARC
  5
15B2
330
18
100
AcDbEntity
  8
DRAW2
100
AcDbCircle
 10
203.4594111270651
 20
94.69371038473923
 30
0.0
 40
10.90625399999999
100
AcDbArc
 50
71.48062800000198
 51
108.5193699999966
  0
LINE
  5
15B3
330
18
100
AcDbEntity
  8
DRAW2
100
AcDbLine
 10
200.0844111270651
 20
107.4999203847392
 30
0.0
 11
199.4594111270651
 21
106.8749603847392
 31
0.0
  0
LINE
  5
15B4
330
18
100
AcDbEntity
  8
DRAW2
100
AcDbLine
 10
196.5311811270651
 20
105.0352003847391
 30
0.0
 11
196.5311811270651
 21
99.09996038473924
 31
0.0
  0
LINE
  5
15B5
330
18
100
AcDbEntity
  8
DRAW2
100
AcDbLine
 10
199.9953011270651
 20
105.0352003847391
 30
0.0
 11
199.9953011270651
 21
99.09996038473924
 31
0.0
  0
LINE
  5
15B6
330
18
100
AcDbEntity
  8
DRAW2
100
AcDbLine
 10
197.5093911270651
 20
105.5999603847391
 30
0.0
 11
196.5311811270651
 21
105.0352203847392
 31
0.0
  0
ARC
  5
15B7
330
18
100
AcDbEntity
  8
DRAW2
100
AcDbCircle
 10
197.4463411270652
 20
99.5689903847392
 30
0.0
 40
6.031330099999999
100
AcDbArc
 50
64.99984400000115
 51
89.40087200000242
  0
LINE
  5
15B9
330
18
100
AcDbEntity
  8
DRAW2
100
AcDbLine
 10
199.4594111270651
 20
105.599990384739
 30
0.0
 11
199.4594111270651
 21
106.8749403847392
 31
0.0
  0
LINE
  5
15BA
330
18
100
AcDbEntity
  8
DRAW3
100
AcDbLine
 10
200.0844111270651
 20
105.599990384739
 30
0.0
 11
200.0844111270651
 21
107.4999403847392
 31
0.0
  0
LINE
  5
15BB
330
18
100
AcDbEntity
  8
DRAW2
100
AcDbLine
 10
206.8343511270652
 20
107.4999203847392
 30
0.0
 11
207.4594111270651
 21
106.8748603847392
 31
0.0
  0
LINE
  5
15BC
330
18
100
AcDbEntity
  8
DRAW2
100
AcDbLine
 10
210.3875711270652
 20
105.0352003847391
 30
0.0
 11
210.3875711270652
 21
99.09996038473924
 31
0.0
  0
LINE
  5
15BD
330
18
100
AcDbEntity
  8
DRAW2
100
AcDbLine
 10
209.4093611270652
 20
105.6000103847392
 30
0.0
 11
210.3876311270651
 21
105.0352203847392
 31
0.0
  0
LINE
  5
15BE
330
18
100
AcDbEntity
  8
DRAW2
100
AcDbLine
 10
206.9235211270652
 20
105.0352003847391
 30
0.0
 11
206.9235211270652
 21
99.09996038473924
 31
0.0
  0
ARC
  5
15BF
330
18
100
AcDbEntity
  8
DRAW2
100
AcDbCircle
 10
209.4724711270652
 20
99.5689903847392
 30
0.0
 40
6.031330099999999
100
AcDbArc
 50
90.59911900000095
 51
115.0001500000023
  0
LINE
  5
15C2
330
18
100
AcDbEntity
  8
DRAW2
100
AcDbLine
 10
207.4594111270651
 20
105.599990384739
 30
0.0
 11
207.4594111270651
 21
106.8749403847392
 31
0.0
  0
LINE
  5
15C3
330
18
100
AcDbEntity
  8
DRAW3
100
AcDbLine
 10
206.8344111270651
 20
105.599990384739
 30
0.0
 11
206.8344111270651
 21
107.4999403847392
 31
0.0
  0
LINE
  5
15C4
330
18
100
AcDbEntity
  8
DRAW2
100
AcDbLine
 10
226.4594111270651
 20
79.49999038473919
 30
0.0
 11
226.4594111270651
 21
98.49997038473922
 31
0.0
  0
LINE
  5
15C5
330
18
100
AcDbEntity
  8
DRAW2
100
AcDbLine
 10
212.4594111270651
 20
95.49999038473918
 30
0.0
 11
212.4594111270651
 21
91.2802003847392
 31
0.0
  0
LINE
  5
15C6
330
18
100
AcDbEntity
  8
DRAW2
100
AcDbLine
 10
218.6510611270651
 20
65.77746038473924
 30
0.0
 11
220.7094111270651
 21
79.49994038473921
 31
0.0
  0
ARC
  5
15C7
330
18
100
AcDbEntity
  8
DRAW2
100
AcDbCircle
 10
217.1676011270652
 20
65.99996038473921
 30
0.0
 40
1.5000001
100
AcDbArc
 50
270.0
 51
351.4692400000001
  0
ARC
  5
15C8
330
18
100
AcDbEntity
  8
DRAW2
100
AcDbCircle
 10
222.4594111270651
 20
84.28020038473921
 30
0.0
 40
4.0
100
AcDbArc
 50
0.0
 51
90.00000299999769
  0
LINE
  5
15C9
330
18
100
AcDbEntity
  8
DRAW2
100
AcDbLine
 10
225.9594155447785
 20
106.999970384739
 30
0.0
 11
237.0311855447785
 21
106.999970384739
 31
0.0
  0
LINE
  5
15CA
330
18
100
AcDbEntity
  8
DRAW2
100
AcDbLine
 10
225.9594155447785
 20
117.499970384739
 30
0.0
 11
243.9594155447785
 21
117.499970384739
 31
0.0
  0
LINE
  5
15CB
330
18
100
AcDbEntity
  8
DRAW2
100
AcDbLine
 10
225.9594155447785
 20
119.499970384739
 30
0.0
 11
243.9594155447785
 21
119.499970384739
 31
0.0
  0
LINE
  5
15CC
330
18
100
AcDbEntity
  8
DRAW2
100
AcDbLine
 10
225.9594155447785
 20
99.49997038473917
 30
0.0
 11
225.9594155447785
 21
117.499970384739
 31
0.0
  0
ARC
  5
15CD
330
18
100
AcDbEntity
  8
DRAW2
100
AcDbCircle
 10
224.9594155447785
 20
99.49997038473917
 30
0.0
 40
1.0
100
AcDbArc
 50
270.0
 51
0.0
  0
ARC
  5
15CE
330
18
100
AcDbEntity
  8
DRAW2
100
AcDbCircle
 10
224.4593511270652
 20
93.49999038473923
 30
0.0
 40
2.0
100
AcDbArc
 50
0.0
 51
90.00000299999769
  0
LINE
  5
15CF
330
18
100
AcDbEntity
  8
DRAW2
100
AcDbLine
 10
243.9594155447785
 20
102.999990384739
 30
0.0
 11
243.9594155447785
 21
117.499970384739
 31
0.0
  0
LINE
  5
15D0
330
18
100
AcDbEntity
  8
DRAW2
100
AcDbLine
 10
237.0311855447785
 20
106.999970384739
 30
0.0
 11
237.0311855447785
 21
117.499970384739
 31
0.0
  0
LINE
  5
15D1
330
18
100
AcDbEntity
  8
DRAW2
100
AcDbLine
 10
243.9594155447785
 20
102.9999603847391
 30
0.0
 11
237.0311855447785
 21
106.9999603847392
 31
0.0
  0
ARC
  5
15D4
330
18
100
AcDbEntity
  8
DRAW2
100
AcDbCircle
 10
266.9594155447785
 20
104.081570384739
 30
0.0
 40
2.0
100
AcDbArc
 50
267.7093900000012
 51
0.0
  0
LINE
  5
15D8
330
18
100
AcDbEntity
  8
DRAW2
100
AcDbLine
 10
266.8794555447786
 20
339.9168103847391
 30
0.0
 11
243.9593555447787
 21
339.0000003847391
 31
0.0
  0
LINE
  5
15D9
330
18
100
AcDbEntity
  8
DRAW2
100
AcDbLine
 10
225.9594155447785
 20
340.5547499983315
 30
0.0
 11
249.9594155447785
 21
339.2399603847391
 31
0.0
  0
LINE
  5
15DA
330
18
100
AcDbEntity
  8
DRAW2
100
AcDbLine
 10
255.2593955447785
 20
323.5000003847391
 30
0.0
 11
243.9593555447787
 21
324.5000003847391
 31
0.0
  0
LINE
  5
15DB
330
18
100
AcDbEntity
  8
DRAW2
100
AcDbLine
 10
255.2594655447787
 20
323.5000003847391
 30
0.0
 11
243.9594155447785
 21
322.5000003847391
 31
0.0
  0
LINE
  5
15DC
330
18
100
AcDbEntity
  8
DRAW2
100
AcDbLine
 10
243.9594155447785
 20
308.0000003847391
 30
0.0
 11
266.8794555447786
 21
307.0831903847391
 31
0.0
  0
LINE
  5
15DD
330
18
100
AcDbEntity
  8
DRAW2
100
AcDbLine
 10
225.9594155447785
 20
306.4451586456086
 30
0.0
 11
249.9594155447785
 21
307.7599203847392
 31
0.0
  0
LINE
  5
15E0
330
18
100
AcDbEntity
  8
DRAW2
100
AcDbLine
 10
243.9593555447787
 20
133.999970384739
 30
0.0
 11
266.8794555447786
 21
134.916760384739
 31
0.0
  0
LINE
  5
15E1
330
18
100
AcDbEntity
  8
DRAW2
100
AcDbLine
 10
225.9594155447785
 20
135.5547525586521
 30
0.0
 11
249.9594155447785
 21
134.2399803847391
 31
0.0
  0
ARC
  5
15E4
330
18
100
AcDbEntity
  8
DRAW2
100
AcDbCircle
 10
133.5094055447785
 20
249.0000003847391
 30
0.0
 40
9.999999650934148
100
AcDbArc
 50
123.3670142863356
 51
56.63298571366436
  0
ARC
  5
15E5
330
18
100
AcDbEntity
  8
DRAW2
100
AcDbCircle
 10
133.5094055447785
 20
249.0000003847391
 30
0.0
 40
11.99997000000001
100
AcDbArc
 50
117.2796866030426
 51
62.72031339695078
  0
LINE
  5
15E6
330
18
100
AcDbEntity
  8
DRAW2
100
AcDbLine
 10
228.2094455447785
 20
301.5000003847392
 30
0.0
 11
228.2094455447785
 21
140.4999703847391
 31
0.0
  0
LINE
  5
15E7
330
18
100
AcDbEntity
  8
DRAW2
100
AcDbLine
 10
180.2094455447785
 20
282.9999703847391
 30
0.0
 11
180.2094455447785
 21
158.9999903847391
 31
0.0
  0
LINE
  5
15E8
330
18
100
AcDbEntity
  8
DRAW2
100
AcDbLine
 10
179.2094155447785
 20
281.0000003847391
 30
0.0
 11
179.2094155447785
 21
160.9999903847391
 31
0.0
  0
LINE
  5
15E9
330
18
100
AcDbEntity
  8
DRAW2
100
AcDbLine
 10
155.8094555447786
 20
282.9999703847391
 30
0.0
 11
155.8094555447786
 21
158.9999903847391
 31
0.0
  0
LINE
  5
15EA
330
18
100
AcDbEntity
  8
DRAW2
100
AcDbLine
 10
157.1094455447784
 20
282.9999703847391
 30
0.0
 11
157.1094455447784
 21
158.9999903847391
 31
0.0
  0
ARC
  5
15EC
330
18
100
AcDbEntity
  8
DRAW2
100
AcDbCircle
 10
177.2094155447785
 20
160.9999903847391
 30
0.0
 40
2.0
100
AcDbArc
 50
270.0
 51
0.0
  0
LINE
  5
15ED
330
18
100
AcDbEntity
  8
DRAW2
100
AcDbLine
 10
180.2094455447785
 20
158.9999903847391
 30
0.0
 11
203.7094455447785
 21
158.9999903847391
 31
0.0
  0
ARC
  5
15EE
330
18
100
AcDbEntity
  8
DRAW2
100
AcDbCircle
 10
142.2094155447786
 20
534.5000003847391
 30
0.0
 40
400.0
100
AcDbArc
 50
270.0
 51
275.4153483313859
  0
ARC
  5
15EF
330
18
100
AcDbEntity
  8
DRAW2
100
AcDbCircle
 10
142.2094155447786
 20
530.1065703847391
 30
0.0
 40
400.0
100
AcDbArc
 50
270.0
 51
275.8108700000001
  0
ARC
  5
15F0
330
18
100
AcDbEntity
  8
DRAW2
100
AcDbCircle
 10
142.2094155447786
 20
528.4173603847391
 30
0.0
 40
400.0
100
AcDbArc
 50
270.0
 51
275.9245500000015
  0
ARC
  5
15F1
330
18
100
AcDbEntity
  8
DRAW2
100
AcDbCircle
 10
142.2094155447786
 20
525.8252603847392
 30
0.0
 40
400.0
100
AcDbArc
 50
270.0
 51
275.6596700000005
  0
LINE
  5
1614
330
18
100
AcDbEntity
  8
DRAW2
100
AcDbLine
 10
203.7093855447786
 20
177.7315703847392
 30
0.0
 11
205.2094455447785
 21
183.3296503847392
 31
0.0
  0
LINE
  5
1615
330
18
100
AcDbEntity
  8
DRAW2
100
AcDbLine
 10
206.7093855447786
 20
177.7315503847391
 30
0.0
 11
205.2093855447786
 21
183.3296703847391
 31
0.0
  0
LINE
  5
1616
330
18
100
AcDbEntity
  8
DRAW2
100
AcDbLine
 10
206.7094455447785
 20
158.9999903847391
 30
0.0
 11
228.2094455447785
 21
158.9999903847391
 31
0.0
  0
LINE
  5
1618
330
18
100
AcDbEntity
  8
DRAW2
100
AcDbLine
 10
226.2093855447786
 20
138.4999703847391
 30
0.0
 11
179.9594155447785
 21
138.499970384739
 31
0.0
  0
LINE
  5
1619
330
18
100
AcDbEntity
  8
DRAW2
100
AcDbLine
 10
203.7094455447785
 20
143.4999703847391
 30
0.0
 11
203.7094455447785
 21
177.7315803847392
 31
0.0
  0
LINE
  5
161A
330
18
100
AcDbEntity
  8
DRAW2
100
AcDbLine
 10
206.7094455447785
 20
143.4999703847391
 30
0.0
 11
206.7094455447785
 21
177.7315803847392
 31
0.0
  0
LINE
  5
161B
330
18
100
AcDbEntity
  8
DRAW2
100
AcDbLine
 10
182.2094455447785
 20
157.9999703847391
 30
0.0
 11
182.2094455447785
 21
138.4999703847391
 31
0.0
  0
LINE
  5
161C
330
18
100
AcDbEntity
  8
DRAW2
100
AcDbLine
 10
179.9594155447785
 20
138.499970384739
 30
0.0
 11
179.9594155447785
 21
131.8918826847498
 31
0.0
  0
LINE
  5
161D
330
18
100
AcDbEntity
  8
DRAW2
100
AcDbLine
 10
181.6571055447786
 20
127.7752103847392
 30
0.0
 11
183.5433355447786
 21
130.5587503847392
 31
0.0
  0
ARC
  5
161E
330
18
100
AcDbEntity
  8
DRAW2
100
AcDbCircle
 10
180.9992655447785
 20
130.251820384739
 30
0.0
 40
2.562481399999998
100
AcDbArc
 50
6.878919600000503
 51
48.19658800000089
  0
ARC
  5
161F
330
18
100
AcDbEntity
  8
DRAW2
100
AcDbCircle
 10
201.7094455447785
 20
143.4999703847391
 30
0.0
 40
2.0
100
AcDbArc
 50
270.0
 51
0.0
  0
ARC
  5
1620
330
18
100
AcDbEntity
  8
DRAW2
100
AcDbCircle
 10
208.7094455447785
 20
143.4999703847391
 30
0.0
 40
2.0
100
AcDbArc
 50
179.9999900000006
 51
270.0
  0
ARC
  5
1621
330
18
100
AcDbEntity
  8
DRAW2
100
AcDbCircle
 10
181.2094455447785
 20
157.9999703847391
 30
0.0
 40
1.0
100
AcDbArc
 50
0.0
 51
90.00000299999769
  0
LINE
  5
1622
330
18
100
AcDbEntity
  8
DRAW2
100
AcDbLine
 10
225.9594155447785
 20
129.999970384739
 30
0.0
 11
237.0311855447785
 21
129.999970384739
 31
0.0
  0
ARC
  5
1623
330
18
100
AcDbEntity
  8
DRAW2
100
AcDbCircle
 10
226.2093855447786
 20
140.499970384739
 30
0.0
 40
2.0
100
AcDbArc
 50
270.0
 51
0.0
  0
ARC
  5
1624
330
18
100
AcDbEntity
  8
DRAW2
100
AcDbCircle
 10
226.2093855447786
 20
140.4999703847391
 30
0.0
 40
2.0
100
AcDbArc
 50
270.0
 51
0.0
  0
LINE
  5
1625
330
18
100
AcDbEntity
  8
DRAW2
100
AcDbLine
 10
243.9594155447785
 20
134.0000003847391
 30
0.0
 11
237.0311855447785
 21
130.0000003847391
 31
0.0
  0
ARC
  5
1658
330
18
100
AcDbEntity
  8
DRAW2
100
AcDbCircle
 10
142.2094155447786
 20
739.4999403847393
 30
0.0
 40
400.0
100
AcDbArc
 50
270.000005000002
 51
275.4153483313859
  0
LINE
  5
1659
330
18
100
AcDbEntity
  8
DRAW2
100
AcDbLine
 10
179.9590552284591
 20
324.7500003847391
 30
0.0
 11
142.2094504513778
 21
324.7500003847391
 31
0.0
  0
LINE
  5
165A
330
18
100
AcDbEntity
  8
DRAW2
100
AcDbLine
 10
179.9594155447785
 20
322.2500003847391
 30
0.0
 11
142.2094504513777
 21
322.2500003847391
 31
0.0
  0
ARC
  5
165D
330
18
100
AcDbEntity
  8
DRAW2
100
AcDbCircle
 10
142.2094155447786
 20
-92.50001961526072
 30
0.0
 40
400.0
100
AcDbArc
 50
84.58465166861408
 51
89.99999499999798
  0
ARC
  5
165E
330
18
100
AcDbEntity
  8
DRAW2
100
AcDbCircle
 10
142.2094155447786
 20
735.1065703847392
 30
0.0
 40
400.0
100
AcDbArc
 50
270.000005000002
 51
275.8108700000001
  0
ARC
  5
165F
330
18
100
AcDbEntity
  8
DRAW2
100
AcDbCircle
 10
142.2094155447786
 20
733.417360384739
 30
0.0
 40
400.0
100
AcDbArc
 50
270.000005000002
 51
275.9245500000015
  0
ARC
  5
1660
330
18
100
AcDbEntity
  8
DRAW2
100
AcDbCircle
 10
142.2094155447786
 20
730.8253203847392
 30
0.0
 40
400.0
100
AcDbArc
 50
270.000005000002
 51
275.6596700000005
  0
ARC
  5
1661
330
18
100
AcDbEntity
  8
DRAW2
100
AcDbCircle
 10
142.2094155447786
 20
-88.10664661526084
 30
0.0
 40
400.0
100
AcDbArc
 50
84.18912999999978
 51
89.99999499999798
  0
ARC
  5
1662
330
18
100
AcDbEntity
  8
DRAW2
100
AcDbCircle
 10
142.2094155447786
 20
-86.41742161526076
 30
0.0
 40
400.0
100
AcDbArc
 50
84.07544899999706
 51
89.99999499999798
  0
ARC
  5
1663
330
18
100
AcDbEntity
  8
DRAW2
100
AcDbCircle
 10
142.2094155447786
 20
-83.82533861526075
 30
0.0
 40
400.0
100
AcDbArc
 50
84.34032999999944
 51
89.99999499999798
  0
ARC
  5
1664
330
18
100
AcDbEntity
  8
DRAW2
100
AcDbCircle
 10
177.2094155447785
 20
281.0000003847391
 30
0.0
 40
2.0
100
AcDbArc
 50
0.0
 51
90.00000299999769
  0
LINE
  5
1665
330
18
100
AcDbEntity
  8
DRAW2
100
AcDbLine
 10
180.2094455447785
 20
282.9999703847391
 30
0.0
 11
203.7094455447785
 21
282.9999703847391
 31
0.0
  0
LINE
  5
1666
330
18
100
AcDbEntity
  8
DRAW2
100
AcDbLine
 10
139.5094055447785
 20
275.5000003847391
 30
0.0
 11
139.5094055447785
 21
267.0000003847391
 31
0.0
  0
LINE
  5
1667
330
18
100
AcDbEntity
  8
DRAW2
100
AcDbLine
 10
137.5094055447785
 20
265.5000003847391
 30
0.0
 11
137.5094055447785
 21
276.0000003847391
 31
0.0
  0
ARC
  5
1668
330
18
100
AcDbEntity
  8
DRAW2
100
AcDbCircle
 10
131.0094055447785
 20
268.5000003847391
 30
0.0
 40
0.5
100
AcDbArc
 50
180.0
 51
270.0
  0
LINE
  5
1669
330
18
100
AcDbEntity
  8
DRAW2
100
AcDbLine
 10
127.5094055447785
 20
275.5000003847391
 30
0.0
 11
127.5094055447785
 21
267.0000003847391
 31
0.0
  0
LINE
  5
166A
330
18
100
AcDbEntity
  8
DRAW2
100
AcDbLine
 10
129.5094055447785
 20
265.5000003847391
 30
0.0
 11
129.5094055447785
 21
276.0000003847391
 31
0.0
  0
ARC
  5
166B
330
18
100
AcDbEntity
  8
DRAW2
100
AcDbCircle
 10
136.0094055447785
 20
268.5000003847391
 30
0.0
 40
0.5
100
AcDbArc
 50
270.0
 51
0.0
  0
LINE
  5
166C
330
18
100
AcDbEntity
  8
DRAW2
100
AcDbLine
 10
129.5094055447785
 20
267.0000003847391
 30
0.0
 11
126.5094055447785
 21
267.0000003847391
 31
0.0
  0
LINE
  5
166D
330
18
100
AcDbEntity
  8
DRAW2
100
AcDbLine
 10
131.8211432362684
 20
240.1597645067966
 30
0.0
 11
126.6976678532886
 21
243.1178043983463
 31
0.0
  0
LINE
  5
166E
330
18
100
AcDbEntity
  8
DRAW2
100
AcDbLine
 10
126.6976678532886
 20
254.882196371132
 30
0.0
 11
131.8211432362684
 21
257.8402362626817
 31
0.0
  0
CIRCLE
  5
166F
330
18
100
AcDbEntity
  8
DRAW2
100
AcDbCircle
 10
133.5094055447785
 20
249.0000003847391
 30
0.0
 40
8.25
  0
CIRCLE
  5
1670
330
18
100
AcDbEntity
  8
DRAW2
100
AcDbCircle
 10
133.5094055447785
 20
249.0000003847391
 30
0.0
 40
5.694887103024191
  0
CIRCLE
  5
1671
330
18
100
AcDbEntity
  8
DRAW3
100
AcDbCircle
 10
133.5094055447785
 20
249.0000003847391
 30
0.0
 40
6.578500006249998
  0
LINE
  5
1672
330
18
100
AcDbEntity
  8
DRAW2
100
AcDbLine
 10
140.5094055447785
 20
261.0000003847391
 30
0.0
 11
126.5094055447785
 21
261.0000003847391
 31
0.0
  0
ARC
  5
1673
330
18
100
AcDbEntity
  8
DRAW2
100
AcDbCircle
 10
133.5094055447785
 20
249.0000003847391
 30
0.0
 40
9.0
100
AcDbArc
 50
139.1881364537237
 51
160.8118635462789
  0
ARC
  5
1674
330
18
100
AcDbEntity
  8
DRAW2
100
AcDbCircle
 10
133.5094055447785
 20
249.0000003847391
 30
0.0
 40
9.0
100
AcDbArc
 50
199.188136453721
 51
220.811863546276
  0
LINE
  5
1675
330
18
100
AcDbEntity
  8
DRAW2
100
AcDbLine
 10
125.0094055447785
 20
246.0419604931893
 30
0.0
 11
125.0094055447785
 21
251.958040276289
 31
0.0
  0
ARC
  5
1676
330
18
100
AcDbEntity
  8
DRAW2
100
AcDbCircle
 10
126.5094055447785
 20
266.0000003847391
 30
0.0
 40
1.0
100
AcDbArc
 50
90.0
 51
180.0
  0
LINE
  5
1677
330
18
100
AcDbEntity
  8
DRAW2
100
AcDbLine
 10
128.0094055447785
 20
261.0000003847391
 30
0.0
 11
128.0094055447785
 21
256.5055538842043
 31
0.0
  0
ARC
  5
1678
330
18
100
AcDbEntity
  8
DRAW2
100
AcDbCircle
 10
126.5094055447785
 20
262.0000003847391
 30
0.0
 40
1.0
100
AcDbArc
 50
180.0
 51
270.0
  0
LINE
  5
1679
330
18
100
AcDbEntity
  8
DRAW2
100
AcDbLine
 10
125.5094055447785
 20
266.0000003847391
 30
0.0
 11
125.5094055447785
 21
262.0000003847391
 31
0.0
  0
ARC
  5
167A
330
18
100
AcDbEntity
  8
DRAW2
100
AcDbCircle
 10
126.5094055447785
 20
256.5055538842043
 30
0.0
 40
1.5
100
AcDbArc
 50
299.9999999999997
 51
0.0
  0
ARC
  5
167B
330
18
100
AcDbEntity
  8
DRAW2
100
AcDbCircle
 10
133.5094055447785
 20
249.0000003847391
 30
0.0
 40
9.0
100
AcDbArc
 50
19.18813645372107
 51
40.81186354627617
  0
LINE
  5
167C
330
18
100
AcDbEntity
  8
DRAW2
100
AcDbLine
 10
140.3211432362685
 20
243.1178043983464
 30
0.0
 11
135.1976678532886
 21
240.1597645067966
 31
0.0
  0
ARC
  5
167E
330
18
100
AcDbEntity
  8
DRAW2
100
AcDbCircle
 10
133.5094055447785
 20
249.0000003847391
 30
0.0
 40
9.0
100
AcDbArc
 50
259.1881364537226
 51
280.8118635462772
  0
CIRCLE
  5
167F
330
18
100
AcDbEntity
  8
DRAW2
100
AcDbCircle
 10
133.5094055447785
 20
249.0000003847391
 30
0.0
 40
3.0
  0
ARC
  5
1681
330
18
100
AcDbEntity
  8
DRAW2
100
AcDbCircle
 10
133.5094055447785
 20
249.0000003847391
 30
0.0
 40
9.0
100
AcDbArc
 50
319.1881364537238
 51
340.8118635462788
  0
LINE
  5
1682
330
18
100
AcDbEntity
  8
DRAW2
100
AcDbLine
 10
142.0094055447785
 20
251.958040276289
 30
0.0
 11
142.0094055447785
 21
246.0419604931893
 31
0.0
  0
LINE
  5
1683
330
18
100
AcDbEntity
  8
DRAW2
100
AcDbLine
 10
137.0094055447785
 20
265.0000003847391
 30
0.0
 11
136.4553129913891
 21
265.0000003847391
 31
0.0
  0
LINE
  5
1684
330
18
100
AcDbEntity
  8
DRAW2
100
AcDbLine
 10
136.5094055447785
 20
268.0000003847391
 30
0.0
 11
137.3427388781117
 21
265.5000003847391
 31
0.0
  0
LINE
  5
1685
330
18
100
AcDbEntity
  8
DRAW2
100
AcDbLine
 10
135.1976678532886
 20
257.8402362626817
 30
0.0
 11
140.3211432362685
 21
254.882196371132
 31
0.0
  0
LINE
  5
1686
330
18
100
AcDbEntity
  8
DRAW2
100
AcDbLine
 10
136.0094055447785
 20
268.0000003847391
 30
0.0
 11
131.0094055447785
 21
268.0000003847391
 31
0.0
  0
LINE
  5
1687
330
18
100
AcDbEntity
  8
DRAW2
100
AcDbLine
 10
131.3283239379587
 20
267.2944779041111
 30
0.0
 11
130.5634980981679
 21
265.0000003847391
 31
0.0
  0
LINE
  5
1688
330
18
100
AcDbEntity
  8
DRAW2
100
AcDbLine
 10
135.216145502573
 20
267.6363640211028
 30
0.0
 11
131.8026655869839
 21
267.6363640211028
 31
0.0
  0
ARC
  5
1689
330
18
100
AcDbEntity
  8
DRAW2
100
AcDbCircle
 10
131.8026655869839
 20
267.1363640211028
 30
0.0
 40
0.5
100
AcDbArc
 50
90.0
 51
161.5650511770763
  0
ARC
  5
168A
330
18
100
AcDbEntity
  8
DRAW2
100
AcDbCircle
 10
135.216145502573
 20
267.1363640211028
 30
0.0
 40
0.5
100
AcDbArc
 50
18.43494882292356
 51
90.0
  0
LINE
  5
168B
330
18
100
AcDbEntity
  8
DRAW2
100
AcDbLine
 10
130.5634980981679
 20
265.0000003847391
 30
0.0
 11
130.0094055447785
 21
265.0000003847391
 31
0.0
  0
LINE
  5
168C
330
18
100
AcDbEntity
  8
DRAW2
100
AcDbLine
 10
130.5094055447785
 20
268.0000003847391
 30
0.0
 11
129.6760722114451
 21
265.5000003847391
 31
0.0
  0
ARC
  5
168D
330
18
100
AcDbEntity
  8
DRAW2
100
AcDbCircle
 10
130.0094055447785
 20
265.5000003847391
 30
0.0
 40
0.5
100
AcDbArc
 50
180.0
 51
270.0
  0
ARC
  5
168E
330
18
100
AcDbEntity
  8
DRAW2
100
AcDbCircle
 10
133.5094055447785
 20
249.0000003847391
 30
0.0
 40
9.0
100
AcDbArc
 50
79.18813645372273
 51
100.8118635462772
  0
LINE
  5
168F
330
18
100
AcDbEntity
  8
DRAW2
100
AcDbLine
 10
135.6904871515984
 20
267.2944779041111
 30
0.0
 11
136.4553129913891
 21
265.0000003847391
 31
0.0
  0
LINE
  5
1690
330
18
100
AcDbEntity
  8
DRAW2
100
AcDbLine
 10
140.5094055447785
 20
267.0000003847391
 30
0.0
 11
137.5094055447785
 21
267.0000003847391
 31
0.0
  0
ARC
  5
1691
330
18
100
AcDbEntity
  8
DRAW2
100
AcDbCircle
 10
140.5094055447785
 20
266.0000003847391
 30
0.0
 40
1.0
100
AcDbArc
 50
0.0
 51
90.0
  0
ARC
  5
1692
330
18
100
AcDbEntity
  8
DRAW2
100
AcDbCircle
 10
137.0094055447785
 20
265.5000003847391
 30
0.0
 40
0.5
100
AcDbArc
 50
270.0
 51
0.0
  0
LINE
  5
1693
330
18
100
AcDbEntity
  8
DRAW2
100
AcDbLine
 10
139.0094055447785
 20
261.0000003847391
 30
0.0
 11
139.0094055447785
 21
256.5055538842043
 31
0.0
  0
ARC
  5
1694
330
18
100
AcDbEntity
  8
DRAW2
100
AcDbCircle
 10
140.5094055447785
 20
262.0000003847391
 30
0.0
 40
1.0
100
AcDbArc
 50
270.0
 51
0.0
  0
LINE
  5
1695
330
18
100
AcDbEntity
  8
DRAW2
100
AcDbLine
 10
141.5094055447785
 20
266.0000003847391
 30
0.0
 11
141.5094055447785
 21
262.0000003847391
 31
0.0
  0
ARC
  5
1696
330
18
100
AcDbEntity
  8
DRAW2
100
AcDbCircle
 10
140.5094055447785
 20
256.5055538842043
 30
0.0
 40
1.5
100
AcDbArc
 50
180.0
 51
240.0000000000002
  0
ARC
  5
1697
330
18
100
AcDbEntity
  8
DRAW2
100
AcDbCircle
 10
129.5094055447785
 20
277.0000003847391
 30
0.0
 40
1.0
100
AcDbArc
 50
90.0
 51
180.0
  0
LINE
  5
1698
330
18
100
AcDbEntity
  8
DRAW2
100
AcDbLine
 10
138.5094055447785
 20
276.5000003847391
 30
0.0
 11
128.5094055447785
 21
276.5000003847391
 31
0.0
  0
ARC
  5
1699
330
18
100
AcDbEntity
  8
DRAW2
100
AcDbCircle
 10
128.5094055447785
 20
275.5000003847391
 30
0.0
 40
1.0
100
AcDbArc
 50
90.0
 51
180.0
  0
LINE
  5
169A
330
18
100
AcDbEntity
  8
DRAW2
100
AcDbLine
 10
128.5094055447785
 20
277.0000003847391
 30
0.0
 11
128.5094055447785
 21
276.5000003847391
 31
0.0
  0
LINE
  5
169B
330
18
100
AcDbEntity
  8
DRAW2
100
AcDbLine
 10
137.5094055447785
 20
278.0000003847391
 30
0.0
 11
129.5094055447785
 21
278.0000003847391
 31
0.0
  0
LINE
  5
169C
330
18
100
AcDbEntity
  8
DRAW2
100
AcDbLine
 10
136.5094055447785
 20
268.5000003847391
 30
0.0
 11
136.5094055447785
 21
276.0000003847391
 31
0.0
  0
ARC
  5
169D
330
18
100
AcDbEntity
  8
DRAW2
100
AcDbCircle
 10
131.0094055447785
 20
276.0000003847391
 30
0.0
 40
0.5
100
AcDbArc
 50
90.0
 51
180.0
  0
ARC
  5
169E
330
18
100
AcDbEntity
  8
DRAW2
100
AcDbCircle
 10
130.0094055447785
 20
276.0000003847391
 30
0.0
 40
0.5
100
AcDbArc
 50
90.0
 51
180.0
  0
LINE
  5
169F
330
18
100
AcDbEntity
  8
DRAW2
100
AcDbLine
 10
130.5094055447785
 20
268.5000003847391
 30
0.0
 11
130.5094055447785
 21
276.0000003847391
 31
0.0
  0
ARC
  5
16A0
330
18
100
AcDbEntity
  8
DRAW2
100
AcDbCircle
 10
136.0094055447785
 20
276.0000003847391
 30
0.0
 40
0.5
100
AcDbArc
 50
0.0
 51
90.0
  0
ARC
  5
16A1
330
18
100
AcDbEntity
  8
DRAW2
100
AcDbCircle
 10
137.5094055447785
 20
277.0000003847391
 30
0.0
 40
1.0
100
AcDbArc
 50
0.0
 51
90.0
  0
LINE
  5
16A2
330
18
100
AcDbEntity
  8
DRAW2
100
AcDbLine
 10
138.5094055447785
 20
277.0000003847391
 30
0.0
 11
138.5094055447785
 21
276.5000003847391
 31
0.0
  0
ARC
  5
16A3
330
18
100
AcDbEntity
  8
DRAW2
100
AcDbCircle
 10
138.5094055447785
 20
275.5000003847391
 30
0.0
 40
1.0
100
AcDbArc
 50
0.0
 51
90.0
  0
ARC
  5
16A4
330
18
100
AcDbEntity
  8
DRAW2
100
AcDbCircle
 10
137.0094055447785
 20
276.0000003847391
 30
0.0
 40
0.5
100
AcDbArc
 50
0.0
 51
90.0
  0
LINE
  5
1709
330
18
100
AcDbEntity
  8
DRAW2
100
AcDbLine
 10
182.2094455447785
 20
303.4999703847391
 30
0.0
 11
182.2094455447785
 21
283.9999703847391
 31
0.0
  0
LINE
  5
170A
330
18
100
AcDbEntity
  8
DRAW2
100
AcDbLine
 10
203.7094455447785
 20
298.4999703847392
 30
0.0
 11
203.7094455447785
 21
264.2683703847392
 31
0.0
  0
LINE
  5
170B
330
18
100
AcDbEntity
  8
DRAW2
100
AcDbLine
 10
206.7094455447785
 20
298.4999703847392
 30
0.0
 11
206.7094455447785
 21
264.2683703847392
 31
0.0
  0
LINE
  5
170C
330
18
100
AcDbEntity
  8
DRAW2
100
AcDbLine
 10
206.7094455447785
 20
282.9999703847391
 30
0.0
 11
228.2094455447785
 21
282.9999703847391
 31
0.0
  0
LINE
  5
170D
330
18
100
AcDbEntity
  8
DRAW2
100
AcDbLine
 10
203.7093855447786
 20
264.2683703847392
 30
0.0
 11
205.2093855447786
 21
258.6703503847392
 31
0.0
  0
LINE
  5
170E
330
18
100
AcDbEntity
  8
DRAW2
100
AcDbLine
 10
206.7093855447786
 20
264.2684003847392
 30
0.0
 11
205.2093855447786
 21
258.6703203847391
 31
0.0
  0
ARC
  5
170F
330
18
100
AcDbEntity
  8
DRAW2
100
AcDbCircle
 10
181.2094455447785
 20
283.9999703847391
 30
0.0
 40
1.0
100
AcDbArc
 50
270.0
 51
0.0
  0
LINE
  5
1729
330
18
100
AcDbEntity
  8
DRAW2
100
AcDbLine
 10
180.9593555447786
 20
343.5000003847391
 30
0.0
 11
224.9594155447785
 21
343.5000003847391
 31
0.0
  0
LINE
  5
172A
330
18
100
AcDbEntity
  8
DRAW2
100
AcDbLine
 10
210.4157755447785
 20
323.5000003847391
 30
0.0
 11
225.9594755447786
 21
322.5000003847391
 31
0.0
  0
LINE
  5
172B
330
18
100
AcDbEntity
  8
DRAW2
100
AcDbLine
 10
210.4157755447785
 20
323.4999403847392
 30
0.0
 11
225.9594155447785
 21
324.4999403847391
 31
0.0
  0
LINE
  5
172C
330
18
100
AcDbEntity
  8
DRAW2
100
AcDbLine
 10
225.9594155447785
 20
303.4999703847391
 30
0.0
 11
179.9594155447785
 21
303.4999703847391
 31
0.0
  0
LINE
  5
172D
330
18
100
AcDbEntity
  8
DRAW2
100
AcDbLine
 10
179.9594155447785
 20
332.6106326847498
 30
0.0
 11
179.9594155447785
 21
324.7500003847391
 31
0.0
  0
LINE
  5
1730
330
18
100
AcDbEntity
  8
DRAW2
100
AcDbLine
 10
181.6571055447786
 20
314.2247903847392
 30
0.0
 11
183.5433955447785
 21
311.4412503847391
 31
0.0
  0
ARC
  5
1731
330
18
100
AcDbEntity
  8
DRAW2
100
AcDbCircle
 10
180.9992655447785
 20
311.7481703847392
 30
0.0
 40
2.562481399999998
100
AcDbArc
 50
311.8034099999978
 51
353.1210799999994
  0
LINE
  5
1732
330
18
100
AcDbEntity
  8
DRAW2
100
AcDbLine
 10
179.9594155447785
 20
303.4999703847391
 30
0.0
 11
179.9594155447785
 21
310.1080410847283
 31
0.0
  0
LINE
  5
1733
330
18
100
AcDbEntity
  8
DRAW2
100
AcDbLine
 10
194.9725955447786
 20
323.5000003847391
 30
0.0
 11
179.9594155447785
 21
322.2500003847391
 31
0.0
  0
LINE
  5
1734
330
18
100
AcDbEntity
  8
DRAW2
100
AcDbLine
 10
194.9725955447786
 20
323.4999703847392
 30
0.0
 11
179.9594155447785
 21
324.7499703847391
 31
0.0
  0
LINE
  5
1735
330
18
100
AcDbEntity
  8
DRAW2
100
AcDbLine
 10
179.9594155447785
 20
322.2500003847391
 30
0.0
 11
179.9594155447785
 21
314.3893490847285
 31
0.0
  0
ARC
  5
1736
330
18
100
AcDbEntity
  8
DRAW2
100
AcDbCircle
 10
201.7094455447785
 20
298.4999703847392
 30
0.0
 40
2.0
100
AcDbArc
 50
0.0
 51
90.00000299999769
  0
ARC
  5
1737
330
18
100
AcDbEntity
  8
DRAW2
100
AcDbCircle
 10
208.7094455447785
 20
298.4999703847392
 30
0.0
 40
2.0
100
AcDbArc
 50
90.00000299999769
 51
180.0000099999992
  0
LINE
  5
1739
330
18
100
AcDbEntity
  8
DRAW2
100
AcDbLine
 10
179.9594155447785
 20
342.5000003847391
 30
0.0
 11
179.9594155447785
 21
336.8918826847501
 31
0.0
  0
ARC
  5
173A
330
18
100
AcDbEntity
  8
DRAW2
100
AcDbCircle
 10
180.9992655447785
 20
335.2518303847392
 30
0.0
 40
2.562481399999998
100
AcDbArc
 50
6.878919600000503
 51
48.19658800000089
  0
LINE
  5
173B
330
18
100
AcDbEntity
  8
DRAW2
100
AcDbLine
 10
181.6571655447786
 20
332.7751503847391
 30
0.0
 11
183.5433955447785
 21
335.5586903847391
 31
0.0
  0
ARC
  5
173C
330
18
100
AcDbEntity
  8
DRAW2
100
AcDbCircle
 10
180.9593555447786
 20
342.5000003847391
 30
0.0
 40
1.0
100
AcDbArc
 50
90.00000299999769
 51
180.0000099999992
  0
LINE
  5
174D
330
18
100
AcDbEntity
  8
DRAW2
100
AcDbLine
 10
237.0311855447785
 20
334.9999703847391
 30
0.0
 11
237.0311855447785
 21
324.5000003847391
 31
0.0
  0
LINE
  5
174E
330
18
100
AcDbEntity
  8
DRAW2
100
AcDbLine
 10
225.9594155447785
 20
342.5000003847391
 30
0.0
 11
225.9594155447785
 21
324.5000003847391
 31
0.0
  0
LINE
  5
174F
330
18
100
AcDbEntity
  8
DRAW2
100
AcDbLine
 10
243.9594155447785
 20
338.9999703847391
 30
0.0
 11
243.9594155447785
 21
324.5000003847391
 31
0.0
  0
LINE
  5
1750
330
18
100
AcDbEntity
  8
DRAW2
100
AcDbLine
 10
225.9594155447785
 20
312.0000003847391
 30
0.0
 11
237.0311855447785
 21
312.0000003847391
 31
0.0
  0
LINE
  5
1751
330
18
100
AcDbEntity
  8
DRAW2
100
AcDbLine
 10
225.9594155447785
 20
324.5000003847391
 30
0.0
 11
243.9594155447785
 21
324.5000003847391
 31
0.0
  0
LINE
  5
1752
330
18
100
AcDbEntity
  8
DRAW2
100
AcDbLine
 10
225.9594155447785
 20
322.4999703847391
 30
0.0
 11
243.9594155447785
 21
322.4999703847391
 31
0.0
  0
LINE
  5
1753
330
18
100
AcDbEntity
  8
DRAW2
100
AcDbLine
 10
225.9594155447785
 20
322.4999703847391
 30
0.0
 11
225.9594155447785
 21
303.4999703847391
 31
0.0
  0
ARC
  5
1754
330
18
100
AcDbEntity
  8
DRAW2
100
AcDbCircle
 10
226.2093855447786
 20
301.5000003847392
 30
0.0
 40
2.0
100
AcDbArc
 50
0.0
 51
90.00000299999769
  0
LINE
  5
1755
330
18
100
AcDbEntity
  8
DRAW2
100
AcDbLine
 10
243.9594155447785
 20
322.4999703847391
 30
0.0
 11
243.9594155447785
 21
307.9999703847391
 31
0.0
  0
LINE
  5
1756
330
18
100
AcDbEntity
  8
DRAW2
100
AcDbLine
 10
243.9594155447785
 20
307.9999703847391
 30
0.0
 11
237.0311855447785
 21
311.9999703847391
 31
0.0
  0
LINE
  5
1757
330
18
100
AcDbEntity
  8
DRAW2
100
AcDbLine
 10
237.0311855447785
 20
322.4999703847391
 30
0.0
 11
237.0311855447785
 21
312.0000003847391
 31
0.0
  0
LINE
  5
1758
330
18
100
AcDbEntity
  8
DRAW2
100
AcDbLine
 10
225.9594155447785
 20
334.9999703847393
 30
0.0
 11
237.0311855447785
 21
334.9999703847391
 31
0.0
  0
ARC
  5
1759
330
18
100
AcDbEntity
  8
DRAW2
100
AcDbCircle
 10
224.9594155447785
 20
342.5000003847391
 30
0.0
 40
1.0
100
AcDbArc
 50
0.0
 51
90.00000299999769
  0
LINE
  5
175A
330
18
100
AcDbEntity
  8
DRAW2
100
AcDbLine
 10
243.9594155447785
 20
338.9999403847391
 30
0.0
 11
237.0312455447785
 21
334.9999403847391
 31
0.0
  0
ARC
  5
175F
330
18
100
AcDbEntity
  8
DRAW2
100
AcDbCircle
 10
266.9594155447785
 20
132.918380384739
 30
0.0
 40
2.0
100
AcDbArc
 50
0.0
 51
92.29060899999961
  0
LINE
  5
1764
330
18
100
AcDbEntity
  8
DRAW2
100
AcDbLine
 10
268.9594155447785
 20
337.9183703847392
 30
0.0
 11
268.9594155447785
 21
309.0815703847391
 31
0.0
  0
ARC
  5
1765
330
18
100
AcDbEntity
  8
DRAW2
100
AcDbCircle
 10
266.9594155447785
 20
309.0815703847391
 30
0.0
 40
2.0
100
AcDbArc
 50
267.7093900000012
 51
0.0
  0
ARC
  5
1766
330
18
100
AcDbEntity
  8
DRAW2
100
AcDbCircle
 10
266.9594155447785
 20
337.9183703847392
 30
0.0
 40
2.0
100
AcDbArc
 50
0.0
 51
92.29060899999961
  0
LINE
  5
1948
330
18
100
AcDbEntity
  8
DRAW2
100
AcDbLine
 10
482.5903274608708
 20
360.8749403847391
 30
0.0
 11
482.5903274608708
 21
353.6000103847391
 31
0.0
  0
LINE
  5
1949
330
18
100
AcDbEntity
  8
DRAW3
100
AcDbLine
 10
481.9652974608708
 20
361.5000003847391
 30
0.0
 11
481.9652974608708
 21
353.6000103847391
 31
0.0
  0
LINE
  5
194A
330
18
100
AcDbEntity
  8
DRAW2
100
AcDbLine
 10
474.5903574608708
 20
360.8749403847391
 30
0.0
 11
474.5903574608707
 21
353.6000103847391
 31
0.0
  0
LINE
  5
194B
330
18
100
AcDbEntity
  8
DRAW3
100
AcDbLine
 10
475.2153274608708
 20
361.5000003847391
 30
0.0
 11
475.2153274608708
 21
353.6000103847391
 31
0.0
  0
LINE
  5
194D
330
18
100
AcDbEntity
  8
DRAW3
100
AcDbLine
 10
531.9652974608709
 20
361.5000003847391
 30
0.0
 11
531.9652974608709
 21
353.6000103847391
 31
0.0
  0
LINE
  5
194E
330
18
100
AcDbEntity
  8
DRAW2
100
AcDbLine
 10
532.5903274608708
 20
360.8749403847391
 30
0.0
 11
532.5903274608708
 21
353.6000103847391
 31
0.0
  0
LINE
  5
194F
330
18
100
AcDbEntity
  8
DRAW3
100
AcDbLine
 10
525.2153574608708
 20
361.5000003847391
 30
0.0
 11
525.2153574608708
 21
353.6000103847391
 31
0.0
  0
LINE
  5
1950
330
18
100
AcDbEntity
  8
DRAW2
100
AcDbLine
 10
524.5903574608708
 20
360.8749403847391
 30
0.0
 11
524.5903574608708
 21
353.6000103847391
 31
0.0
  0
CIRCLE
  5
195B
330
18
100
AcDbEntity
  8
DRAW2
100
AcDbCircle
 10
503.5903274608708
 20
118.499990384739
 30
0.0
 40
7.5
  0
CIRCLE
  5
195C
330
18
100
AcDbEntity
  8
DRAW3
100
AcDbCircle
 10
503.5903274608708
 20
118.499990384739
 30
0.0
 40
10.5
  0
CIRCLE
  5
195D
330
18
100
AcDbEntity
  8
DRAW2
100
AcDbCircle
 10
503.5903274608708
 20
118.499990384739
 30
0.0
 40
9.300001099999999
  0
CIRCLE
  5
195E
330
18
100
AcDbEntity
  8
DRAW2
100
AcDbCircle
 10
503.5903274608708
 20
118.499990384739
 30
0.0
 40
16.5
  0
LINE
  5
195F
330
18
100
AcDbEntity
  8
DRAW2
100
AcDbLine
 10
537.5903274608709
 20
99.49997038473924
 30
0.0
 11
537.5903274608709
 21
139.4999703847392
 31
0.0
  0
LINE
  5
1960
330
18
100
AcDbEntity
  8
DRAW2
100
AcDbLine
 10
469.5902974608708
 20
99.49997038473924
 30
0.0
 11
469.5902974608708
 21
139.4999703847392
 31
0.0
  0
ARC
  5
1964
330
18
100
AcDbEntity
  8
DRAW2
100
AcDbCircle
 10
503.5903274608708
 20
-361.5000596152608
 30
0.0
 40
458.0
100
AcDbArc
 50
79.08063399999686
 51
100.9193599999999
  0
LINE
  5
1965
330
18
100
AcDbEntity
  8
DRAW2
100
AcDbLine
 10
413.5902974608709
 20
79.49999038473919
 30
0.0
 11
593.5903374608707
 21
79.49999038473919
 31
0.0
  0
LINE
  5
1966
330
18
100
AcDbEntity
  8
DRAW2
100
AcDbLine
 10
429.5902974608709
 20
95.49999038473918
 30
0.0
 11
469.5902974608708
 21
95.49999038473918
 31
0.0
  0
ARC
  5
1969
330
18
100
AcDbEntity
  8
DRAW2
100
AcDbCircle
 10
432.3825774608708
 20
65.99997038473919
 30
0.0
 40
1.5000001
100
AcDbArc
 50
188.5307599999999
 51
270.0
  0
ARC
  5
196A
330
18
100
AcDbEntity
  8
DRAW2
100
AcDbCircle
 10
426.5902674608708
 20
93.02391038473922
 30
0.0
 40
3.0000002
100
AcDbArc
 50
279.6150800000002
 51
0.0
  0
ARC
  5
196B
330
18
100
AcDbEntity
  8
DRAW2
100
AcDbCircle
 10
417.5902974608709
 20
84.28020038473921
 30
0.0
 40
4.0
100
AcDbArc
 50
100.9193599999999
 51
180.0000099999993
  0
LINE
  5
196C
330
18
100
AcDbEntity
  8
DRAW2
100
AcDbLine
 10
413.5902974608709
 20
79.49999038473919
 30
0.0
 11
413.5902974608709
 21
84.28020038473921
 31
0.0
  0
LINE
  5
196D
330
18
100
AcDbEntity
  8
DRAW2
100
AcDbLine
 10
430.8992074608708
 20
65.77747038473922
 30
0.0
 11
428.8408274608707
 21
79.4999703847392
 31
0.0
  0
LINE
  5
196E
330
18
100
AcDbEntity
  8
DRAW2
100
AcDbLine
 10
429.5902974608709
 20
95.49999038473918
 30
0.0
 11
429.5902974608709
 21
93.02391038473922
 31
0.0
  0
LINE
  5
196F
330
18
100
AcDbEntity
  8
DRAW2
100
AcDbLine
 10
432.3825774608708
 20
64.4999803847392
 30
0.0
 11
459.7990774608708
 21
64.4999803847392
 31
0.0
  0
LINE
  5
1970
330
18
100
AcDbEntity
  8
DRAW2
100
AcDbLine
 10
461.2825074608708
 20
65.77747038473922
 30
0.0
 11
463.3408574608707
 21
79.49996038473919
 31
0.0
  0
ARC
  5
1971
330
18
100
AcDbEntity
  8
DRAW2
100
AcDbCircle
 10
459.7990774608708
 20
65.99997038473919
 30
0.0
 40
1.5000001
100
AcDbArc
 50
270.0
 51
351.4692300000002
  0
ARC
  5
1972
330
18
100
AcDbEntity
  8
DRAW2
100
AcDbCircle
 10
449.3403274608708
 20
96.21253038473923
 30
0.0
 40
9.3874664
100
AcDbArc
 50
69.74455099999772
 51
110.2554700000023
  0
LINE
  5
1973
330
18
100
AcDbEntity
  8
DRAW2
100
AcDbLine
 10
438.3403274608708
 20
95.49999038473918
 30
0.0
 11
453.8403274608707
 21
95.49999038473918
 31
0.0
  0
LINE
  5
1974
330
18
100
AcDbEntity
  8
DRAW2
100
AcDbLine
 10
438.3403274608708
 20
97.09999038473918
 30
0.0
 11
453.8403274608707
 21
97.09999038473918
 31
0.0
  0
LINE
  5
1975
330
18
100
AcDbEntity
  8
DRAW2
100
AcDbLine
 10
439.5903274608707
 20
105.599990384739
 30
0.0
 11
452.5903274608707
 21
105.599990384739
 31
0.0
  0
LINE
  5
1976
330
18
100
AcDbEntity
  8
DRAW2
100
AcDbLine
 10
438.7903374608709
 20
99.09999038473921
 30
0.0
 11
453.3903174608709
 21
99.09999038473921
 31
0.0
  0
LINE
  5
1977
330
18
100
AcDbEntity
  8
DRAW2
100
AcDbLine
 10
442.7153274608707
 20
107.4999403847392
 30
0.0
 11
449.4653274608707
 21
107.4999403847392
 31
0.0
  0
LINE
  5
1978
330
18
100
AcDbEntity
  8
DRAW2
100
AcDbLine
 10
442.0902974608709
 20
106.8749403847392
 30
0.0
 11
450.0903274608709
 21
106.8749403847392
 31
0.0
  0
ARC
  5
1979
330
18
100
AcDbEntity
  8
DRAW2
100
AcDbCircle
 10
442.8403274608708
 20
96.21253038473923
 30
0.0
 40
9.3874664
100
AcDbArc
 50
69.74455099999772
 51
110.2554700000023
  0
LINE
  5
197A
330
18
100
AcDbEntity
  8
DRAW2
100
AcDbLine
 10
438.3403274608708
 20
97.09999038473918
 30
0.0
 11
438.3403274608708
 21
95.49999038473918
 31
0.0
  0
LINE
  5
197B
330
18
100
AcDbEntity
  8
DRAW2
100
AcDbLine
 10
438.7903374608709
 20
99.09999038473921
 30
0.0
 11
438.7903374608709
 21
97.09999038473918
 31
0.0
  0
LINE
  5
197C
330
18
100
AcDbEntity
  8
DRAW2
100
AcDbLine
 10
439.5903274608707
 20
105.599990384739
 30
0.0
 11
439.5903274608707
 21
99.09999038473921
 31
0.0
  0
LINE
  5
197D
330
18
100
AcDbEntity
  8
DRAW2
100
AcDbLine
 10
445.2243274608709
 20
99.09998038473922
 30
0.0
 11
446.3790374608707
 21
97.09997038473922
 31
0.0
  0
LINE
  5
197E
330
18
100
AcDbEntity
  8
DRAW2
100
AcDbLine
 10
445.8016774608709
 20
99.0999603847392
 30
0.0
 11
446.9563674608708
 21
97.09997038473922
 31
0.0
  0
LINE
  5
197F
330
18
100
AcDbEntity
  8
DRAW2
100
AcDbLine
 10
446.0903274608709
 20
105.0194603847392
 30
0.0
 11
446.0903274608709
 21
99.09999038473921
 31
0.0
  0
LINE
  5
1980
330
18
100
AcDbEntity
  8
DRAW2
100
AcDbLine
 10
442.7152974608708
 20
107.4999203847392
 30
0.0
 11
442.0903274608709
 21
106.8749603847392
 31
0.0
  0
LINE
  5
1981
330
18
100
AcDbEntity
  8
DRAW3
100
AcDbLine
 10
442.7153274608707
 20
105.599990384739
 30
0.0
 11
442.7153274608707
 21
107.4999403847392
 31
0.0
  0
LINE
  5
1982
330
18
100
AcDbEntity
  8
DRAW2
100
AcDbLine
 10
442.0902974608709
 20
105.599990384739
 30
0.0
 11
442.0902974608709
 21
106.8749403847392
 31
0.0
  0
LINE
  5
1983
330
18
100
AcDbEntity
  8
DRAW2
100
AcDbLine
 10
453.8403274608707
 20
97.09999038473918
 30
0.0
 11
453.8403274608707
 21
95.49999038473918
 31
0.0
  0
LINE
  5
1984
330
18
100
AcDbEntity
  8
DRAW2
100
AcDbLine
 10
453.3903174608709
 20
99.09999038473921
 30
0.0
 11
453.3903174608709
 21
97.09999038473918
 31
0.0
  0
LINE
  5
1985
330
18
100
AcDbEntity
  8
DRAW2
100
AcDbLine
 10
452.5903274608707
 20
105.599990384739
 30
0.0
 11
452.5903274608707
 21
99.09999038473921
 31
0.0
  0
LINE
  5
1986
330
18
100
AcDbEntity
  8
DRAW2
100
AcDbLine
 10
449.4652674608707
 20
107.4999203847392
 30
0.0
 11
450.0902974608709
 21
106.8749103847392
 31
0.0
  0
LINE
  5
1987
330
18
100
AcDbEntity
  8
DRAW3
100
AcDbLine
 10
449.4653274608707
 20
105.599990384739
 30
0.0
 11
449.4653274608707
 21
107.4999403847392
 31
0.0
  0
LINE
  5
1988
330
18
100
AcDbEntity
  8
DRAW2
100
AcDbLine
 10
450.0903274608709
 20
105.599990384739
 30
0.0
 11
450.0903274608709
 21
106.8749403847392
 31
0.0
  0
LINE
  5
1989
330
18
100
AcDbEntity
  8
DRAW2
100
AcDbLine
 10
469.5902974608708
 20
98.49997038473922
 30
0.0
 11
537.5903274608709
 21
98.49997038473922
 31
0.0
  0
LINE
  5
198A
330
18
100
AcDbEntity
  8
DRAW2
100
AcDbLine
 10
532.8903474608709
 20
118.4999703847392
 30
0.0
 11
520.0696974608709
 21
117.6751403847392
 31
0.0
  0
LINE
  5
198B
330
18
100
AcDbEntity
  8
DRAW2
100
AcDbLine
 10
532.8903174608708
 20
118.499990384739
 30
0.0
 11
520.0696974608709
 21
119.3248003847392
 31
0.0
  0
LINE
  5
198C
330
18
100
AcDbEntity
  8
DRAW2
100
AcDbLine
 10
474.2903374608708
 20
118.4999703847392
 30
0.0
 11
487.1109274608707
 21
117.6751603847392
 31
0.0
  0
LINE
  5
198D
330
18
100
AcDbEntity
  8
DRAW2
100
AcDbLine
 10
474.2903674608708
 20
118.4999703847392
 30
0.0
 11
487.1109574608707
 21
119.3247803847391
 31
0.0
  0
ARC
  5
198E
330
18
100
AcDbEntity
  8
DRAW2
100
AcDbCircle
 10
470.5902974608709
 20
99.49997038473924
 30
0.0
 40
1.0
100
AcDbArc
 50
179.9999900000006
 51
270.0
  0
LINE
  5
198F
330
18
100
AcDbEntity
  8
DRAW2
100
AcDbLine
 10
469.5902974608708
 20
98.49997038473922
 30
0.0
 11
469.5902974608708
 21
95.49999038473918
 31
0.0
  0
ARC
  5
1990
330
18
100
AcDbEntity
  8
DRAW2
100
AcDbCircle
 10
503.5903274608708
 20
102.4999903847392
 30
0.0
 40
1.0
100
AcDbArc
 50
208.4611299999989
 51
331.5388700000009
  0
ARC
  5
1992
330
18
100
AcDbEntity
  8
DRAW2
100
AcDbCircle
 10
564.3403274608707
 20
96.21253038473923
 30
0.0
 40
9.3874664
100
AcDbArc
 50
69.74455099999772
 51
110.2554700000023
  0
LINE
  5
1993
330
18
100
AcDbEntity
  8
DRAW2
100
AcDbLine
 10
553.3403274608708
 20
95.49999038473918
 30
0.0
 11
568.8403274608709
 21
95.49999038473918
 31
0.0
  0
LINE
  5
1994
330
18
100
AcDbEntity
  8
DRAW2
100
AcDbLine
 10
553.3403274608708
 20
97.09999038473918
 30
0.0
 11
568.8403274608709
 21
97.09999038473918
 31
0.0
  0
LINE
  5
1995
330
18
100
AcDbEntity
  8
DRAW2
100
AcDbLine
 10
554.5903274608709
 20
105.599990384739
 30
0.0
 11
567.5903274608709
 21
105.599990384739
 31
0.0
  0
LINE
  5
1996
330
18
100
AcDbEntity
  8
DRAW2
100
AcDbLine
 10
553.7903374608709
 20
99.09999038473921
 30
0.0
 11
568.3903174608707
 21
99.09999038473921
 31
0.0
  0
LINE
  5
1997
330
18
100
AcDbEntity
  8
DRAW2
100
AcDbLine
 10
557.7153274608709
 20
107.4999403847392
 30
0.0
 11
564.4653274608709
 21
107.4999403847392
 31
0.0
  0
LINE
  5
1998
330
18
100
AcDbEntity
  8
DRAW2
100
AcDbLine
 10
557.0903274608708
 20
106.8749403847392
 30
0.0
 11
565.0903074608707
 21
106.8749403847392
 31
0.0
  0
LINE
  5
1999
330
18
100
AcDbEntity
  8
DRAW2
100
AcDbLine
 10
574.7990674608709
 20
64.50008038473921
 30
0.0
 11
547.3826074608707
 21
64.50008038473921
 31
0.0
  0
LINE
  5
199A
330
18
100
AcDbEntity
  8
DRAW2
100
AcDbLine
 10
577.5903074608707
 20
95.49999038473918
 30
0.0
 11
537.5903274608709
 21
95.49999038473918
 31
0.0
  0
ARC
  5
199B
330
18
100
AcDbEntity
  8
DRAW2
100
AcDbCircle
 10
547.3826074608707
 20
66.00007038473918
 30
0.0
 40
1.5000001
100
AcDbArc
 50
188.5307599999999
 51
270.0
  0
LINE
  5
199C
330
18
100
AcDbEntity
  8
DRAW2
100
AcDbLine
 10
545.8992074608707
 20
65.77756038473921
 30
0.0
 11
543.8408274608709
 21
79.5000703847392
 31
0.0
  0
ARC
  5
199D
330
18
100
AcDbEntity
  8
DRAW2
100
AcDbCircle
 10
536.5902974608709
 20
99.49997038473924
 30
0.0
 40
1.0
100
AcDbArc
 50
270.0
 51
0.0
  0
LINE
  5
199E
330
18
100
AcDbEntity
  8
DRAW2
100
AcDbLine
 10
537.5903274608709
 20
98.49997038473922
 30
0.0
 11
537.5903274608709
 21
95.49999038473918
 31
0.0
  0
ARC
  5
199F
330
18
100
AcDbEntity
  8
DRAW2
100
AcDbCircle
 10
557.8403274608708
 20
96.21253038473923
 30
0.0
 40
9.3874664
100
AcDbArc
 50
69.74455099999772
 51
110.2554700000023
  0
LINE
  5
19A0
330
18
100
AcDbEntity
  8
DRAW2
100
AcDbLine
 10
553.3403274608708
 20
97.09999038473918
 30
0.0
 11
553.3403274608708
 21
95.49999038473918
 31
0.0
  0
LINE
  5
19A1
330
18
100
AcDbEntity
  8
DRAW2
100
AcDbLine
 10
553.7903374608709
 20
99.09999038473921
 30
0.0
 11
553.7903374608709
 21
97.09999038473918
 31
0.0
  0
LINE
  5
19A2
330
18
100
AcDbEntity
  8
DRAW2
100
AcDbLine
 10
554.5903274608709
 20
105.599990384739
 30
0.0
 11
554.5903274608709
 21
99.09999038473921
 31
0.0
  0
LINE
  5
19A3
330
18
100
AcDbEntity
  8
DRAW2
100
AcDbLine
 10
560.2243274608707
 20
99.09998038473922
 30
0.0
 11
561.3790374608709
 21
97.09997038473922
 31
0.0
  0
LINE
  5
19A4
330
18
100
AcDbEntity
  8
DRAW2
100
AcDbLine
 10
560.8016774608707
 20
99.0999603847392
 30
0.0
 11
561.9563674608708
 21
97.09997038473922
 31
0.0
  0
LINE
  5
19A5
330
18
100
AcDbEntity
  8
DRAW2
100
AcDbLine
 10
561.0903274608708
 20
105.0194603847392
 30
0.0
 11
561.0903274608708
 21
99.09999038473921
 31
0.0
  0
LINE
  5
19A6
330
18
100
AcDbEntity
  8
DRAW2
100
AcDbLine
 10
557.7153274608709
 20
107.4999203847392
 30
0.0
 11
557.0903374608708
 21
106.8749603847392
 31
0.0
  0
LINE
  5
19A7
330
18
100
AcDbEntity
  8
DRAW3
100
AcDbLine
 10
557.7153274608709
 20
105.599990384739
 30
0.0
 11
557.7153274608709
 21
107.4999403847392
 31
0.0
  0
LINE
  5
19A8
330
18
100
AcDbEntity
  8
DRAW2
100
AcDbLine
 10
557.0903274608708
 20
105.599990384739
 30
0.0
 11
557.0903274608708
 21
106.8749403847392
 31
0.0
  0
ARC
  5
19A9
330
18
100
AcDbEntity
  8
DRAW2
100
AcDbCircle
 10
580.5903274608708
 20
93.02391038473922
 30
0.0
 40
3.0000002
100
AcDbArc
 50
179.9999900000006
 51
260.3849199999998
  0
LINE
  5
19AA
330
18
100
AcDbEntity
  8
DRAW2
100
AcDbLine
 10
576.2824774608707
 20
65.77756038473921
 30
0.0
 11
578.3408574608707
 21
79.50009038473919
 31
0.0
  0
ARC
  5
19AB
330
18
100
AcDbEntity
  8
DRAW2
100
AcDbCircle
 10
574.7990674608709
 20
66.00007038473918
 30
0.0
 40
1.5000001
100
AcDbArc
 50
270.0
 51
351.4692400000001
  0
ARC
  5
19AC
330
18
100
AcDbEntity
  8
DRAW2
100
AcDbCircle
 10
589.5903374608707
 20
84.28020038473921
 30
0.0
 40
4.0
100
AcDbArc
 50
0.0
 51
79.08063399999686
  0
LINE
  5
19AD
330
18
100
AcDbEntity
  8
DRAW2
100
AcDbLine
 10
593.5903374608707
 20
79.49999038473919
 30
0.0
 11
593.5903374608707
 21
84.28020038473921
 31
0.0
  0
LINE
  5
19AE
330
18
100
AcDbEntity
  8
DRAW2
100
AcDbLine
 10
568.8403274608709
 20
97.09999038473918
 30
0.0
 11
568.8403274608709
 21
95.49999038473918
 31
0.0
  0
LINE
  5
19AF
330
18
100
AcDbEntity
  8
DRAW2
100
AcDbLine
 10
568.3903174608707
 20
99.09999038473921
 30
0.0
 11
568.3903174608707
 21
97.09999038473918
 31
0.0
  0
LINE
  5
19B0
330
18
100
AcDbEntity
  8
DRAW2
100
AcDbLine
 10
567.5903274608709
 20
105.599990384739
 30
0.0
 11
567.5903274608709
 21
99.09999038473921
 31
0.0
  0
LINE
  5
19B1
330
18
100
AcDbEntity
  8
DRAW2
100
AcDbLine
 10
564.4652974608709
 20
107.4999203847392
 30
0.0
 11
565.0903074608707
 21
106.8749103847392
 31
0.0
  0
LINE
  5
19B2
330
18
100
AcDbEntity
  8
DRAW3
100
AcDbLine
 10
564.4653274608709
 20
105.599990384739
 30
0.0
 11
564.4653274608709
 21
107.4999403847392
 31
0.0
  0
LINE
  5
19B3
330
18
100
AcDbEntity
  8
DRAW2
100
AcDbLine
 10
565.0903074608707
 20
105.599990384739
 30
0.0
 11
565.0903074608707
 21
106.8749403847392
 31
0.0
  0
LINE
  5
19B4
330
18
100
AcDbEntity
  8
DRAW2
100
AcDbLine
 10
577.5903074608707
 20
95.49999038473918
 30
0.0
 11
577.5903074608707
 21
93.02391038473922
 31
0.0
  0
CIRCLE
  5
19B5
330
18
100
AcDbEntity
  8
DRAW2
100
AcDbCircle
 10
472.5902974608708
 20
167.3064003847391
 30
0.0
 40
7.8000002
  0
CIRCLE
  5
19B6
330
18
100
AcDbEntity
  8
DRAW2
100
AcDbCircle
 10
472.5902974608708
 20
167.3064003847391
 30
0.0
 40
8.500000999999999
  0
CIRCLE
  5
19B7
330
18
100
AcDbEntity
  8
DRAW2
100
AcDbCircle
 10
472.5902974608708
 20
274.6935703847392
 30
0.0
 40
7.8000002
  0
CIRCLE
  5
19B8
330
18
100
AcDbEntity
  8
DRAW2
100
AcDbCircle
 10
472.5902974608708
 20
274.6935703847392
 30
0.0
 40
8.500000999999999
  0
ARC
  5
19BB
330
18
100
AcDbEntity
  8
DRAW2
100
AcDbCircle
 10
472.5902974608708
 20
167.3064003847391
 30
0.0
 40
9.0
100
AcDbArc
 50
358.5367700000003
 51
149.2683699999979
  0
ARC
  5
19BC
330
18
100
AcDbEntity
  8
DRAW2
100
AcDbCircle
 10
462.2754474608709
 20
173.4386003847392
 30
0.0
 40
3.0000002
100
AcDbArc
 50
229.0203299999983
 51
329.2683799999986
  0
ARC
  5
19BF
330
18
100
AcDbEntity
  8
DRAW2
100
AcDbCircle
 10
472.5902974608708
 20
274.6935703847392
 30
0.0
 40
9.0
100
AcDbArc
 50
210.7316300000019
 51
1.463230500000539
  0
ARC
  5
19C0
330
18
100
AcDbEntity
  8
DRAW2
100
AcDbCircle
 10
462.2754474608709
 20
268.5613403847392
 30
0.0
 40
3.0000002
100
AcDbArc
 50
30.73162000000135
 51
130.9796700000015
  0
ARC
  5
19C3
330
18
100
AcDbEntity
  8
DRAW2
100
AcDbCircle
 10
503.5903274608708
 20
221.0000003847392
 30
0.0
 40
71.0
100
AcDbArc
 50
119.1626999999999
 51
240.8373099999989
  0
LINE
  5
19C5
330
18
100
AcDbEntity
  8
DRAW2
100
AcDbLine
 10
473.1559718738044
 20
219.5000003847392
 30
0.0
 11
450.4644471355202
 21
219.5000003847391
 31
0.0
  0
LINE
  5
19CA
330
18
100
AcDbEntity
  8
DRAW2
100
AcDbLine
 10
473.2149338984978
 20
222.4999703847391
 30
0.0
 11
450.4644522063935
 21
222.4999703847391
 31
0.0
  0
LINE
  5
19CC
330
18
100
AcDbEntity
  8
DRAW2
100
AcDbLine
 10
469.5903274608708
 20
141.4999903847391
 30
0.0
 11
443.4077374608709
 21
183.329640384739
 31
0.0
  0
LINE
  5
19CD
330
18
100
AcDbEntity
  8
DRAW2
100
AcDbLine
 10
469.5903274608708
 20
300.4999703847392
 30
0.0
 11
443.4077074608707
 21
258.6703203847391
 31
0.0
  0
ARC
  5
19CE
330
18
100
AcDbEntity
  8
DRAW2
100
AcDbCircle
 10
503.5903274608708
 20
221.0000003847392
 30
0.0
 40
66.0
100
AcDbArc
 50
130.9796700000015
 51
169.0203300000008
  0
LINE
  5
19D1
330
18
100
AcDbEntity
  8
DRAW2
100
AcDbLine
 10
432.5902974608708
 20
239.0000003847391
 30
0.0
 11
432.5902974608708
 21
258.9999703847392
 31
0.0
  0
ARC
  5
19D2
330
18
100
AcDbEntity
  8
DRAW2
100
AcDbCircle
 10
503.5903274608708
 20
221.0000003847392
 30
0.0
 40
66.0
100
AcDbArc
 50
190.9796699999992
 51
229.0203299999983
  0
ARC
  5
19D6
330
18
100
AcDbEntity
  8
DRAW2
100
AcDbCircle
 10
441.7435574608709
 20
209.0009503847392
 30
0.0
 40
3.0000002
100
AcDbArc
 50
90.73161799999901
 51
190.9796699999992
  0
CIRCLE
  5
19E3
330
18
100
AcDbEntity
  8
DRAW2
100
AcDbCircle
 10
441.5903274608708
 20
221.0000003847392
 30
0.0
 40
7.8000002
  0
CIRCLE
  5
19E4
330
18
100
AcDbEntity
  8
DRAW2
100
AcDbCircle
 10
441.5903274608708
 20
221.0000003847392
 30
0.0
 40
8.500000999999999
  0
ARC
  5
19E5
330
18
100
AcDbEntity
  8
DRAW2
100
AcDbCircle
 10
441.5903274608708
 20
221.0000003847392
 30
0.0
 40
9.0
100
AcDbArc
 50
270.731620000002
 51
89.26837999999797
  0
CIRCLE
  5
19E6
330
18
100
AcDbEntity
  8
DRAW3
100
AcDbCircle
 10
441.5903274608708
 20
221.0000003847392
 30
0.0
 40
3.375
  0
CIRCLE
  5
19E7
330
18
100
AcDbEntity
  8
DRAW2
100
AcDbCircle
 10
441.5903274608708
 20
221.0000003847392
 30
0.0
 40
4.0
  0
CIRCLE
  5
19E8
330
18
100
AcDbEntity
  8
DRAW2
100
AcDbCircle
 10
441.5903274608708
 20
221.0000003847392
 30
0.0
 40
6.000000499999998
  0
LINE
  5
19E9
330
18
100
AcDbEntity
  8
DRAW2
100
AcDbLine
 10
435.5902974608708
 20
217.5358603847391
 30
0.0
 11
435.5902974608708
 21
224.4641103847392
 31
0.0
  0
LINE
  5
19EA
330
18
100
AcDbEntity
  8
DRAW2
100
AcDbLine
 10
447.5903274608707
 20
224.4641103847392
 30
0.0
 11
447.5903274608707
 21
217.5358603847391
 31
0.0
  0
LINE
  5
19EB
330
18
100
AcDbEntity
  8
DRAW2
100
AcDbLine
 10
441.5903574608708
 20
214.0717503847391
 30
0.0
 11
435.5903274608707
 21
217.5358603847391
 31
0.0
  0
LINE
  5
19EC
330
18
100
AcDbEntity
  8
DRAW2
100
AcDbLine
 10
447.5903274608707
 20
217.5358903847392
 30
0.0
 11
441.5903274608708
 21
214.071810384739
 31
0.0
  0
ARC
  5
19ED
330
18
100
AcDbEntity
  8
DRAW2
100
AcDbCircle
 10
441.7435574608709
 20
232.9989903847391
 30
0.0
 40
3.0000002
100
AcDbArc
 50
169.0203300000008
 51
269.2683799999978
  0
LINE
  5
19EE
330
18
100
AcDbEntity
  8
DRAW2
100
AcDbLine
 10
435.5903274608707
 20
224.464080384739
 30
0.0
 11
441.5903274608708
 21
227.928160384739
 31
0.0
  0
ARC
  5
19EF
330
18
100
AcDbEntity
  8
DRAW2
100
AcDbCircle
 10
434.5903274608708
 20
239.0000003847391
 30
0.0
 40
2.0
100
AcDbArc
 50
179.9999900000006
 51
265.0670199999995
  0
LINE
  5
19F0
330
18
100
AcDbEntity
  8
DRAW2
100
AcDbLine
 10
441.5903274608708
 20
227.928160384739
 30
0.0
 11
447.5903274608707
 21
224.4640503847391
 31
0.0
  0
LINE
  5
19FD
330
18
100
AcDbEntity
  8
DRAW2
100
AcDbLine
 10
426.0903274608708
 20
276.5000003847391
 30
0.0
 11
397.5903274608708
 21
276.5000003847391
 31
0.0
  0
LINE
  5
19FE
330
18
100
AcDbEntity
  8
DRAW2
100
AcDbLine
 10
397.4114420226709
 20
267.8507068280483
 30
0.0
 11
413.0903274608709
 21
265.0000003847391
 31
0.0
  0
ARC
  5
1A00
330
18
100
AcDbEntity
  8
DRAW2
100
AcDbCircle
 10
397.5903274608708
 20
268.8345767381481
 30
0.0
 40
1.0
100
AcDbArc
 50
180.0
 51
259.6951535312371
  0
ARC
  5
1A01
330
18
100
AcDbEntity
  8
DRAW2
100
AcDbCircle
 10
397.5903274608708
 20
275.5000003847391
 30
0.0
 40
1.0
100
AcDbArc
 50
90.0
 51
180.0
  0
LINE
  5
1A02
330
18
100
AcDbEntity
  8
DRAW2
100
AcDbLine
 10
396.5903274608708
 20
275.5000003847391
 30
0.0
 11
396.5903274608708
 21
268.8345767381481
 31
0.0
  0
LINE
  5
1A03
330
18
100
AcDbEntity
  8
DRAW2
100
AcDbLine
 10
430.312849749735
 20
242.2568917062661
 30
0.0
 11
432.5902974608708
 21
242.3280619472391
 31
0.0
  0
LINE
  5
1A04
330
18
100
AcDbEntity
  8
DRAW3
100
AcDbLine
 10
431.8803274608708
 20
243.1618753847391
 30
0.0
 11
432.5902974608708
 21
243.1840619472392
 31
0.0
  0
LINE
  5
1A05
330
18
100
AcDbEntity
  8
DRAW3
100
AcDbLine
 10
431.8803274608708
 20
254.8381253847392
 30
0.0
 11
432.5902974608708
 21
254.8159388222392
 31
0.0
  0
LINE
  5
1A06
330
18
100
AcDbEntity
  8
DRAW2
100
AcDbLine
 10
430.312849749735
 20
255.7431090632122
 30
0.0
 11
432.5902974608708
 21
255.671938822239
 31
0.0
  0
LINE
  5
1A07
330
18
100
AcDbEntity
  8
DRAW2
100
AcDbLine
 10
415.0903274608707
 20
275.5000003847391
 30
0.0
 11
415.0903274608707
 21
267.0000003847391
 31
0.0
  0
LINE
  5
1A08
330
18
100
AcDbEntity
  8
DRAW2
100
AcDbLine
 10
427.0903274608707
 20
275.5000003847391
 30
0.0
 11
427.0903274608707
 21
267.0000003847391
 31
0.0
  0
LINE
  5
1A09
330
18
100
AcDbEntity
  8
DRAW2
100
AcDbLine
 10
428.8833547718668
 20
239.8144695126556
 30
0.0
 11
411.8403274608708
 21
239.8144695126556
 31
0.0
  0
ARC
  5
1A0A
330
18
100
AcDbEntity
  8
DRAW2
100
AcDbCircle
 10
414.9825388005461
 20
256.6855312568226
 30
0.0
 40
1.5
100
AcDbArc
 50
44.74283294284053
 51
90.0
  0
LINE
  5
1A0B
330
18
100
AcDbEntity
  8
DRAW2
100
AcDbLine
 10
428.8833547718668
 20
245.3513705049076
 30
0.0
 11
411.7937051519811
 21
245.3513705049076
 31
0.0
  0
LINE
  5
1A0C
330
18
100
AcDbEntity
  8
DRAW2
100
AcDbLine
 10
428.8833547718668
 20
243.4630993924872
 30
0.0
 11
411.7937051519811
 21
243.4630993924872
 31
0.0
  0
LINE
  5
1A0D
330
18
100
AcDbEntity
  8
DRAW2
100
AcDbLine
 10
428.8833547718668
 20
252.6486302645708
 30
0.0
 11
411.7937051519811
 21
252.6486302645708
 31
0.0
  0
LINE
  5
1A0E
330
18
100
AcDbEntity
  8
DRAW2
100
AcDbLine
 10
428.8833547718668
 20
254.536901376991
 30
0.0
 11
411.7937051519811
 21
254.536901376991
 31
0.0
  0
LINE
  5
1A0F
330
18
100
AcDbEntity
  8
DRAW2
100
AcDbLine
 10
428.8833547718668
 20
239.7500003847392
 30
0.0
 11
411.8403274608708
 21
239.7500003847392
 31
0.0
  0
LINE
  5
1A10
330
18
100
AcDbEntity
  8
DRAW2
100
AcDbLine
 10
428.0903274608708
 20
261.0000003847391
 30
0.0
 11
414.0903274608707
 21
261.0000003847391
 31
0.0
  0
LINE
  5
1A11
330
18
100
AcDbEntity
  8
DRAW2
100
AcDbLine
 10
428.0903274608708
 20
267.0000003847391
 30
0.0
 11
414.0903274608707
 21
267.0000003847391
 31
0.0
  0
ARC
  5
1A12
330
18
100
AcDbEntity
  8
DRAW2
100
AcDbCircle
 10
414.0903274608707
 20
259.7500003847391
 30
0.0
 40
1.5
100
AcDbArc
 50
270.0
 51
0.0
  0
LINE
  5
1A13
330
18
100
AcDbEntity
  8
DRAW2
100
AcDbLine
 10
411.7937051519811
 20
254.536901376991
 30
0.0
 11
411.7937051519811
 21
252.6486302645708
 31
0.0
  0
LINE
  5
1A14
330
18
100
AcDbEntity
  8
DRAW2
100
AcDbLine
 10
410.8894252548351
 20
251.958040276289
 30
0.0
 11
410.8894252548351
 21
254.882196371132
 31
0.0
  0
LINE
  5
1A15
330
18
100
AcDbEntity
  8
DRAW2
100
AcDbLine
 10
407.7912296669066
 20
251.958040276289
 30
0.0
 11
407.7912296669066
 21
254.882196371132
 31
0.0
  0
LINE
  5
1A16
330
18
100
AcDbEntity
  8
DRAW2
100
AcDbLine
 10
407.5903274608708
 20
257.2500003847391
 30
0.0
 11
407.5903274608708
 21
240.7500003847391
 31
0.0
  0
LINE
  5
1A17
330
18
100
AcDbEntity
  8
DRAW2
100
AcDbLine
 10
411.0903274608707
 20
240.5000003847391
 30
0.0
 11
411.0903274608708
 21
257.5000003847392
 31
0.0
  0
LINE
  5
1A18
330
18
100
AcDbEntity
  8
DRAW2
100
AcDbLine
 10
400.5903274608709
 20
257.2500003847391
 30
0.0
 11
400.5903274608709
 21
240.7500003847391
 31
0.0
  0
LINE
  5
1A19
330
18
100
AcDbEntity
  8
DRAW2
100
AcDbLine
 10
400.5903274608709
 20
240.7500003847391
 30
0.0
 11
407.5903274608708
 21
240.7500003847391
 31
0.0
  0
LINE
  5
1A1A
330
18
100
AcDbEntity
  8
DRAW2
100
AcDbLine
 10
411.7937051519811
 20
243.4630993924872
 30
0.0
 11
411.7937051519811
 21
245.3513705049076
 31
0.0
  0
LINE
  5
1A1B
330
18
100
AcDbEntity
  8
DRAW2
100
AcDbLine
 10
411.8403274608708
 20
239.7500003847392
 30
0.0
 11
411.8403274608708
 21
239.8144695126556
 31
0.0
  0
ARC
  5
1A1C
330
18
100
AcDbEntity
  8
DRAW2
100
AcDbCircle
 10
413.7435894392201
 20
241.663402265464
 30
0.0
 40
2.653480447004878
100
AcDbArc
 50
137.2937208246235
 51
224.1704540829918
  0
ARC
  5
1A1D
330
18
100
AcDbEntity
  8
DRAW2
100
AcDbCircle
 10
420.9052820370946
 20
249.0000003847391
 30
0.0
 40
9.814954576223676
100
AcDbArc
 50
158.1769149490549
 51
201.823085050945
  0
LINE
  5
1A1E
330
18
100
AcDbEntity
  8
DRAW2
100
AcDbLine
 10
411.0903274608707
 20
240.5000003847391
 30
0.0
 11
411.8403274608708
 21
239.7500003847392
 31
0.0
  0
ARC
  5
1A1F
330
18
100
AcDbEntity
  8
DRAW2
100
AcDbCircle
 10
377.7431244836348
 20
249.0000003847391
 30
0.0
 40
33.27802961136473
100
AcDbArc
 50
354.9003235056021
 51
5.099676494397858
  0
LINE
  5
1A20
330
18
100
AcDbEntity
  8
DRAW2
100
AcDbLine
 10
407.7912296669066
 20
246.0419604931893
 30
0.0
 11
410.8894252548351
 21
246.0419604931893
 31
0.0
  0
LINE
  5
1A21
330
18
100
AcDbEntity
  8
DRAW2
100
AcDbLine
 10
410.8894252548351
 20
246.0419604931893
 30
0.0
 11
410.8894252548351
 21
243.1178043983463
 31
0.0
  0
ARC
  5
1A22
330
18
100
AcDbEntity
  8
DRAW2
100
AcDbCircle
 10
402.5652069411503
 20
241.6387844525714
 30
0.0
 40
8.455947153849152
100
AcDbArc
 50
349.9266465340007
 51
10.12656948217045
  0
LINE
  5
1A23
330
18
100
AcDbEntity
  8
DRAW2
100
AcDbLine
 10
407.7912296669066
 20
243.1178043983463
 30
0.0
 11
410.8894252548351
 21
243.1178043983463
 31
0.0
  0
LINE
  5
1A24
330
18
100
AcDbEntity
  8
DRAW2
100
AcDbLine
 10
407.7912296669066
 20
246.0419604931893
 30
0.0
 11
407.7912296669066
 21
243.1178043983463
 31
0.0
  0
ARC
  5
1A25
330
18
100
AcDbEntity
  8
DRAW2
100
AcDbCircle
 10
416.0718137987895
 20
241.6426505175691
 30
0.0
 40
8.412313860415329
100
AcDbArc
 50
169.8470989734811
 51
190.1529010265188
  0
LINE
  5
1A26
330
18
100
AcDbEntity
  8
DRAW2
100
AcDbLine
 10
407.7912296669066
 20
240.0000003847392
 30
0.0
 11
407.5903274608708
 21
240.7500003847391
 31
0.0
  0
LINE
  5
1A27
330
18
100
AcDbEntity
  8
DRAW2
100
AcDbLine
 10
407.7912296669066
 20
240.1597645067966
 30
0.0
 11
407.7912296669066
 21
240.0000003847392
 31
0.0
  0
LINE
  5
1A28
330
18
100
AcDbEntity
  8
DRAW2
100
AcDbLine
 10
410.8894252548351
 20
240.1597645067966
 30
0.0
 11
410.8894252548351
 21
240.0000003847392
 31
0.0
  0
LINE
  5
1A29
330
18
100
AcDbEntity
  8
DRAW2
100
AcDbLine
 10
410.8894252548351
 20
240.0000003847392
 30
0.0
 11
411.0903274608708
 21
240.7500003847391
 31
0.0
  0
LINE
  5
1A2A
330
18
100
AcDbEntity
  8
DRAW2
100
AcDbLine
 10
407.7912296669066
 20
240.1597645067966
 30
0.0
 11
410.8908025515972
 21
240.1597645067966
 31
0.0
  0
LINE
  5
1A2B
330
18
100
AcDbEntity
  8
DRAW2
100
AcDbLine
 10
407.7912296669066
 20
240.0000003847392
 30
0.0
 11
410.8894252548351
 21
240.0000003847392
 31
0.0
  0
LINE
  5
1A2C
330
18
100
AcDbEntity
  8
DRAW2
100
AcDbLine
 10
407.7912296669066
 20
251.958040276289
 30
0.0
 11
410.8894252548351
 21
251.958040276289
 31
0.0
  0
ARC
  5
1A2D
330
18
100
AcDbEntity
  8
DRAW2
100
AcDbCircle
 10
440.9375304381068
 20
249.0000003847391
 30
0.0
 40
33.27802961136473
100
AcDbArc
 50
174.900323505602
 51
185.0996764943978
  0
LINE
  5
1A2E
330
18
100
AcDbEntity
  8
DRAW2
100
AcDbLine
 10
411.8403274608708
 20
239.7500003847392
 30
0.0
 11
411.0903274608707
 21
240.5000003847391
 31
0.0
  0
LINE
  5
1A2F
330
18
100
AcDbEntity
  8
DRAW2
100
AcDbLine
 10
400.5903274608709
 20
257.2500003847391
 30
0.0
 11
407.5903274608708
 21
257.2500003847391
 31
0.0
  0
LINE
  5
1A30
330
18
100
AcDbEntity
  8
DRAW2
100
AcDbLine
 10
414.9825388005461
 20
258.1855312568226
 30
0.0
 11
411.8403274608708
 21
258.1855312568226
 31
0.0
  0
LINE
  5
1A31
330
18
100
AcDbEntity
  8
DRAW2
100
AcDbLine
 10
411.8403274608708
 20
258.2500003847391
 30
0.0
 11
411.8403274608708
 21
258.1855312568226
 31
0.0
  0
ARC
  5
1A32
330
18
100
AcDbEntity
  8
DRAW2
100
AcDbCircle
 10
413.7435894392201
 20
256.3365985040143
 30
0.0
 40
2.653480447004878
100
AcDbArc
 50
135.8295459170079
 51
222.7062791753763
  0
ARC
  5
1A33
330
18
100
AcDbEntity
  8
DRAW2
100
AcDbCircle
 10
402.6088411229523
 20
256.3573502519092
 30
0.0
 40
8.412313860415105
100
AcDbArc
 50
349.8470989734812
 51
10.15290102651886
  0
LINE
  5
1A34
330
18
100
AcDbEntity
  8
DRAW2
100
AcDbLine
 10
410.8894252548351
 20
258.0000003847391
 30
0.0
 11
411.0903274608708
 21
257.2500003847391
 31
0.0
  0
LINE
  5
1A35
330
18
100
AcDbEntity
  8
DRAW2
100
AcDbLine
 10
410.8894252548351
 20
257.8402362626817
 30
0.0
 11
410.8894252548351
 21
258.0000003847391
 31
0.0
  0
LINE
  5
1A36
330
18
100
AcDbEntity
  8
DRAW2
100
AcDbLine
 10
407.7912296669066
 20
257.8402362626817
 30
0.0
 11
407.7912296669066
 21
258.0000003847391
 31
0.0
  0
LINE
  5
1A37
330
18
100
AcDbEntity
  8
DRAW2
100
AcDbLine
 10
407.7912296669066
 20
257.8402362626817
 30
0.0
 11
410.8894252548351
 21
257.8402362626817
 31
0.0
  0
LINE
  5
1A38
330
18
100
AcDbEntity
  8
DRAW2
100
AcDbLine
 10
407.7912296669066
 20
254.882196371132
 30
0.0
 11
410.8894252548351
 21
254.882196371132
 31
0.0
  0
ARC
  5
1A39
330
18
100
AcDbEntity
  8
DRAW2
100
AcDbCircle
 10
416.0718137987895
 20
256.3573502519092
 30
0.0
 40
8.412313860415331
100
AcDbArc
 50
169.8470989734811
 51
190.1529010265188
  0
LINE
  5
1A3A
330
18
100
AcDbEntity
  8
DRAW2
100
AcDbLine
 10
414.0903274608707
 20
258.2500003847391
 30
0.0
 11
411.8403274608708
 21
258.2500003847391
 31
0.0
  0
ARC
  5
1A3B
330
18
100
AcDbEntity
  8
DRAW2
100
AcDbCircle
 10
414.0903274608707
 20
266.0000003847391
 30
0.0
 40
1.0
100
AcDbArc
 50
90.0
 51
180.0
  0
LINE
  5
1A3C
330
18
100
AcDbEntity
  8
DRAW2
100
AcDbLine
 10
415.5903274608708
 20
261.0000003847391
 30
0.0
 11
415.5903274608708
 21
259.7500003847391
 31
0.0
  0
ARC
  5
1A3D
330
18
100
AcDbEntity
  8
DRAW2
100
AcDbCircle
 10
414.0903274608707
 20
262.0000003847391
 30
0.0
 40
1.0
100
AcDbArc
 50
180.0
 51
270.0
  0
LINE
  5
1A3E
330
18
100
AcDbEntity
  8
DRAW2
100
AcDbLine
 10
413.0903274608709
 20
266.0000003847391
 30
0.0
 11
413.0903274608709
 21
262.0000003847391
 31
0.0
  0
LINE
  5
1A3F
330
18
100
AcDbEntity
  8
DRAW2
100
AcDbLine
 10
411.8403274608708
 20
258.2500003847391
 30
0.0
 11
411.0903274608707
 21
257.5000003847391
 31
0.0
  0
LINE
  5
1A40
330
18
100
AcDbEntity
  8
DRAW2
100
AcDbLine
 10
407.7912296669066
 20
258.0000003847391
 30
0.0
 11
410.8894252548351
 21
258.0000003847391
 31
0.0
  0
LINE
  5
1A41
330
18
100
AcDbEntity
  8
DRAW2
100
AcDbLine
 10
407.7912296669066
 20
258.0000003847391
 30
0.0
 11
407.5903274608708
 21
257.2500003847391
 31
0.0
  0
LINE
  5
1A42
330
18
100
AcDbEntity
  8
DRAW2
100
AcDbLine
 10
428.8833547718668
 20
252.6486302645708
 30
0.0
 11
428.8833547718668
 21
254.536901376991
 31
0.0
  0
LINE
  5
1A43
330
18
100
AcDbEntity
  8
DRAW2
100
AcDbLine
 10
430.312849749735
 20
255.7431090632122
 30
0.0
 11
430.312849749735
 21
242.2568917062661
 31
0.0
  0
LINE
  5
1A44
330
18
100
AcDbEntity
  8
DRAW2
100
AcDbLine
 10
431.8803274608708
 20
242.3058753847391
 30
0.0
 11
431.8803274608708
 21
255.6941253847392
 31
0.0
  0
ARC
  5
1A45
330
18
100
AcDbEntity
  8
DRAW2
100
AcDbCircle
 10
413.0576974508692
 20
249.0000003847391
 30
0.0
 40
16.24081062144512
100
AcDbArc
 50
347.0172251576916
 51
12.9827748423084
  0
LINE
  5
1A46
330
18
100
AcDbEntity
  8
DRAW2
100
AcDbLine
 10
428.8833547718668
 20
239.8144695126557
 30
0.0
 11
428.8833547718668
 21
239.7500003847392
 31
0.0
  0
ARC
  5
1A47
330
18
100
AcDbEntity
  8
DRAW2
100
AcDbCircle
 10
425.0334143326554
 20
241.6533477853603
 30
0.0
 40
4.266557709360186
100
AcDbArc
 50
334.4690811414817
 51
25.53091885851532
  0
LINE
  5
1A48
330
18
100
AcDbEntity
  8
DRAW2
100
AcDbLine
 10
428.8833547718668
 20
245.3513705049076
 30
0.0
 11
428.8833547718668
 21
243.4630993924872
 31
0.0
  0
LINE
  5
1A49
330
18
100
AcDbEntity
  8
DRAW2
100
AcDbLine
 10
430.312849749735
 20
242.2568917062661
 30
0.0
 11
428.8833547718668
 21
239.7500003847392
 31
0.0
  0
LINE
  5
1A4A
330
18
100
AcDbEntity
  8
DRAW3
100
AcDbLine
 10
430.312849749735
 20
242.2568917062661
 30
0.0
 11
431.8803274608708
 21
243.1618753847391
 31
0.0
  0
ARC
  5
1A4B
330
18
100
AcDbEntity
  8
DRAW2
100
AcDbCircle
 10
421.0903274608709
 20
262.7387360033803
 30
0.0
 40
7.099207522960409
100
AcDbArc
 50
224.7428329428405
 51
315.2571670571593
  0
ARC
  5
1A4C
330
18
100
AcDbEntity
  8
DRAW2
100
AcDbCircle
 10
427.1981161211956
 20
256.6855312568226
 30
0.0
 40
1.5
100
AcDbArc
 50
90.0
 51
135.2571670571593
  0
LINE
  5
1A4D
330
18
100
AcDbEntity
  8
DRAW2
100
AcDbLine
 10
428.8833547718668
 20
258.1855312568226
 30
0.0
 11
428.8833547718668
 21
258.2500003847391
 31
0.0
  0
LINE
  5
1A4E
330
18
100
AcDbEntity
  8
DRAW2
100
AcDbLine
 10
428.8833547718668
 20
258.1855312568226
 30
0.0
 11
427.1981161211956
 21
258.1855312568226
 31
0.0
  0
ARC
  5
1A4F
330
18
100
AcDbEntity
  8
DRAW2
100
AcDbCircle
 10
425.0334143326554
 20
256.346652984118
 30
0.0
 40
4.266557709360186
100
AcDbArc
 50
334.4690811414801
 51
25.53091885852269
  0
ARC
  5
1A50
330
18
100
AcDbEntity
  8
DRAW2
100
AcDbCircle
 10
428.0903274608708
 20
266.0000003847391
 30
0.0
 40
1.0
100
AcDbArc
 50
0.0
 51
90.0
  0
ARC
  5
1A51
330
18
100
AcDbEntity
  8
DRAW2
100
AcDbCircle
 10
428.0903274608708
 20
262.0000003847391
 30
0.0
 40
1.0
100
AcDbArc
 50
270.0
 51
0.0
  0
LINE
  5
1A52
330
18
100
AcDbEntity
  8
DRAW2
100
AcDbLine
 10
429.0903274608708
 20
266.0000003847391
 30
0.0
 11
429.0903274608708
 21
262.0000003847391
 31
0.0
  0
ARC
  5
1A53
330
18
100
AcDbEntity
  8
DRAW2
100
AcDbCircle
 10
428.0903274608708
 20
259.7500003847391
 30
0.0
 40
1.5
100
AcDbArc
 50
180.0
 51
270.0
  0
LINE
  5
1A54
330
18
100
AcDbEntity
  8
DRAW2
100
AcDbLine
 10
428.8833547718668
 20
258.2500003847391
 30
0.0
 11
428.0903274608708
 21
258.2500003847391
 31
0.0
  0
LINE
  5
1A55
330
18
100
AcDbEntity
  8
DRAW2
100
AcDbLine
 10
426.5903274608707
 20
261.0000003847391
 30
0.0
 11
426.5903274608707
 21
259.7500003847391
 31
0.0
  0
LINE
  5
1A56
330
18
100
AcDbEntity
  8
DRAW2
100
AcDbLine
 10
430.312849749735
 20
255.7431090632122
 30
0.0
 11
428.8833547718668
 21
258.2500003847391
 31
0.0
  0
LINE
  5
1A57
330
18
100
AcDbEntity
  8
DRAW3
100
AcDbLine
 10
430.312849749735
 20
255.7431090632122
 30
0.0
 11
431.8803274608708
 21
254.8381253847392
 31
0.0
  0
ARC
  5
1A58
330
18
100
AcDbEntity
  8
DRAW2
100
AcDbCircle
 10
416.0903274608708
 20
275.5000003847391
 30
0.0
 40
1.0
100
AcDbArc
 50
90.0
 51
180.0
  0
LINE
  5
1A59
330
18
100
AcDbEntity
  8
DRAW2
100
AcDbLine
 10
425.0903274608708
 20
278.0000003847391
 30
0.0
 11
417.0903274608709
 21
278.0000003847391
 31
0.0
  0
ARC
  5
1A5A
330
18
100
AcDbEntity
  8
DRAW2
100
AcDbCircle
 10
417.0903274608709
 20
277.0000003847391
 30
0.0
 40
1.0
100
AcDbArc
 50
90.0
 51
180.0
  0
LINE
  5
1A5B
330
18
100
AcDbEntity
  8
DRAW2
100
AcDbLine
 10
416.0903274608708
 20
277.0000003847391
 30
0.0
 11
416.0903274608708
 21
276.5000003847391
 31
0.0
  0
ARC
  5
1A5C
330
18
100
AcDbEntity
  8
DRAW2
100
AcDbCircle
 10
425.0903274608708
 20
277.0000003847391
 30
0.0
 40
1.0
100
AcDbArc
 50
0.0
 51
90.0
  0
LINE
  5
1A5D
330
18
100
AcDbEntity
  8
DRAW2
100
AcDbLine
 10
426.0903274608708
 20
277.0000003847391
 30
0.0
 11
426.0903274608708
 21
276.5000003847391
 31
0.0
  0
ARC
  5
1A5E
330
18
100
AcDbEntity
  8
DRAW2
100
AcDbCircle
 10
426.0903274608708
 20
275.5000003847391
 30
0.0
 40
1.0
100
AcDbArc
 50
0.0
 51
90.0
  0
LINE
  5
1A61
330
18
100
AcDbEntity
  8
DRAW2
100
AcDbLine
 10
434.5903274608708
 20
260.9999703847392
 30
0.0
 11
444.8659274608709
 21
260.9999703847392
 31
0.0
  0
ARC
  5
1A62
330
18
100
AcDbEntity
  8
DRAW2
100
AcDbCircle
 10
434.5903274608708
 20
258.9999703847392
 30
0.0
 40
2.0
100
AcDbArc
 50
90.00000299999769
 51
180.0000099999992
  0
ARC
  5
1A6D
330
18
100
AcDbEntity
  8
DRAW2
100
AcDbCircle
 10
503.5903274608708
 20
221.0000003847392
 30
0.0
 40
30.0
100
AcDbArc
 50
123.7598609644807
 51
176.2402584207215
  0
ARC
  5
1A6E
330
18
100
AcDbEntity
  8
DRAW2
100
AcDbCircle
 10
503.5903274608708
 20
221.0000003847392
 30
0.0
 40
28.0
100
AcDbArc
 50
124.1707285449462
 51
175.8294147585822
  0
ARC
  5
1A71
330
18
100
AcDbEntity
  8
DRAW2
100
AcDbCircle
 10
503.5903274608708
 20
221.0000003847392
 30
0.0
 40
30.0
100
AcDbArc
 50
3.759741579278471
 51
56.24015533932598
  0
ARC
  5
1A72
330
18
100
AcDbEntity
  8
DRAW2
100
AcDbCircle
 10
503.5903274608708
 20
221.0000003847392
 30
0.0
 40
28.0
100
AcDbArc
 50
4.170585241417805
 51
55.82930204032114
  0
ARC
  5
1A73
330
18
100
AcDbEntity
  8
DRAW2
100
AcDbCircle
 10
503.5903274608708
 20
221.0000003847392
 30
0.0
 40
66.0
100
AcDbArc
 50
10.9796690000004
 51
49.02033299999832
  0
ARC
  5
1A74
330
18
100
AcDbEntity
  8
DRAW2
100
AcDbCircle
 10
503.5903274608708
 20
221.0000003847392
 30
0.0
 40
71.0
100
AcDbArc
 50
299.1627099999995
 51
60.83729399999722
  0
LINE
  5
1A75
330
18
100
AcDbEntity
  8
DRAW2
100
AcDbLine
 10
578.5903374608706
 20
265.0000303847392
 30
0.0
 11
578.5903374608706
 21
233.000030384739
 31
0.0
  0
LINE
  5
1A76
330
18
100
AcDbEntity
  8
DRAW2
100
AcDbLine
 10
577.5903074608707
 20
230.9999703847391
 30
0.0
 11
577.5903074608707
 21
267.0000003847391
 31
0.0
  0
LINE
  5
1A78
330
18
100
AcDbEntity
  8
DRAW2
100
AcDbLine
 10
499.9459174608708
 20
230.312290384739
 30
0.0
 11
491.1158713776253
 21
245.6063436007369
 31
0.0
  0
LINE
  5
1A79
330
18
100
AcDbEntity
  8
DRAW2
100
AcDbLine
 10
497.3478374608709
 20
228.8122603847391
 30
0.0
 11
488.5776689883186
 21
244.0026104186499
 31
0.0
  0
LINE
  5
1A7C
330
18
100
AcDbEntity
  8
DRAW2
100
AcDbLine
 10
507.2347374608709
 20
230.312260384739
 30
0.0
 11
516.0048993469727
 21
245.5026211641923
 31
0.0
  0
LINE
  5
1A7E
330
18
100
AcDbEntity
  8
DRAW2
100
AcDbLine
 10
509.8328174608709
 20
228.8122603847391
 30
0.0
 11
518.6628565580702
 21
244.1063386776008
 31
0.0
  0
CIRCLE
  5
1A7F
330
18
100
AcDbEntity
  8
DRAW2
100
AcDbCircle
 10
534.5903274608708
 20
167.3064003847391
 30
0.0
 40
4.0
  0
CIRCLE
  5
1A80
330
18
100
AcDbEntity
  8
DRAW2
100
AcDbCircle
 10
534.5903274608708
 20
167.3064003847391
 30
0.0
 40
7.8000002
  0
CIRCLE
  5
1A81
330
18
100
AcDbEntity
  8
DRAW2
100
AcDbCircle
 10
534.5903274608708
 20
167.3064003847391
 30
0.0
 40
8.500000999999999
  0
CIRCLE
  5
1A82
330
18
100
AcDbEntity
  8
DRAW2
100
AcDbCircle
 10
534.5903274608708
 20
167.3064003847391
 30
0.0
 40
6.000000499999998
  0
ARC
  5
1A84
330
18
100
AcDbEntity
  8
DRAW2
100
AcDbCircle
 10
534.5903274608708
 20
167.3064003847391
 30
0.0
 40
9.0
100
AcDbArc
 50
30.73162000000135
 51
181.4632399999997
  0
ARC
  5
1A87
330
18
100
AcDbEntity
  8
DRAW2
100
AcDbCircle
 10
503.5903274608708
 20
221.0000003847392
 30
0.0
 40
28.0
100
AcDbArc
 50
304.1706352892362
 51
355.829352088139
  0
ARC
  5
1A88
330
18
100
AcDbEntity
  8
DRAW2
100
AcDbCircle
 10
503.5903274608708
 20
221.0000003847392
 30
0.0
 40
30.0
100
AcDbArc
 50
303.7597881825713
 51
356.2402019426631
  0
LINE
  5
1A89
330
18
100
AcDbEntity
  8
DRAW2
100
AcDbLine
 10
534.5903274608708
 20
160.3782103847391
 30
0.0
 11
528.5903274608708
 21
163.8423003847391
 31
0.0
  0
LINE
  5
1A8A
330
18
100
AcDbEntity
  8
DRAW2
100
AcDbLine
 10
528.5902974608709
 20
170.770480384739
 30
0.0
 11
534.5903274608708
 21
174.234590384739
 31
0.0
  0
LINE
  5
1A8E
330
18
100
AcDbEntity
  8
DRAW2
100
AcDbLine
 10
513.4771674608709
 20
222.4999703847391
 30
0.0
 11
531.1372938984979
 21
222.4999703847391
 31
0.0
  0
LINE
  5
1A8F
330
18
100
AcDbEntity
  8
DRAW2
100
AcDbLine
 10
513.4771674608709
 20
219.5000003847392
 30
0.0
 11
531.0175037646757
 21
219.5000003847392
 31
0.0
  0
LINE
  5
1A90
330
18
100
AcDbEntity
  8
DRAW2
100
AcDbLine
 10
469.5902974608708
 20
138.4999703847392
 30
0.0
 11
537.5903274608709
 21
138.4999703847392
 31
0.0
  0
LINE
  5
1A91
330
18
100
AcDbEntity
  8
DRAW2
100
AcDbLine
 10
468.9926374608709
 20
158.9999903847391
 30
0.0
 11
538.1880174608709
 21
158.9999903847391
 31
0.0
  0
ARC
  5
1A92
330
18
100
AcDbEntity
  8
DRAW2
100
AcDbCircle
 10
516.0903274608708
 20
180.499990384739
 30
0.0
 40
0.5
100
AcDbArc
 50
179.9999900000006
 51
270.0
  0
ARC
  5
1A93
330
18
100
AcDbEntity
  8
DRAW2
100
AcDbCircle
 10
491.0903274608708
 20
180.499990384739
 30
0.0
 40
0.5
100
AcDbArc
 50
270.0
 51
0.0
  0
LINE
  5
1A96
330
18
100
AcDbEntity
  8
DRAW2
100
AcDbLine
 10
517.4789670919436
 20
193.9441210237405
 30
0.0
 11
528.8542080161989
 21
174.2415956751731
 31
0.0
  0
LINE
  5
1A97
330
18
100
AcDbEntity
  8
DRAW2
100
AcDbLine
 10
489.7016755824997
 20
193.9440998107946
 30
0.0
 11
478.3264262257636
 21
174.2415879663818
 31
0.0
  0
LINE
  5
1A98
330
18
100
AcDbEntity
  8
DRAW2
100
AcDbLine
 10
481.6509974608709
 20
179.999990384739
 30
0.0
 11
525.5296274608708
 21
179.999990384739
 31
0.0
  0
LINE
  5
1A99
330
18
100
AcDbEntity
  8
DRAW2
100
AcDbLine
 10
484.5863874608708
 20
163.9999903847391
 30
0.0
 11
522.5942374608709
 21
163.9999903847391
 31
0.0
  0
LINE
  5
1A9A
330
18
100
AcDbEntity
  8
DRAW2
100
AcDbLine
 10
469.5902974608708
 20
138.4999703847392
 30
0.0
 11
469.5902974608708
 21
158.9999903847391
 31
0.0
  0
ARC
  5
1A9D
330
18
100
AcDbEntity
  8
DRAW2
100
AcDbCircle
 10
484.5863874608708
 20
166.9999703847391
 30
0.0
 40
3.0000002
100
AcDbArc
 50
178.5367700000002
 51
270.0
  0
CIRCLE
  5
1A9E
330
18
100
AcDbEntity
  8
DRAW2
100
AcDbCircle
 10
472.5903574608707
 20
167.3064003847391
 30
0.0
 40
4.0
  0
CIRCLE
  5
1A9F
330
18
100
AcDbEntity
  8
DRAW3
100
AcDbCircle
 10
472.5903574608707
 20
167.3064003847391
 30
0.0
 40
3.375
  0
CIRCLE
  5
1AA0
330
18
100
AcDbEntity
  8
DRAW2
100
AcDbCircle
 10
472.5902974608708
 20
167.3064003847391
 30
0.0
 40
6.000000499999998
  0
LINE
  5
1AA1
330
18
100
AcDbEntity
  8
DRAW2
100
AcDbLine
 10
478.5903274608708
 20
170.7705203847392
 30
0.0
 11
478.5903274608708
 21
163.842290384739
 31
0.0
  0
LINE
  5
1AA2
330
18
100
AcDbEntity
  8
DRAW2
100
AcDbLine
 10
466.5903274608708
 20
163.842290384739
 30
0.0
 11
466.5903274608708
 21
170.7705203847392
 31
0.0
  0
LINE
  5
1AA3
330
18
100
AcDbEntity
  8
DRAW2
100
AcDbLine
 10
478.5903274608708
 20
163.8423003847391
 30
0.0
 11
472.5903274608707
 21
160.3781903847391
 31
0.0
  0
LINE
  5
1AA4
330
18
100
AcDbEntity
  8
DRAW2
100
AcDbLine
 10
472.5903274608707
 20
160.3782103847391
 30
0.0
 11
466.5903274608708
 21
163.8423003847391
 31
0.0
  0
LINE
  5
1AA5
330
18
100
AcDbEntity
  8
DRAW2
100
AcDbLine
 10
472.5903274608707
 20
174.234600384739
 30
0.0
 11
478.5903274608708
 21
170.7705103847392
 31
0.0
  0
LINE
  5
1AA6
330
18
100
AcDbEntity
  8
DRAW2
100
AcDbLine
 10
466.5903274608708
 20
170.7705203847392
 30
0.0
 11
472.5903274608707
 21
174.2346203847391
 31
0.0
  0
LINE
  5
1AAE
330
18
100
AcDbEntity
  8
DRAW2
100
AcDbLine
 10
483.5902974608709
 20
164.170180384739
 30
0.0
 11
483.5902974608709
 21
179.999990384739
 31
0.0
  0
ARC
  5
1AB1
330
18
100
AcDbEntity
  8
DRAW2
100
AcDbCircle
 10
503.5903274608708
 20
134.499990384739
 30
0.0
 40
1.0
100
AcDbArc
 50
28.46113399999959
 51
151.5388700000009
  0
ARC
  5
1AB2
330
18
100
AcDbEntity
  8
DRAW2
100
AcDbCircle
 10
522.5942374608709
 20
166.9999703847391
 30
0.0
 40
3.0000002
100
AcDbArc
 50
270.0
 51
1.463230500000539
  0
LINE
  5
1AB3
330
18
100
AcDbEntity
  8
DRAW2
100
AcDbLine
 10
528.5903274608708
 20
163.842290384739
 30
0.0
 11
528.5903274608708
 21
170.7705203847392
 31
0.0
  0
LINE
  5
1AB4
330
18
100
AcDbEntity
  8
DRAW2
100
AcDbLine
 10
523.5903274608708
 20
164.170180384739
 30
0.0
 11
523.5903274608708
 21
179.999990384739
 31
0.0
  0
ARC
  5
1ABF
330
18
100
AcDbEntity
  8
DRAW2
100
AcDbCircle
 10
503.5903274608708
 20
221.0000003847392
 30
0.0
 40
30.0
100
AcDbArc
 50
243.7598450067737
 51
296.2401549246576
  0
ARC
  5
1AC0
330
18
100
AcDbEntity
  8
DRAW2
100
AcDbCircle
 10
503.5903274608708
 20
221.0000003847392
 30
0.0
 40
28.0
100
AcDbArc
 50
244.1706603113186
 51
295.8293169054416
  0
CIRCLE
  5
1AC1
330
18
100
AcDbEntity
  8
DRAW2
100
AcDbCircle
 10
503.5903274608708
 20
221.0000003847392
 30
0.0
 40
10.0
  0
LINE
  5
1AC2
330
18
100
AcDbEntity
  8
DRAW2
100
AcDbLine
 10
499.9459474608709
 20
211.687680384739
 30
0.0
 11
491.1158712221848
 21
196.3935968995014
 31
0.0
  0
ARC
  5
1AC3
330
18
100
AcDbEntity
  8
DRAW2
100
AcDbCircle
 10
503.5903274608708
 20
221.0000003847392
 30
0.0
 40
30.0
100
AcDbArc
 50
183.7597980573369
 51
236.2402161859761
  0
ARC
  5
1AC4
330
18
100
AcDbEntity
  8
DRAW2
100
AcDbCircle
 10
503.5903274608708
 20
221.0000003847392
 30
0.0
 40
28.0
100
AcDbArc
 50
184.1706479118609
 51
235.8294189849623
  0
LINE
  5
1AC5
330
18
100
AcDbEntity
  8
DRAW2
100
AcDbLine
 10
491.5903274608708
 20
203.215360384739
 30
0.0
 11
491.5903274608708
 21
219.5000003847392
 31
0.0
  0
LINE
  5
1AC6
330
18
100
AcDbEntity
  8
DRAW2
100
AcDbLine
 10
497.3478674608708
 20
213.187680384739
 30
0.0
 11
488.5777277823466
 21
197.9973509415515
 31
0.0
  0
LINE
  5
1AC7
330
18
100
AcDbEntity
  8
DRAW2
100
AcDbLine
 10
487.1035832259591
 20
195.4441066484683
 30
0.0
 11
475.7283504714256
 21
175.7416018229354
 31
0.0
  0
ARC
  5
1ACA
330
18
100
AcDbEntity
  8
DRAW2
100
AcDbCircle
 10
490.4087774608709
 20
195.168850384739
 30
0.0
 40
1.0
100
AcDbArc
 50
79.47171074505064
 51
220.5290669044607
  0
ARC
  5
1ACB
330
18
100
AcDbEntity
  8
DRAW2
100
AcDbCircle
 10
489.2686628695648
 20
194.1940997916685
 30
0.0
 40
0.5
100
AcDbArc
 50
330.0000025307511
 51
40.52906690446067
  0
ARC
  5
1ACC
330
18
100
AcDbEntity
  8
DRAW2
100
AcDbCircle
 10
490.1052228917841
 20
193.6430642485269
 30
0.0
 40
0.5
100
AcDbArc
 50
63.75984500677375
 51
150.0000025307539
  0
LINE
  5
1ACD
330
18
100
AcDbEntity
  8
DRAW2
100
AcDbLine
 10
491.5903274608708
 20
180.499990384739
 30
0.0
 11
491.5903274608708
 21
193.5045203847391
 31
0.0
  0
ARC
  5
1ACE
330
18
100
AcDbEntity
  8
DRAW2
100
AcDbCircle
 10
488.1447150666968
 20
198.2473509177225
 30
0.0
 40
0.5
100
AcDbArc
 50
235.8294189849623
 51
330.0000031530273
  0
ARC
  5
1ACF
330
18
100
AcDbEntity
  8
DRAW2
100
AcDbCircle
 10
488.9508289864828
 20
197.6435811702927
 30
0.0
 40
0.5
100
AcDbArc
 50
150.0000031530286
 51
220.5280714968864
  0
ARC
  5
1AD0
330
18
100
AcDbEntity
  8
DRAW2
100
AcDbCircle
 10
487.5365960583253
 20
195.1941068744559
 30
0.0
 40
0.5
100
AcDbArc
 50
79.4709361164044
 51
150.0000299024251
  0
ARC
  5
1AD1
330
18
100
AcDbEntity
  8
DRAW2
100
AcDbCircle
 10
486.6411051633177
 20
195.6430710850759
 30
0.0
 40
0.5
100
AcDbArc
 50
330.0000299024209
 51
56.24021618597531
  0
ARC
  5
1AD2
330
18
100
AcDbEntity
  8
DRAW2
100
AcDbCircle
 10
487.8106974608709
 20
196.668850384739
 30
0.0
 40
1.0
100
AcDbArc
 50
259.4709361164043
 51
40.52807149688398
  0
ARC
  5
1AD3
330
18
100
AcDbEntity
  8
DRAW2
100
AcDbCircle
 10
490.6828589251242
 20
196.6435976006892
 30
0.0
 40
0.5
100
AcDbArc
 50
259.4717107450505
 51
329.9999072195404
  0
ARC
  5
1AD4
330
18
100
AcDbEntity
  8
DRAW2
100
AcDbCircle
 10
491.6087954732876
 20
196.2473663586295
 30
0.0
 40
0.5
100
AcDbArc
 50
149.9999072195433
 51
244.1706603113186
  0
LINE
  5
1AD5
330
18
100
AcDbEntity
  8
DRAW2
100
AcDbLine
 10
491.5903274608708
 20
195.7017503847391
 30
0.0
 11
491.5903274608708
 21
197.2153603847392
 31
0.0
  0
LINE
  5
1AD6
330
18
100
AcDbEntity
  8
DRAW2
100
AcDbLine
 10
493.7034574608708
 20
222.4999703847391
 30
0.0
 11
476.1631489694711
 21
222.4999703847391
 31
0.0
  0
LINE
  5
1AD7
330
18
100
AcDbEntity
  8
DRAW2
100
AcDbLine
 10
493.7034574608708
 20
219.5000003847392
 30
0.0
 11
476.0433610232438
 21
219.5000003847392
 31
0.0
  0
ARC
  5
1AD8
330
18
100
AcDbEntity
  8
DRAW2
100
AcDbCircle
 10
473.1559718738044
 20
219.0000003847392
 30
0.0
 40
0.5
100
AcDbArc
 50
3.759798057338571
 51
90.0
  0
ARC
  5
1AD9
330
18
100
AcDbEntity
  8
DRAW2
100
AcDbCircle
 10
473.2149338984978
 20
220.0000003847391
 30
0.0
 40
0.5
100
AcDbArc
 50
270.0
 51
340.5287793655096
  0
ARC
  5
1ADA
330
18
100
AcDbEntity
  8
DRAW2
100
AcDbCircle
 10
473.2149338984978
 20
221.9999703847391
 30
0.0
 40
0.5
100
AcDbArc
 50
19.47122063449034
 51
90.0
  0
ARC
  5
1ADB
330
18
100
AcDbEntity
  8
DRAW2
100
AcDbCircle
 10
473.1559699023629
 20
222.9999703847391
 30
0.0
 40
0.5
100
AcDbArc
 50
270.0
 51
356.2402584207215
  0
ARC
  5
1ADC
330
18
100
AcDbEntity
  8
DRAW2
100
AcDbCircle
 10
476.1631489694711
 20
222.9999703847391
 30
0.0
 40
0.5
100
AcDbArc
 50
175.8294147585805
 51
270.0
  0
ARC
  5
1ADD
330
18
100
AcDbEntity
  8
DRAW2
100
AcDbCircle
 10
476.043361023244
 20
221.9999703847391
 30
0.0
 40
0.5
100
AcDbArc
 50
90.0
 51
160.5287793655058
  0
ARC
  5
1ADE
330
18
100
AcDbEntity
  8
DRAW2
100
AcDbCircle
 10
476.043361023244
 20
220.0000003847391
 30
0.0
 40
0.5
100
AcDbArc
 50
199.471220634494
 51
270.0
  0
ARC
  5
1ADF
330
18
100
AcDbEntity
  8
DRAW2
100
AcDbCircle
 10
476.1631511570659
 20
219.0000003847392
 30
0.0
 40
0.5
100
AcDbArc
 50
90.0
 51
184.1706479118641
  0
ARC
  5
1AE0
330
18
100
AcDbEntity
  8
DRAW2
100
AcDbCircle
 10
474.6291474608709
 20
219.5000003847392
 30
0.0
 40
1.0
100
AcDbArc
 50
19.47122063448879
 51
160.5287793655111
  0
ARC
  5
1AE1
330
18
100
AcDbEntity
  8
DRAW2
100
AcDbCircle
 10
474.6291474608709
 20
222.4999703847391
 30
0.0
 40
1.0
100
AcDbArc
 50
199.4712206344886
 51
340.5287793655111
  0
LINE
  5
1AE2
330
18
100
AcDbEntity
  8
DRAW2
100
AcDbLine
 10
491.5903274608708
 20
238.784580384739
 30
0.0
 11
491.5903274608708
 21
222.4999703847391
 31
0.0
  0
LINE
  5
1AE3
330
18
100
AcDbEntity
  8
DRAW2
100
AcDbLine
 10
515.5903274608708
 20
203.215360384739
 30
0.0
 11
515.5903274608708
 21
219.5000003847392
 31
0.0
  0
LINE
  5
1AE4
330
18
100
AcDbEntity
  8
DRAW2
100
AcDbLine
 10
507.2347074608709
 20
211.687680384739
 30
0.0
 11
516.0647691862973
 21
196.3936000757517
 31
0.0
  0
LINE
  5
1AE5
330
18
100
AcDbEntity
  8
DRAW2
100
AcDbLine
 10
509.8328174608709
 20
213.187680384739
 30
0.0
 11
518.6029486921414
 21
197.9973655726259
 31
0.0
  0
ARC
  5
1AE6
330
18
100
AcDbEntity
  8
DRAW2
100
AcDbCircle
 10
516.7718474608708
 20
195.168850384739
 30
0.0
 40
1.0
100
AcDbArc
 50
319.4719856878248
 51
100.527681537003
  0
LINE
  5
1AE7
330
18
100
AcDbEntity
  8
DRAW2
100
AcDbLine
 10
520.1065391352647
 20
195.3930721255773
 30
0.0
 11
531.4523251514787
 21
175.7416206845445
 31
0.0
  0
ARC
  5
1AE8
330
18
100
AcDbEntity
  8
DRAW2
100
AcDbCircle
 10
517.9119799593236
 20
194.1941207371075
 30
0.0
 40
0.5
100
AcDbArc
 50
139.4719856878259
 51
209.9999620730234
  0
ARC
  5
1AE9
330
18
100
AcDbEntity
  8
DRAW2
100
AcDbCircle
 10
517.0754319972194
 20
193.6430642323893
 30
0.0
 40
0.5
100
AcDbArc
 50
29.99996207302778
 51
116.2401549246577
  0
LINE
  5
1AEA
330
18
100
AcDbEntity
  8
DRAW2
100
AcDbLine
 10
515.5903274608708
 20
180.499990384739
 30
0.0
 11
515.5903274608708
 21
193.5045203847391
 31
0.0
  0
ARC
  5
1AED
330
18
100
AcDbEntity
  8
DRAW2
100
AcDbCircle
 10
519.0359614077912
 20
198.2473655487968
 30
0.0
 40
0.5
100
AcDbArc
 50
209.9999968469683
 51
304.1706352892362
  0
ARC
  5
1AEE
330
18
100
AcDbEntity
  8
DRAW2
100
AcDbCircle
 10
520.5395516917787
 20
195.6430723773798
 30
0.0
 40
0.5
100
AcDbArc
 50
123.7597881825713
 51
210.000033318234
  0
ARC
  5
1AEF
330
18
100
AcDbEntity
  8
DRAW2
100
AcDbCircle
 10
519.644061215409
 20
195.194107311608
 30
0.0
 40
0.5
100
AcDbArc
 50
30.00003331823274
 51
100.5291552617054
  0
ARC
  5
1AF0
330
18
100
AcDbEntity
  8
DRAW2
100
AcDbCircle
 10
518.2298438424202
 20
197.6436021157063
 30
0.0
 40
0.5
100
AcDbArc
 50
319.4708759112034
 51
29.99999684696701
  0
ARC
  5
1AF1
330
18
100
AcDbEntity
  8
DRAW2
100
AcDbCircle
 10
516.4977816388033
 20
196.6436005077005
 30
0.0
 40
0.5
100
AcDbArc
 50
210.0000571550265
 51
280.5276815370031
  0
ARC
  5
1AF2
330
18
100
AcDbEntity
  8
DRAW2
100
AcDbCircle
 10
515.5718496057511
 20
196.2473615942639
 30
0.0
 40
0.5
100
AcDbArc
 50
295.8293169054416
 51
30.00005715502942
  0
ARC
  5
1AF3
330
18
100
AcDbEntity
  8
DRAW2
100
AcDbCircle
 10
519.3699574608708
 20
196.668850384739
 30
0.0
 40
1.0
100
AcDbArc
 50
139.4708759111967
 51
280.5291552617055
  0
LINE
  5
1AF4
330
18
100
AcDbEntity
  8
DRAW2
100
AcDbLine
 10
515.5903274608708
 20
195.7017503847391
 30
0.0
 11
515.5903274608708
 21
197.2153603847392
 31
0.0
  0
LINE
  5
1AF5
330
18
100
AcDbEntity
  8
DRAW2
100
AcDbLine
 10
515.5903274608708
 20
238.784580384739
 30
0.0
 11
515.5903274608708
 21
222.4999703847391
 31
0.0
  0
ARC
  5
1AF6
330
18
100
AcDbEntity
  8
DRAW2
100
AcDbCircle
 10
566.5903074608709
 20
180.9999703847391
 30
0.0
 40
2.0
100
AcDbArc
 50
270.0
 51
0.0
  0
ARC
  5
1AF7
330
18
100
AcDbEntity
  8
DRAW2
100
AcDbCircle
 10
503.5903274608708
 20
221.0000003847392
 30
0.0
 40
66.0
100
AcDbArc
 50
310.9796700000017
 51
349.0203300000008
  0
ARC
  5
1AF8
330
18
100
AcDbEntity
  8
DRAW2
100
AcDbCircle
 10
503.5903274608708
 20
221.0000003847392
 30
0.0
 40
66.0
100
AcDbArc
 50
310.9796700000017
 51
349.0203300000008
  0
LINE
  5
1AF9
330
18
100
AcDbEntity
  8
DRAW2
100
AcDbLine
 10
537.5902974608709
 20
141.4999903847391
 30
0.0
 11
563.7729174608709
 21
183.3296503847391
 31
0.0
  0
LINE
  5
1AFA
330
18
100
AcDbEntity
  8
DRAW2
100
AcDbLine
 10
566.5903074608709
 20
178.999990384739
 30
0.0
 11
561.0628274608709
 21
178.999990384739
 31
0.0
  0
LINE
  5
1AFB
330
18
100
AcDbEntity
  8
DRAW2
100
AcDbLine
 10
537.5903274608709
 20
138.4999703847392
 30
0.0
 11
537.5903274608709
 21
158.9999903847391
 31
0.0
  0
CIRCLE
  5
1AFC
330
18
100
AcDbEntity
  8
DRAW3
100
AcDbCircle
 10
534.5903274608708
 20
167.3064003847391
 30
0.0
 40
3.375
  0
LINE
  5
1AFD
330
18
100
AcDbEntity
  8
DRAW2
100
AcDbLine
 10
540.5903274608708
 20
170.7705203847392
 30
0.0
 11
540.5903274608708
 21
163.842290384739
 31
0.0
  0
LINE
  5
1AFE
330
18
100
AcDbEntity
  8
DRAW2
100
AcDbLine
 10
540.5903274608708
 20
163.842290384739
 30
0.0
 11
534.5902974608709
 21
160.3781703847391
 31
0.0
  0
LINE
  5
1AFF
330
18
100
AcDbEntity
  8
DRAW2
100
AcDbLine
 10
534.5903274608708
 20
174.234600384739
 30
0.0
 11
540.5902974608709
 21
170.7705103847392
 31
0.0
  0
ARC
  5
1B00
330
18
100
AcDbEntity
  8
DRAW2
100
AcDbCircle
 10
544.9051774608708
 20
173.4386003847392
 30
0.0
 40
3.0000002
100
AcDbArc
 50
210.7316300000019
 51
310.9796700000017
  0
CIRCLE
  5
1B01
330
18
100
AcDbEntity
  8
DRAW3
100
AcDbCircle
 10
565.5903274608707
 20
221.0000003847392
 30
0.0
 40
3.375
  0
CIRCLE
  5
1B02
330
18
100
AcDbEntity
  8
DRAW2
100
AcDbCircle
 10
565.5903274608707
 20
221.0000003847392
 30
0.0
 40
4.0
  0
CIRCLE
  5
1B03
330
18
100
AcDbEntity
  8
DRAW2
100
AcDbCircle
 10
565.5903274608707
 20
221.0000003847392
 30
0.0
 40
7.8000002
  0
CIRCLE
  5
1B04
330
18
100
AcDbEntity
  8
DRAW2
100
AcDbCircle
 10
565.5903274608707
 20
221.0000003847392
 30
0.0
 40
8.500000999999999
  0
CIRCLE
  5
1B05
330
18
100
AcDbEntity
  8
DRAW2
100
AcDbCircle
 10
565.5903274608707
 20
221.0000003847392
 30
0.0
 40
6.000000499999998
  0
ARC
  5
1B06
330
18
100
AcDbEntity
  8
DRAW2
100
AcDbCircle
 10
565.5903274608707
 20
221.0000003847392
 30
0.0
 40
9.0
100
AcDbArc
 50
90.73161799999901
 51
269.2683799999978
  0
LINE
  5
1B07
330
18
100
AcDbEntity
  8
DRAW2
100
AcDbLine
 10
565.5903074608707
 20
214.071780384739
 30
0.0
 11
559.5903274608708
 21
217.5358603847391
 31
0.0
  0
LINE
  5
1B08
330
18
100
AcDbEntity
  8
DRAW2
100
AcDbLine
 10
559.5903274608708
 20
224.4641103847392
 30
0.0
 11
565.5902974608709
 21
227.928190384739
 31
0.0
  0
LINE
  5
1B18
330
18
100
AcDbEntity
  8
DRAW2
100
AcDbLine
 10
534.0246830479371
 20
219.5000003847392
 30
0.0
 11
556.7162077862213
 21
219.5000003847392
 31
0.0
  0
LINE
  5
1B19
330
18
100
AcDbEntity
  8
DRAW2
100
AcDbLine
 10
534.0246850193786
 20
222.4999703847391
 30
0.0
 11
556.716202715348
 21
222.4999703847391
 31
0.0
  0
ARC
  5
1B1A
330
18
100
AcDbEntity
  8
DRAW2
100
AcDbCircle
 10
531.0175037646757
 20
219.000000384739
 30
0.0
 40
0.5
100
AcDbArc
 50
355.8293520881357
 51
90.0
  0
ARC
  5
1B1B
330
18
100
AcDbEntity
  8
DRAW2
100
AcDbCircle
 10
534.0246830479371
 20
219.0000003847392
 30
0.0
 40
0.5
100
AcDbArc
 50
90.0
 51
176.2402019426614
  0
ARC
  5
1B1C
330
18
100
AcDbEntity
  8
DRAW2
100
AcDbCircle
 10
533.965721023244
 20
220.0000003847391
 30
0.0
 40
0.5
100
AcDbArc
 50
199.471220634494
 51
270.0
  0
ARC
  5
1B1D
330
18
100
AcDbEntity
  8
DRAW2
100
AcDbCircle
 10
531.1372938984979
 20
220.0000003847391
 30
0.0
 40
0.5
100
AcDbArc
 50
270.0
 51
340.5287793655058
  0
ARC
  5
1B1E
330
18
100
AcDbEntity
  8
DRAW2
100
AcDbCircle
 10
534.0246850193786
 20
222.9999703847391
 30
0.0
 40
0.5
100
AcDbArc
 50
183.7597415792783
 51
270.0
  0
ARC
  5
1B1F
330
18
100
AcDbEntity
  8
DRAW2
100
AcDbCircle
 10
533.965721023244
 20
221.9999703847391
 30
0.0
 40
0.5
100
AcDbArc
 50
90.0
 51
160.5287793655058
  0
ARC
  5
1B20
330
18
100
AcDbEntity
  8
DRAW2
100
AcDbCircle
 10
531.1372938984979
 20
221.9999703847391
 30
0.0
 40
0.5
100
AcDbArc
 50
19.47122063449185
 51
90.0
  0
ARC
  5
1B21
330
18
100
AcDbEntity
  8
DRAW2
100
AcDbCircle
 10
531.0175059522705
 20
222.9999703847391
 30
0.0
 40
0.5
100
AcDbArc
 50
270.0
 51
4.170585241419431
  0
ARC
  5
1B22
330
18
100
AcDbEntity
  8
DRAW2
100
AcDbCircle
 10
532.5515074608707
 20
219.5000003847392
 30
0.0
 40
1.0
100
AcDbArc
 50
19.47122063448879
 51
160.5287793655111
  0
ARC
  5
1B23
330
18
100
AcDbEntity
  8
DRAW2
100
AcDbCircle
 10
532.5515074608707
 20
222.4999703847391
 30
0.0
 40
1.0
100
AcDbArc
 50
199.4712206344886
 51
340.5287793655111
  0
LINE
  5
1B24
330
18
100
AcDbEntity
  8
DRAW2
100
AcDbLine
 10
559.5903074608709
 20
217.5358603847391
 30
0.0
 11
559.5903074608709
 21
224.4641103847392
 31
0.0
  0
ARC
  5
1B32
330
18
100
AcDbEntity
  8
DRAW2
100
AcDbCircle
 10
565.4370974608708
 20
209.0009503847392
 30
0.0
 40
3.0000002
100
AcDbArc
 50
349.0203300000008
 51
89.26837999999797
  0
ARC
  5
1B33
330
18
100
AcDbEntity
  8
DRAW2
100
AcDbCircle
 10
565.4370974608708
 20
209.0009503847392
 30
0.0
 40
3.0000002
100
AcDbArc
 50
349.0203300000008
 51
89.26837999999797
  0
LINE
  5
1B34
330
18
100
AcDbEntity
  8
DRAW2
100
AcDbLine
 10
568.5903374608707
 20
180.9999703847391
 30
0.0
 11
568.5903374608707
 21
192.4342703847391
 31
0.0
  0
LINE
  5
1B35
330
18
100
AcDbEntity
  8
DRAW2
100
AcDbLine
 10
571.5902974608709
 20
224.4641103847392
 30
0.0
 11
571.5902974608709
 21
217.5358603847391
 31
0.0
  0
LINE
  5
1B36
330
18
100
AcDbEntity
  8
DRAW2
100
AcDbLine
 10
571.5903074608709
 20
217.5358603847391
 30
0.0
 11
565.5903374608707
 21
214.071780384739
 31
0.0
  0
ARC
  5
1B37
330
18
100
AcDbEntity
  8
DRAW2
100
AcDbCircle
 10
565.4370974608708
 20
232.9989903847391
 30
0.0
 40
3.0000002
100
AcDbArc
 50
270.731620000002
 51
10.9796690000004
  0
LINE
  5
1B38
330
18
100
AcDbEntity
  8
DRAW2
100
AcDbLine
 10
565.5903274608707
 20
227.928160384739
 30
0.0
 11
571.5903074608709
 21
224.464080384739
 31
0.0
  0
ARC
  5
1B39
330
18
100
AcDbEntity
  8
DRAW2
100
AcDbCircle
 10
575.5903074608709
 20
230.9999703847391
 30
0.0
 40
2.0
100
AcDbArc
 50
270.0
 51
0.0
  0
LINE
  5
1B3A
330
18
100
AcDbEntity
  8
DRAW2
100
AcDbLine
 10
577.5903074608707
 20
233.000030384739
 30
0.0
 11
578.5903374608706
 21
233.000030384739
 31
0.0
  0
LINE
  5
1B3B
330
18
100
AcDbEntity
  8
DRAW2
100
AcDbLine
 10
575.5903074608709
 20
228.9999703847391
 30
0.0
 11
574.1381974608708
 21
228.9999703847391
 31
0.0
  0
ARC
  5
1B3C
330
18
100
AcDbEntity
  8
DRAW2
100
AcDbCircle
 10
531.8403274608709
 20
344.2125403847391
 30
0.0
 40
9.3874664
100
AcDbArc
 50
69.74455099999772
 51
110.2554700000023
  0
LINE
  5
1B3D
330
18
100
AcDbEntity
  8
DRAW2
100
AcDbLine
 10
520.8403274608708
 20
343.5000003847391
 30
0.0
 11
536.3403274608709
 21
343.5000003847391
 31
0.0
  0
LINE
  5
1B3E
330
18
100
AcDbEntity
  8
DRAW2
100
AcDbLine
 10
520.8403274608708
 20
345.1000103847391
 30
0.0
 11
536.3403274608709
 21
345.1000103847391
 31
0.0
  0
LINE
  5
1B3F
330
18
100
AcDbEntity
  8
DRAW2
100
AcDbLine
 10
522.0903274608708
 20
353.6000103847391
 30
0.0
 11
535.0903274608708
 21
353.6000103847391
 31
0.0
  0
LINE
  5
1B40
330
18
100
AcDbEntity
  8
DRAW2
100
AcDbLine
 10
521.2903374608709
 20
347.1000103847391
 30
0.0
 11
535.8903174608708
 21
347.1000103847391
 31
0.0
  0
CIRCLE
  5
1B41
330
18
100
AcDbEntity
  8
DRAW2
100
AcDbCircle
 10
534.5903274608708
 20
274.6935703847392
 30
0.0
 40
4.0
  0
CIRCLE
  5
1B42
330
18
100
AcDbEntity
  8
DRAW2
100
AcDbCircle
 10
534.5903274608708
 20
274.6935703847392
 30
0.0
 40
7.8000002
  0
CIRCLE
  5
1B43
330
18
100
AcDbEntity
  8
DRAW2
100
AcDbCircle
 10
534.5903274608708
 20
274.6935703847392
 30
0.0
 40
8.500000999999999
  0
CIRCLE
  5
1B44
330
18
100
AcDbEntity
  8
DRAW2
100
AcDbCircle
 10
534.5903274608708
 20
274.6935703847392
 30
0.0
 40
6.000000499999998
  0
ARC
  5
1B47
330
18
100
AcDbEntity
  8
DRAW2
100
AcDbCircle
 10
534.5903274608708
 20
274.6935703847392
 30
0.0
 40
9.0
100
AcDbArc
 50
178.5367700000002
 51
329.2683899999993
  0
LINE
  5
1B49
330
18
100
AcDbEntity
  8
DRAW2
100
AcDbLine
 10
534.5903274608708
 20
267.7653803847392
 30
0.0
 11
528.5903274608708
 21
271.2294603847392
 31
0.0
  0
LINE
  5
1B4A
330
18
100
AcDbEntity
  8
DRAW2
100
AcDbLine
 10
528.5903274608708
 20
278.1576503847392
 30
0.0
 11
534.5902974608709
 21
281.6217403847392
 31
0.0
  0
LINE
  5
1B4B
330
18
100
AcDbEntity
  8
DRAW2
100
AcDbLine
 10
537.0903274608708
 20
343.5000003847391
 30
0.0
 11
470.0903274608708
 21
343.5000003847391
 31
0.0
  0
LINE
  5
1B4C
330
18
100
AcDbEntity
  8
DRAW2
100
AcDbLine
 10
537.5903274608709
 20
303.4999703847391
 30
0.0
 11
469.5902974608708
 21
303.4999703847391
 31
0.0
  0
LINE
  5
1B4D
330
18
100
AcDbEntity
  8
DRAW2
100
AcDbLine
 10
532.8903174608708
 20
323.5000003847391
 30
0.0
 11
520.0696674608708
 21
324.3248003847392
 31
0.0
  0
LINE
  5
1B4E
330
18
100
AcDbEntity
  8
DRAW2
100
AcDbLine
 10
532.8903174608708
 20
323.4999703847392
 30
0.0
 11
520.0696974608709
 21
322.6751703847392
 31
0.0
  0
LINE
  5
1B50
330
18
100
AcDbEntity
  8
DRAW2
100
AcDbLine
 10
468.9926374608709
 20
282.9999703847391
 30
0.0
 11
538.1880174608709
 21
282.9999703847391
 31
0.0
  0
LINE
  5
1B51
330
18
100
AcDbEntity
  8
DRAW2
100
AcDbLine
 10
469.5902974608708
 20
303.4999703847391
 30
0.0
 11
469.5902974608708
 21
282.9999703847391
 31
0.0
  0
ARC
  5
1B52
330
18
100
AcDbEntity
  8
DRAW2
100
AcDbCircle
 10
503.5903274608708
 20
221.0000003847392
 30
0.0
 40
30.0
100
AcDbArc
 50
63.75973958297585
 51
116.2402321779806
  0
ARC
  5
1B53
330
18
100
AcDbEntity
  8
DRAW2
100
AcDbCircle
 10
503.5903274608708
 20
221.0000003847392
 30
0.0
 40
28.0
100
AcDbArc
 50
64.17059727258397
 51
115.829402514887
  0
LINE
  5
1B54
330
18
100
AcDbEntity
  8
DRAW2
100
AcDbLine
 10
481.6509974608709
 20
261.9999703847391
 30
0.0
 11
525.5296274608708
 21
261.9999703847391
 31
0.0
  0
LINE
  5
1B55
330
18
100
AcDbEntity
  8
DRAW2
100
AcDbLine
 10
484.5863874608708
 20
278.0000003847391
 30
0.0
 11
503.0903274608708
 21
278.0000003847391
 31
0.0
  0
LINE
  5
1B57
330
18
100
AcDbEntity
  8
DRAW2
100
AcDbLine
 10
472.5903574608707
 20
267.7653203847392
 30
0.0
 11
466.5903274608708
 21
271.229430384739
 31
0.0
  0
LINE
  5
1B58
330
18
100
AcDbEntity
  8
DRAW2
100
AcDbLine
 10
478.5903274608708
 20
271.229430384739
 30
0.0
 11
472.5902974608708
 21
267.7653203847392
 31
0.0
  0
LINE
  5
1B59
330
18
100
AcDbEntity
  8
DRAW2
100
AcDbLine
 10
483.5902974608709
 20
277.8297703847391
 30
0.0
 11
483.5902974608709
 21
261.9999703847391
 31
0.0
  0
LINE
  5
1B5B
330
18
100
AcDbEntity
  8
DRAW2
100
AcDbLine
 10
487.1035717561646
 20
246.5558320184948
 30
0.0
 11
475.7283270959942
 21
266.2583602504813
 31
0.0
  0
LINE
  5
1B66
330
18
100
AcDbEntity
  8
DRAW2
100
AcDbLine
 10
491.5903274608708
 20
261.5000003847391
 30
0.0
 11
491.5903274608708
 21
248.4954203847391
 31
0.0
  0
LINE
  5
1B67
330
18
100
AcDbEntity
  8
DRAW2
100
AcDbLine
 10
489.672173402786
 20
248.1069182401354
 30
0.0
 11
478.3264004295834
 21
267.7583614670262
 31
0.0
  0
ARC
  5
1B68
330
18
100
AcDbEntity
  8
DRAW2
100
AcDbCircle
 10
490.1051860384978
 20
248.3569183547627
 30
0.0
 40
0.5
100
AcDbArc
 50
210.0000151673794
 51
296.2402321779806
  0
ARC
  5
1B69
330
18
100
AcDbEntity
  8
DRAW2
100
AcDbCircle
 10
489.2686553010848
 20
247.8058321252864
 30
0.0
 40
0.5
100
AcDbArc
 50
319.471377972344
 51
30.00001516737957
  0
ARC
  5
1B6A
330
18
100
AcDbEntity
  8
DRAW2
100
AcDbCircle
 10
490.4087774608709
 20
246.8310903847391
 30
0.0
 40
1.0
100
AcDbArc
 50
139.4713779723453
 51
280.528289254757
  0
ARC
  5
1B6B
330
18
100
AcDbEntity
  8
DRAW2
100
AcDbCircle
 10
488.1446564813452
 20
243.7526100810408
 30
0.0
 40
0.5
100
AcDbArc
 50
30.00004467208591
 51
124.1707285449454
  0
ARC
  5
1B6C
330
18
100
AcDbEntity
  8
DRAW2
100
AcDbCircle
 10
488.9508009190368
 20
244.3563267699699
 30
0.0
 40
0.5
100
AcDbArc
 50
139.470278694634
 51
210.0000446720859
  0
ARC
  5
1B6D
330
18
100
AcDbEntity
  8
DRAW2
100
AcDbCircle
 10
487.536584603834
 20
246.8058317660013
 30
0.0
 40
0.5
100
AcDbArc
 50
209.9999665903348
 51
280.5295089063903
  0
ARC
  5
1B6E
330
18
100
AcDbEntity
  8
DRAW2
100
AcDbCircle
 10
486.6410710194789
 20
246.3569068617511
 30
0.0
 40
0.5
100
AcDbArc
 50
303.7598609644816
 51
29.99996659033641
  0
ARC
  5
1B6F
330
18
100
AcDbEntity
  8
DRAW2
100
AcDbCircle
 10
487.8106974608709
 20
245.331090384739
 30
0.0
 40
1.0
100
AcDbArc
 50
319.4702786946353
 51
100.5295089063902
  0
ARC
  5
1B70
330
18
100
AcDbEntity
  8
DRAW2
100
AcDbCircle
 10
490.6828589251191
 20
245.356343168788
 30
0.0
 40
0.5
100
AcDbArc
 50
30.00005715502942
 51
100.528289254757
  0
ARC
  5
1B71
330
18
100
AcDbEntity
  8
DRAW2
100
AcDbCircle
 10
491.6087683314333
 20
245.7526212727944
 30
0.0
 40
0.5
100
AcDbArc
 50
115.8294025148929
 51
210.0000571550308
  0
LINE
  5
1B72
330
18
100
AcDbEntity
  8
DRAW2
100
AcDbLine
 10
491.5903274608708
 20
246.298190384739
 30
0.0
 11
491.5903274608708
 21
244.784610384739
 31
0.0
  0
ARC
  5
1B75
330
18
100
AcDbEntity
  8
DRAW2
100
AcDbCircle
 10
491.0903274608708
 20
261.5000003847391
 30
0.0
 40
0.5
100
AcDbArc
 50
0.0
 51
90.00000299999769
  0
ARC
  5
1B76
330
18
100
AcDbEntity
  8
DRAW2
100
AcDbCircle
 10
484.5863874608708
 20
275.0000003847391
 30
0.0
 40
3.0000002
100
AcDbArc
 50
90.00000299999769
 51
181.4632399999997
  0
CIRCLE
  5
1B77
330
18
100
AcDbEntity
  8
DRAW3
100
AcDbCircle
 10
472.5902974608708
 20
274.6935703847392
 30
0.0
 40
3.375
  0
CIRCLE
  5
1B78
330
18
100
AcDbEntity
  8
DRAW2
100
AcDbCircle
 10
472.5902974608708
 20
274.6935703847392
 30
0.0
 40
4.0
  0
CIRCLE
  5
1B79
330
18
100
AcDbEntity
  8
DRAW2
100
AcDbCircle
 10
472.5902974608708
 20
274.6935703847392
 30
0.0
 40
6.000000499999998
  0
LINE
  5
1B7A
330
18
100
AcDbEntity
  8
DRAW2
100
AcDbLine
 10
472.5903274608707
 20
281.6217403847392
 30
0.0
 11
478.5903574608708
 21
278.1576203847391
 31
0.0
  0
LINE
  5
1B7B
330
18
100
AcDbEntity
  8
DRAW2
100
AcDbLine
 10
466.5903274608708
 20
271.229430384739
 30
0.0
 11
466.5903274608708
 21
278.1576503847392
 31
0.0
  0
LINE
  5
1B7C
330
18
100
AcDbEntity
  8
DRAW2
100
AcDbLine
 10
466.5902974608709
 20
278.1576503847392
 30
0.0
 11
472.5903274608707
 21
281.6217703847391
 31
0.0
  0
LINE
  5
1B7D
330
18
100
AcDbEntity
  8
DRAW2
100
AcDbLine
 10
478.5903274608708
 20
278.1576503847392
 30
0.0
 11
478.5903274608708
 21
271.229430384739
 31
0.0
  0
LINE
  5
1B7F
330
18
100
AcDbEntity
  8
DRAW2
100
AcDbLine
 10
505.5903274608708
 20
265.9999703847391
 30
0.0
 11
505.5903274608708
 21
271.0000003847391
 31
0.0
  0
LINE
  5
1B80
330
18
100
AcDbEntity
  8
DRAW2
100
AcDbLine
 10
501.5903274608707
 20
265.9999703847391
 30
0.0
 11
501.5903274608707
 21
271.0000003847391
 31
0.0
  0
LINE
  5
1B81
330
18
100
AcDbEntity
  8
DRAW2
100
AcDbLine
 10
523.5903274608708
 20
277.8297703847391
 30
0.0
 11
523.5903274608708
 21
261.9999703847391
 31
0.0
  0
LINE
  5
1B82
330
18
100
AcDbEntity
  8
DRAW2
100
AcDbLine
 10
501.5903274608707
 20
265.9999703847391
 30
0.0
 11
505.5903274608708
 21
265.9999703847391
 31
0.0
  0
LINE
  5
1B83
330
18
100
AcDbEntity
  8
DRAW2
100
AcDbLine
 10
515.5903274608708
 20
261.5000003847391
 30
0.0
 11
515.5903274608708
 21
248.4954203847391
 31
0.0
  0
LINE
  5
1B84
330
18
100
AcDbEntity
  8
DRAW2
100
AcDbLine
 10
517.4789852304841
 20
248.0557992011009
 30
0.0
 11
528.8542565190671
 21
267.7583349777328
 31
0.0
  0
LINE
  5
1B85
330
18
100
AcDbEntity
  8
DRAW2
100
AcDbLine
 10
520.1065639742814
 20
246.6069116662984
 30
0.0
 11
531.4523259478376
 21
266.2583497886787
 31
0.0
  0
ARC
  5
1B86
330
18
100
AcDbEntity
  8
DRAW2
100
AcDbCircle
 10
520.5395766868251
 20
246.3569116847474
 30
0.0
 40
0.5
100
AcDbArc
 50
150.0000024411521
 51
236.240155339325
  0
ARC
  5
1B87
330
18
100
AcDbEntity
  8
DRAW2
100
AcDbCircle
 10
519.6440612537868
 20
246.805833450737
 30
0.0
 40
0.5
100
AcDbArc
 50
259.47084324727
 51
330.0000024411565
  0
ARC
  5
1B88
330
18
100
AcDbEntity
  8
DRAW2
100
AcDbCircle
 10
518.2298438424202
 20
244.3563386537718
 30
0.0
 40
0.5
100
AcDbArc
 50
330.0000031530273
 51
40.52912408879655
  0
ARC
  5
1B89
330
18
100
AcDbEntity
  8
DRAW2
100
AcDbCircle
 10
519.0359862947407
 20
243.7526183261475
 30
0.0
 40
0.5
100
AcDbArc
 50
55.82930204032114
 51
150.0000031530273
  0
ARC
  5
1B8A
330
18
100
AcDbEntity
  8
DRAW2
100
AcDbCircle
 10
515.5718866821228
 20
245.7526212283515
 30
0.0
 40
0.5
100
AcDbArc
 50
329.999991510513
 51
64.17059727258397
  0
ARC
  5
1B8B
330
18
100
AcDbEntity
  8
DRAW2
100
AcDbCircle
 10
516.4977930896813
 20
245.3563381338061
 30
0.0
 40
0.5
100
AcDbArc
 50
79.47276334277059
 51
149.9999915105145
  0
ARC
  5
1B8C
330
18
100
AcDbEntity
  8
DRAW2
100
AcDbCircle
 10
517.9119978661962
 20
247.8057990864735
 30
0.0
 40
0.5
100
AcDbArc
 50
149.9999848326204
 51
220.526961713382
  0
ARC
  5
1B8D
330
18
100
AcDbEntity
  8
DRAW2
100
AcDbCircle
 10
517.0754823664895
 20
248.356911708415
 30
0.0
 40
0.5
100
AcDbArc
 50
243.7597395829758
 51
329.9999848326246
  0
ARC
  5
1B8E
330
18
100
AcDbEntity
  8
DRAW2
100
AcDbCircle
 10
519.3699574608708
 20
245.331090384739
 30
0.0
 40
1.0
100
AcDbArc
 50
79.47084324727005
 51
220.5291240888031
  0
ARC
  5
1B8F
330
18
100
AcDbEntity
  8
DRAW2
100
AcDbCircle
 10
516.7718474608708
 20
246.8310903847391
 30
0.0
 40
1.0
100
AcDbArc
 50
259.4727633427705
 51
40.52696171338079
  0
LINE
  5
1B90
330
18
100
AcDbEntity
  8
DRAW2
100
AcDbLine
 10
515.5903274608708
 20
246.298190384739
 30
0.0
 11
515.5903274608708
 21
244.784610384739
 31
0.0
  0
ARC
  5
1B92
330
18
100
AcDbEntity
  8
DRAW2
100
AcDbCircle
 10
516.0903274608708
 20
261.5000003847391
 30
0.0
 40
0.5
100
AcDbArc
 50
90.00000299999769
 51
180.0000099999992
  0
LINE
  5
1B9E
330
18
100
AcDbEntity
  8
DRAW2
100
AcDbLine
 10
504.0903274608708
 20
278.0000003847391
 30
0.0
 11
522.5942374608709
 21
278.0000003847391
 31
0.0
  0
LINE
  5
1B9F
330
18
100
AcDbEntity
  8
DRAW2
100
AcDbLine
 10
505.5903274608708
 20
271.0000003847391
 30
0.0
 11
507.5903274608708
 21
271.0000003847391
 31
0.0
  0
LINE
  5
1BA0
330
18
100
AcDbEntity
  8
DRAW2
100
AcDbLine
 10
507.5903274608708
 20
270.9999703847391
 30
0.0
 11
503.5903274608708
 21
278.9999703847391
 31
0.0
  0
LINE
  5
1BA1
330
18
100
AcDbEntity
  8
DRAW2
100
AcDbLine
 10
499.5902974608709
 20
271.0000003847391
 30
0.0
 11
503.5902974608709
 21
279.0000003847391
 31
0.0
  0
LINE
  5
1BA2
330
18
100
AcDbEntity
  8
DRAW2
100
AcDbLine
 10
499.5903274608708
 20
271.0000003847391
 30
0.0
 11
501.5903274608707
 21
271.0000003847391
 31
0.0
  0
ARC
  5
1BA3
330
18
100
AcDbEntity
  8
DRAW2
100
AcDbCircle
 10
522.5942374608709
 20
275.0000003847391
 30
0.0
 40
3.0000002
100
AcDbArc
 50
358.5367700000003
 51
90.00000299999769
  0
LINE
  5
1BA4
330
18
100
AcDbEntity
  8
DRAW2
100
AcDbLine
 10
528.5903274608708
 20
271.229430384739
 30
0.0
 11
528.5903274608708
 21
278.1576503847392
 31
0.0
  0
CIRCLE
  5
1BA5
330
18
100
AcDbEntity
  8
DRAW2
100
AcDbCircle
 10
503.5903274608708
 20
323.4999703847392
 30
0.0
 40
7.5
  0
CIRCLE
  5
1BA6
330
18
100
AcDbEntity
  8
DRAW2
100
AcDbCircle
 10
503.5903274608708
 20
323.4999703847392
 30
0.0
 40
16.5
  0
CIRCLE
  5
1BA7
330
18
100
AcDbEntity
  8
DRAW3
100
AcDbCircle
 10
503.5903274608708
 20
323.4999703847392
 30
0.0
 40
10.5
  0
CIRCLE
  5
1BA8
330
18
100
AcDbEntity
  8
DRAW2
100
AcDbCircle
 10
503.5903274608708
 20
323.4999703847392
 30
0.0
 40
9.300001099999999
  0
LINE
  5
1BA9
330
18
100
AcDbEntity
  8
DRAW2
100
AcDbLine
 10
469.5902974608708
 20
342.5000003847391
 30
0.0
 11
469.5902974608708
 21
302.4999703847392
 31
0.0
  0
LINE
  5
1BAA
330
18
100
AcDbEntity
  8
DRAW2
100
AcDbLine
 10
474.2903374608708
 20
323.4999703847392
 30
0.0
 11
487.1109574608707
 21
324.3248003847392
 31
0.0
  0
LINE
  5
1BAB
330
18
100
AcDbEntity
  8
DRAW2
100
AcDbLine
 10
474.2903074608707
 20
323.5000303847392
 30
0.0
 11
487.1109574608707
 21
322.6752003847392
 31
0.0
  0
ARC
  5
1BAC
330
18
100
AcDbEntity
  8
DRAW2
100
AcDbCircle
 10
481.8403274608709
 20
344.2125403847391
 30
0.0
 40
9.3874664
100
AcDbArc
 50
69.74455099999772
 51
110.2554700000023
  0
LINE
  5
1BAD
330
18
100
AcDbEntity
  8
DRAW2
100
AcDbLine
 10
470.8403274608707
 20
343.5000003847391
 30
0.0
 11
486.3403274608709
 21
343.5000003847391
 31
0.0
  0
LINE
  5
1BAE
330
18
100
AcDbEntity
  8
DRAW2
100
AcDbLine
 10
470.8403274608707
 20
345.1000103847391
 30
0.0
 11
486.3403274608709
 21
345.1000103847391
 31
0.0
  0
LINE
  5
1BAF
330
18
100
AcDbEntity
  8
DRAW2
100
AcDbLine
 10
472.0903274608708
 20
353.6000103847391
 30
0.0
 11
485.0903274608707
 21
353.6000103847391
 31
0.0
  0
LINE
  5
1BB0
330
18
100
AcDbEntity
  8
DRAW2
100
AcDbLine
 10
471.2903374608709
 20
347.1000103847391
 30
0.0
 11
485.8903174608709
 21
347.1000103847391
 31
0.0
  0
ARC
  5
1BB1
330
18
100
AcDbEntity
  8
DRAW2
100
AcDbCircle
 10
475.3403274608707
 20
344.2125403847391
 30
0.0
 40
9.3874664
100
AcDbArc
 50
69.74455099999772
 51
110.2554700000023
  0
LINE
  5
1BB2
330
18
100
AcDbEntity
  8
DRAW2
100
AcDbLine
 10
470.8403274608707
 20
345.1000103847391
 30
0.0
 11
470.8403274608707
 21
343.5000003847391
 31
0.0
  0
LINE
  5
1BB3
330
18
100
AcDbEntity
  8
DRAW2
100
AcDbLine
 10
471.2903374608709
 20
347.1000103847391
 30
0.0
 11
471.2903374608709
 21
345.1000103847391
 31
0.0
  0
LINE
  5
1BB4
330
18
100
AcDbEntity
  8
DRAW2
100
AcDbLine
 10
472.0903274608708
 20
353.6000103847391
 30
0.0
 11
472.0903274608708
 21
347.1000103847391
 31
0.0
  0
ARC
  5
1BB5
330
18
100
AcDbEntity
  8
DRAW2
100
AcDbCircle
 10
470.5902974608709
 20
342.5000003847391
 30
0.0
 40
1.0
100
AcDbArc
 50
90.00000299999769
 51
180.0000099999992
  0
LINE
  5
1BB6
330
18
100
AcDbEntity
  8
DRAW2
100
AcDbLine
 10
477.7243274608708
 20
347.1000003847391
 30
0.0
 11
478.8790374608709
 21
345.0999903847391
 31
0.0
  0
LINE
  5
1BB7
330
18
100
AcDbEntity
  8
DRAW2
100
AcDbLine
 10
478.3016774608709
 20
347.0999803847391
 30
0.0
 11
479.4563674608708
 21
345.0999903847391
 31
0.0
  0
LINE
  5
1BB8
330
18
100
AcDbEntity
  8
DRAW2
100
AcDbLine
 10
478.5903274608708
 20
353.0194703847391
 30
0.0
 11
478.5903274608708
 21
347.1000103847391
 31
0.0
  0
LINE
  5
1BB9
330
18
100
AcDbEntity
  8
DRAW2
100
AcDbLine
 10
486.3403274608709
 20
345.1000103847391
 30
0.0
 11
486.3403274608709
 21
343.5000003847391
 31
0.0
  0
LINE
  5
1BBA
330
18
100
AcDbEntity
  8
DRAW2
100
AcDbLine
 10
485.8903174608709
 20
347.1000103847391
 30
0.0
 11
485.8903174608709
 21
345.1000103847391
 31
0.0
  0
LINE
  5
1BBB
330
18
100
AcDbEntity
  8
DRAW2
100
AcDbLine
 10
485.0903274608707
 20
353.6000103847391
 30
0.0
 11
485.0903274608707
 21
347.1000103847391
 31
0.0
  0
ARC
  5
1BBC
330
18
100
AcDbEntity
  8
DRAW2
100
AcDbCircle
 10
503.5903274608708
 20
307.5000003847391
 30
0.0
 40
1.0
100
AcDbArc
 50
208.4611299999989
 51
331.5388700000009
  0
ARC
  5
1BBD
330
18
100
AcDbEntity
  8
DRAW2
100
AcDbCircle
 10
503.5903274608708
 20
339.5000003847391
 30
0.0
 40
1.0
100
AcDbArc
 50
28.46113399999959
 51
151.5388700000009
  0
ARC
  5
1BBE
330
18
100
AcDbEntity
  8
DRAW2
100
AcDbCircle
 10
525.3403274608708
 20
344.2125403847391
 30
0.0
 40
9.3874664
100
AcDbArc
 50
69.74455099999772
 51
110.2554700000023
  0
LINE
  5
1BBF
330
18
100
AcDbEntity
  8
DRAW2
100
AcDbLine
 10
520.8403274608708
 20
345.1000103847391
 30
0.0
 11
520.8403274608708
 21
343.5000003847391
 31
0.0
  0
LINE
  5
1BC0
330
18
100
AcDbEntity
  8
DRAW2
100
AcDbLine
 10
521.2903374608709
 20
347.1000103847391
 30
0.0
 11
521.2903374608709
 21
345.1000103847391
 31
0.0
  0
LINE
  5
1BC1
330
18
100
AcDbEntity
  8
DRAW2
100
AcDbLine
 10
522.0903274608708
 20
353.6000103847391
 30
0.0
 11
522.0903274608708
 21
347.1000103847391
 31
0.0
  0
LINE
  5
1BC2
330
18
100
AcDbEntity
  8
DRAW2
100
AcDbLine
 10
527.7243274608707
 20
347.1000003847391
 30
0.0
 11
528.8790374608709
 21
345.0999903847391
 31
0.0
  0
LINE
  5
1BC3
330
18
100
AcDbEntity
  8
DRAW2
100
AcDbLine
 10
528.3016774608709
 20
347.0999803847391
 30
0.0
 11
529.4563674608708
 21
345.0999903847391
 31
0.0
  0
LINE
  5
1BC4
330
18
100
AcDbEntity
  8
DRAW2
100
AcDbLine
 10
528.5903274608708
 20
353.0194703847391
 30
0.0
 11
528.5903274608708
 21
347.1000103847391
 31
0.0
  0
LINE
  5
1BC5
330
18
100
AcDbEntity
  8
DRAW2
100
AcDbLine
 10
537.5903274608709
 20
300.4999703847392
 30
0.0
 11
563.7729474608708
 21
258.6702903847391
 31
0.0
  0
LINE
  5
1BC6
330
18
100
AcDbEntity
  8
DRAW2
100
AcDbLine
 10
537.5903274608709
 20
303.4999703847391
 30
0.0
 11
537.5903274608709
 21
282.9999703847391
 31
0.0
  0
LINE
  5
1BC8
330
18
100
AcDbEntity
  8
DRAW2
100
AcDbLine
 10
575.5903074608709
 20
268.9999703847391
 30
0.0
 11
557.3072274608708
 21
268.9999703847391
 31
0.0
  0
LINE
  5
1BC9
330
18
100
AcDbEntity
  8
DRAW2
100
AcDbLine
 10
540.5902974608709
 20
271.2294603847392
 30
0.0
 11
534.5903274608708
 21
267.7653803847392
 31
0.0
  0
LINE
  5
1BD6
330
18
100
AcDbEntity
  8
DRAW2
100
AcDbLine
 10
534.5903274608708
 20
281.6217403847392
 30
0.0
 11
540.5903274608708
 21
278.1576503847392
 31
0.0
  0
CIRCLE
  5
1BD7
330
18
100
AcDbEntity
  8
DRAW3
100
AcDbCircle
 10
534.5903274608708
 20
274.6935703847392
 30
0.0
 40
3.375
  0
ARC
  5
1BD8
330
18
100
AcDbEntity
  8
DRAW2
100
AcDbCircle
 10
544.9051774608708
 20
268.5613403847392
 30
0.0
 40
3.0000002
100
AcDbArc
 50
49.02033299999832
 51
149.2683699999979
  0
LINE
  5
1BD9
330
18
100
AcDbEntity
  8
DRAW2
100
AcDbLine
 10
540.5903274608708
 20
278.1576503847392
 30
0.0
 11
540.5903274608708
 21
271.229430384739
 31
0.0
  0
ARC
  5
1BDA
330
18
100
AcDbEntity
  8
DRAW2
100
AcDbCircle
 10
575.5903074608709
 20
267.0000003847391
 30
0.0
 40
2.0
100
AcDbArc
 50
0.0
 51
90.00000299999769
  0
LINE
  5
1BDB
330
18
100
AcDbEntity
  8
DRAW2
100
AcDbLine
 10
578.5903374608706
 20
244.9999703847391
 30
0.0
 11
585.5903174608709
 21
245.0001857698159
 31
0.0
  0
LINE
  5
1BDC
330
18
100
AcDbEntity
  8
DRAW2
100
AcDbLine
 10
578.5903374608706
 20
253.0000003847391
 30
0.0
 11
585.5903174608709
 21
253.0000003847392
 31
0.0
  0
LINE
  5
1BDD
330
18
100
AcDbEntity
  8
DRAW2
100
AcDbLine
 10
577.5903074608707
 20
265.0000303847392
 30
0.0
 11
578.5903374608706
 21
265.0000303847392
 31
0.0
  0
LINE
  5
1BDE
330
18
100
AcDbEntity
  8
DRAW2
100
AcDbLine
 10
586.090257460871
 20
245.5001203847391
 30
0.0
 11
585.590267460871
 21
245.0001203847391
 31
0.0
  0
LINE
  5
1BDF
330
18
100
AcDbEntity
  8
DRAW2
100
AcDbLine
 10
586.0903274608708
 20
252.5000003847392
 30
0.0
 11
586.0903274608708
 21
245.5000003847391
 31
0.0
  0
LINE
  5
1BE0
330
18
100
AcDbEntity
  8
DRAW2
100
AcDbLine
 10
585.5903174608709
 20
253.0000003847392
 30
0.0
 11
585.5903174608709
 21
245.0000003847392
 31
0.0
  0
LINE
  5
1BE1
330
18
100
AcDbEntity
  8
DRAW2
100
AcDbLine
 10
585.5902574608709
 20
253.0000003847392
 30
0.0
 11
586.0902374608709
 21
252.5000003847392
 31
0.0
  0
LINE
  5
1BE2
330
18
100
AcDbEntity
  8
DRAW2
100
AcDbLine
 10
537.5903274608709
 20
342.5000003847391
 30
0.0
 11
537.5903274608709
 21
302.4999703847392
 31
0.0
  0
LINE
  5
1BE3
330
18
100
AcDbEntity
  8
DRAW2
100
AcDbLine
 10
536.3403274608709
 20
345.1000103847391
 30
0.0
 11
536.3403274608709
 21
343.5000003847391
 31
0.0
  0
LINE
  5
1BE4
330
18
100
AcDbEntity
  8
DRAW2
100
AcDbLine
 10
535.8903174608708
 20
347.1000103847391
 30
0.0
 11
535.8903174608708
 21
345.1000103847391
 31
0.0
  0
LINE
  5
1BE5
330
18
100
AcDbEntity
  8
DRAW2
100
AcDbLine
 10
535.0903274608708
 20
353.6000103847391
 30
0.0
 11
535.0903274608708
 21
347.1000103847391
 31
0.0
  0
ARC
  5
1BE6
330
18
100
AcDbEntity
  8
DRAW2
100
AcDbCircle
 10
536.5902974608709
 20
342.5000003847391
 30
0.0
 40
1.0
100
AcDbArc
 50
0.0
 51
90.00000299999769
  0
LINE
  5
1BEA
330
18
100
AcDbEntity
  8
DRAW2
100
AcDbLine
 10
525.2153574608708
 20
361.5000003847391
 30
0.0
 11
531.9652974608709
 21
361.5000003847391
 31
0.0
  0
LINE
  5
1BEB
330
18
100
AcDbEntity
  8
DRAW2
100
AcDbLine
 10
524.5903574608708
 20
360.8749403847391
 30
0.0
 11
532.5903274608708
 21
360.8749403847391
 31
0.0
  0
LINE
  5
1BEC
330
18
100
AcDbEntity
  8
DRAW2
100
AcDbLine
 10
475.2153274608708
 20
361.5000003847391
 30
0.0
 11
481.9652974608708
 21
361.5000003847391
 31
0.0
  0
LINE
  5
1BED
330
18
100
AcDbEntity
  8
DRAW2
100
AcDbLine
 10
474.5903574608708
 20
360.8749403847391
 30
0.0
 11
482.5903274608708
 21
360.8749403847391
 31
0.0
  0
LINE
  5
1BEE
330
18
100
AcDbEntity
  8
DRAW2
100
AcDbLine
 10
475.2154774608708
 20
361.4999103847391
 30
0.0
 11
474.5904774608709
 21
360.8748803847391
 31
0.0
  0
LINE
  5
1BEF
330
18
100
AcDbEntity
  8
DRAW2
100
AcDbLine
 10
481.9653274608707
 20
361.4999403847391
 30
0.0
 11
482.5903574608708
 21
360.8749403847391
 31
0.0
  0
LINE
  5
1BF0
330
18
100
AcDbEntity
  8
DRAW2
100
AcDbLine
 10
525.2154174608708
 20
361.4999103847391
 30
0.0
 11
524.5904174608709
 21
360.8749103847391
 31
0.0
  0
LINE
  5
1BF1
330
18
100
AcDbEntity
  8
DRAW2
100
AcDbLine
 10
531.9653274608708
 20
361.4999703847391
 30
0.0
 11
532.5903574608708
 21
360.8749403847391
 31
0.0
  0
LINE
  5
3161
330
18
100
AcDbEntity
  8
DRAW3
100
AcDbLine
 10
241.2093255447785
 20
170.681380384739
 30
0.0
 11
238.3093955447785
 21
170.681380384739
 31
0.0
  0
LINE
  5
3162
330
18
100
AcDbEntity
  8
DRAW2
100
AcDbLine
 10
240.5843255447785
 20
171.3063803847391
 30
0.0
 11
238.3093955447785
 21
171.3063803847391
 31
0.0
  0
LINE
  5
3163
330
18
100
AcDbEntity
  8
DRAW3
100
AcDbLine
 10
241.2093255447785
 20
163.9314203847391
 30
0.0
 11
238.3093955447785
 21
163.9314203847391
 31
0.0
  0
LINE
  5
3164
330
18
100
AcDbEntity
  8
DRAW2
100
AcDbLine
 10
240.5843255447785
 20
163.3063803847391
 30
0.0
 11
238.3093955447785
 21
163.3063803847391
 31
0.0
  0
ARC
  5
3165
330
18
100
AcDbEntity
  8
DRAW2
100
AcDbCircle
 10
234.9867655447785
 20
172.9355503847391
 30
0.0
 40
3.3226678
100
AcDbArc
 50
325.6168399999986
 51
25.61446599999947
  0
LINE
  5
3166
330
18
100
AcDbEntity
  8
DRAW2
100
AcDbLine
 10
231.8094255447785
 20
174.8119403847391
 30
0.0
 11
231.8094255447785
 21
159.8008303847391
 31
0.0
  0
LINE
  5
3167
330
18
100
AcDbEntity
  8
DRAW2
100
AcDbLine
 10
238.3094255447784
 20
173.8064103847391
 30
0.0
 11
238.3094255447784
 21
160.8063803847391
 31
0.0
  0
LINE
  5
3168
330
18
100
AcDbEntity
  8
DRAW2
100
AcDbLine
 10
229.8094255447785
 20
175.056380384739
 30
0.0
 11
229.8094255447785
 21
159.556380384739
 31
0.0
  0
LINE
  5
3169
330
18
100
AcDbEntity
  8
DRAW2
100
AcDbLine
 10
237.7288955447785
 20
171.0591603847391
 30
0.0
 11
231.8094255447785
 21
171.0591603847391
 31
0.0
  0
LINE
  5
316A
330
18
100
AcDbEntity
  8
DRAW2
100
AcDbLine
 10
237.7288855447785
 20
163.5536103847391
 30
0.0
 11
231.8094255447785
 21
163.5536103847391
 31
0.0
  0
LINE
  5
316B
330
18
100
AcDbEntity
  8
DRAW2
100
AcDbLine
 10
237.7288755447785
 20
159.8008303847391
 30
0.0
 11
231.8094255447785
 21
159.8008303847391
 31
0.0
  0
LINE
  5
316C
330
18
100
AcDbEntity
  8
DRAW2
100
AcDbLine
 10
231.8094555447785
 20
168.1723803847391
 30
0.0
 11
229.8094455447785
 21
167.0176703847391
 31
0.0
  0
LINE
  5
316D
330
18
100
AcDbEntity
  8
DRAW2
100
AcDbLine
 10
231.8094255447785
 20
160.0064003847391
 30
0.0
 11
229.8094255447785
 21
160.0064003847391
 31
0.0
  0
LINE
  5
316E
330
18
100
AcDbEntity
  8
DRAW2
100
AcDbLine
 10
231.8093955447785
 20
167.5950303847391
 30
0.0
 11
229.8094055447786
 21
166.4403303847391
 31
0.0
  0
LINE
  5
316F
330
18
100
AcDbEntity
  8
DRAW2
100
AcDbLine
 10
229.8094255447785
 20
159.556380384739
 30
0.0
 11
228.2094155447785
 21
159.556380384739
 31
0.0
  0
LINE
  5
3170
330
18
100
AcDbEntity
  8
DRAW2
100
AcDbLine
 10
238.3094155447785
 20
160.8063903847391
 30
0.0
 11
237.7288555447786
 21
159.8008203847391
 31
0.0
  0
ARC
  5
3171
330
18
100
AcDbEntity
  8
DRAW2
100
AcDbCircle
 10
234.9868255447785
 20
161.6772203847391
 30
0.0
 40
3.322595799999999
100
AcDbArc
 50
334.3832000000007
 51
34.38389599999978
  0
ARC
  5
3172
330
18
100
AcDbEntity
  8
DRAW2
100
AcDbCircle
 10
225.8895655447785
 20
167.3063803847391
 30
0.0
 40
12.419868
100
AcDbArc
 50
342.4126499999992
 51
17.58735499999995
  0
LINE
  5
3173
330
18
100
AcDbEntity
  8
DRAW2
100
AcDbLine
 10
237.7288955447785
 20
174.8119403847391
 30
0.0
 11
231.8094255447785
 21
174.8119403847391
 31
0.0
  0
LINE
  5
3174
330
18
100
AcDbEntity
  8
DRAW2
100
AcDbLine
 10
231.8094255447785
 20
174.6063703847391
 30
0.0
 11
229.8094255447785
 21
174.6063703847391
 31
0.0
  0
LINE
  5
3175
330
18
100
AcDbEntity
  8
DRAW2
100
AcDbLine
 10
229.8094255447785
 20
175.056380384739
 30
0.0
 11
228.2094255447785
 21
175.056380384739
 31
0.0
  0
LINE
  5
3176
330
18
100
AcDbEntity
  8
DRAW2
100
AcDbLine
 10
237.7288655447785
 20
174.8119503847391
 30
0.0
 11
238.3094055447786
 21
173.8064203847391
 31
0.0
  0
LINE
  5
3177
330
18
100
AcDbEntity
  8
DRAW2
100
AcDbLine
 10
241.2093255447785
 20
170.6813203847391
 30
0.0
 11
240.5842955447785
 21
171.3063503847391
 31
0.0
  0
LINE
  5
3178
330
18
100
AcDbEntity
  8
DRAW2
100
AcDbLine
 10
241.2093255447785
 20
163.9313803847391
 30
0.0
 11
240.5843255447785
 21
163.3063503847391
 31
0.0
  0
LINE
  5
3179
330
18
100
AcDbEntity
  8
DRAW2
100
AcDbLine
 10
241.2093255447785
 20
170.681380384739
 30
0.0
 11
241.2093255447785
 21
163.9314203847391
 31
0.0
  0
LINE
  5
317A
330
18
100
AcDbEntity
  8
DRAW2
100
AcDbLine
 10
240.5843255447785
 20
171.3063803847391
 30
0.0
 11
240.5843255447785
 21
163.3063803847391
 31
0.0
  0
LINE
  5
3199
330
18
100
AcDbEntity
  8
DRAW3
100
AcDbLine
 10
241.2093255447785
 20
224.3749803847391
 30
0.0
 11
238.3093955447785
 21
224.3749803847391
 31
0.0
  0
LINE
  5
319A
330
18
100
AcDbEntity
  8
DRAW2
100
AcDbLine
 10
240.5843255447785
 20
224.9999803847391
 30
0.0
 11
238.3093955447785
 21
224.9999803847391
 31
0.0
  0
LINE
  5
319B
330
18
100
AcDbEntity
  8
DRAW3
100
AcDbLine
 10
241.2093255447785
 20
217.6250203847392
 30
0.0
 11
238.3093955447785
 21
217.6250203847392
 31
0.0
  0
LINE
  5
319C
330
18
100
AcDbEntity
  8
DRAW2
100
AcDbLine
 10
240.5843255447785
 20
216.9999803847391
 30
0.0
 11
238.3093955447785
 21
216.9999803847391
 31
0.0
  0
ARC
  5
319D
330
18
100
AcDbEntity
  8
DRAW2
100
AcDbCircle
 10
234.9867655447785
 20
226.6291503847392
 30
0.0
 40
3.3226678
100
AcDbArc
 50
325.6168399999986
 51
25.61446599999947
  0
LINE
  5
319E
330
18
100
AcDbEntity
  8
DRAW2
100
AcDbLine
 10
231.8094255447785
 20
228.5055403847392
 30
0.0
 11
231.8094255447785
 21
213.4944303847392
 31
0.0
  0
LINE
  5
319F
330
18
100
AcDbEntity
  8
DRAW2
100
AcDbLine
 10
238.3094255447784
 20
227.5000103847391
 30
0.0
 11
238.3094255447784
 21
214.4999803847391
 31
0.0
  0
LINE
  5
31A0
330
18
100
AcDbEntity
  8
DRAW2
100
AcDbLine
 10
229.8094255447785
 20
228.7499803847391
 30
0.0
 11
229.8094255447785
 21
213.2499803847391
 31
0.0
  0
LINE
  5
31A1
330
18
100
AcDbEntity
  8
DRAW2
100
AcDbLine
 10
237.7288955447785
 20
224.7527603847391
 30
0.0
 11
231.8094255447785
 21
224.7527603847391
 31
0.0
  0
LINE
  5
31A2
330
18
100
AcDbEntity
  8
DRAW2
100
AcDbLine
 10
237.7288855447785
 20
217.2472103847392
 30
0.0
 11
231.8094255447785
 21
217.2472103847392
 31
0.0
  0
LINE
  5
31A3
330
18
100
AcDbEntity
  8
DRAW2
100
AcDbLine
 10
237.7288755447785
 20
213.4944303847392
 30
0.0
 11
231.8094255447785
 21
213.4944303847392
 31
0.0
  0
LINE
  5
31A4
330
18
100
AcDbEntity
  8
DRAW2
100
AcDbLine
 10
231.8094555447785
 20
221.8659803847391
 30
0.0
 11
229.8094455447785
 21
220.7112703847392
 31
0.0
  0
LINE
  5
31A5
330
18
100
AcDbEntity
  8
DRAW2
100
AcDbLine
 10
231.8094255447785
 20
213.7000003847392
 30
0.0
 11
229.8094255447785
 21
213.7000003847392
 31
0.0
  0
LINE
  5
31A6
330
18
100
AcDbEntity
  8
DRAW2
100
AcDbLine
 10
231.8093955447785
 20
221.2886303847391
 30
0.0
 11
229.8094055447786
 21
220.1339303847392
 31
0.0
  0
LINE
  5
31A7
330
18
100
AcDbEntity
  8
DRAW2
100
AcDbLine
 10
229.8094255447785
 20
213.2499803847391
 30
0.0
 11
228.2094155447785
 21
213.2499803847391
 31
0.0
  0
LINE
  5
31A8
330
18
100
AcDbEntity
  8
DRAW2
100
AcDbLine
 10
238.3094155447785
 20
214.4999903847391
 30
0.0
 11
237.7288555447786
 21
213.4944203847392
 31
0.0
  0
ARC
  5
31A9
330
18
100
AcDbEntity
  8
DRAW2
100
AcDbCircle
 10
234.9868255447785
 20
215.3708203847392
 30
0.0
 40
3.322595799999999
100
AcDbArc
 50
334.3832000000007
 51
34.38389599999978
  0
ARC
  5
31AA
330
18
100
AcDbEntity
  8
DRAW2
100
AcDbCircle
 10
225.8895655447785
 20
220.9999803847391
 30
0.0
 40
12.419868
100
AcDbArc
 50
342.4126499999992
 51
17.58735499999995
  0
LINE
  5
31AB
330
18
100
AcDbEntity
  8
DRAW2
100
AcDbLine
 10
237.7288955447785
 20
228.5055403847392
 30
0.0
 11
231.8094255447785
 21
228.5055403847392
 31
0.0
  0
LINE
  5
31AC
330
18
100
AcDbEntity
  8
DRAW2
100
AcDbLine
 10
231.8094255447785
 20
228.2999703847392
 30
0.0
 11
229.8094255447785
 21
228.2999703847392
 31
0.0
  0
LINE
  5
31AD
330
18
100
AcDbEntity
  8
DRAW2
100
AcDbLine
 10
229.8094255447785
 20
228.7499803847391
 30
0.0
 11
228.2094255447785
 21
228.7499803847391
 31
0.0
  0
LINE
  5
31AE
330
18
100
AcDbEntity
  8
DRAW2
100
AcDbLine
 10
237.7288655447785
 20
228.5055503847392
 30
0.0
 11
238.3094055447786
 21
227.5000203847392
 31
0.0
  0
LINE
  5
31AF
330
18
100
AcDbEntity
  8
DRAW2
100
AcDbLine
 10
241.2093255447785
 20
224.3749203847392
 30
0.0
 11
240.5842955447785
 21
224.9999503847391
 31
0.0
  0
LINE
  5
31B0
330
18
100
AcDbEntity
  8
DRAW2
100
AcDbLine
 10
241.2093255447785
 20
217.6249803847391
 30
0.0
 11
240.5843255447785
 21
216.9999503847392
 31
0.0
  0
LINE
  5
31B1
330
18
100
AcDbEntity
  8
DRAW2
100
AcDbLine
 10
241.2093255447785
 20
224.3749803847391
 30
0.0
 11
241.2093255447785
 21
217.6250203847392
 31
0.0
  0
LINE
  5
31B2
330
18
100
AcDbEntity
  8
DRAW2
100
AcDbLine
 10
240.5843255447785
 20
224.9999803847391
 30
0.0
 11
240.5843255447785
 21
216.9999803847391
 31
0.0
  0
LINE
  5
31D1
330
18
100
AcDbEntity
  8
DRAW3
100
AcDbLine
 10
241.2093255447785
 20
278.0685503847391
 30
0.0
 11
238.3093955447785
 21
278.0685503847391
 31
0.0
  0
LINE
  5
31D2
330
18
100
AcDbEntity
  8
DRAW2
100
AcDbLine
 10
240.5843255447785
 20
278.6935503847391
 30
0.0
 11
238.3093955447785
 21
278.6935503847391
 31
0.0
  0
LINE
  5
31D3
330
18
100
AcDbEntity
  8
DRAW3
100
AcDbLine
 10
241.2093255447785
 20
271.3185903847392
 30
0.0
 11
238.3093955447785
 21
271.3185903847392
 31
0.0
  0
LINE
  5
31D4
330
18
100
AcDbEntity
  8
DRAW2
100
AcDbLine
 10
240.5843255447785
 20
270.6935503847391
 30
0.0
 11
238.3093955447785
 21
270.6935503847391
 31
0.0
  0
ARC
  5
31D5
330
18
100
AcDbEntity
  8
DRAW2
100
AcDbCircle
 10
234.9867655447785
 20
280.3227203847392
 30
0.0
 40
3.3226678
100
AcDbArc
 50
325.6168399999986
 51
25.61446599999947
  0
LINE
  5
31D6
330
18
100
AcDbEntity
  8
DRAW2
100
AcDbLine
 10
231.8094255447785
 20
282.1991103847392
 30
0.0
 11
231.8094255447785
 21
267.1880003847391
 31
0.0
  0
LINE
  5
31D7
330
18
100
AcDbEntity
  8
DRAW2
100
AcDbLine
 10
238.3094255447784
 20
281.1935803847392
 30
0.0
 11
238.3094255447784
 21
268.1935503847391
 31
0.0
  0
LINE
  5
31D8
330
18
100
AcDbEntity
  8
DRAW2
100
AcDbLine
 10
229.8094255447785
 20
282.4435503847391
 30
0.0
 11
229.8094255447785
 21
266.9435503847391
 31
0.0
  0
LINE
  5
31D9
330
18
100
AcDbEntity
  8
DRAW2
100
AcDbLine
 10
237.7288955447785
 20
278.4463303847392
 30
0.0
 11
231.8094255447785
 21
278.4463303847392
 31
0.0
  0
LINE
  5
31DA
330
18
100
AcDbEntity
  8
DRAW2
100
AcDbLine
 10
237.7288855447785
 20
270.9407803847392
 30
0.0
 11
231.8094255447785
 21
270.9407803847392
 31
0.0
  0
LINE
  5
31DB
330
18
100
AcDbEntity
  8
DRAW2
100
AcDbLine
 10
237.7288755447785
 20
267.1880003847391
 30
0.0
 11
231.8094255447785
 21
267.1880003847391
 31
0.0
  0
LINE
  5
31DC
330
18
100
AcDbEntity
  8
DRAW2
100
AcDbLine
 10
231.8094555447785
 20
275.5595503847392
 30
0.0
 11
229.8094455447785
 21
274.4048403847392
 31
0.0
  0
LINE
  5
31DD
330
18
100
AcDbEntity
  8
DRAW2
100
AcDbLine
 10
231.8094255447785
 20
267.3935703847392
 30
0.0
 11
229.8094255447785
 21
267.3935703847392
 31
0.0
  0
LINE
  5
31DE
330
18
100
AcDbEntity
  8
DRAW2
100
AcDbLine
 10
231.8093955447785
 20
274.9822003847392
 30
0.0
 11
229.8094055447786
 21
273.8275003847391
 31
0.0
  0
LINE
  5
31DF
330
18
100
AcDbEntity
  8
DRAW2
100
AcDbLine
 10
229.8094255447785
 20
266.9435503847391
 30
0.0
 11
228.2094155447785
 21
266.9435503847391
 31
0.0
  0
LINE
  5
31E0
330
18
100
AcDbEntity
  8
DRAW2
100
AcDbLine
 10
238.3094155447785
 20
268.1935603847392
 30
0.0
 11
237.7288555447786
 21
267.1879903847392
 31
0.0
  0
ARC
  5
31E1
330
18
100
AcDbEntity
  8
DRAW2
100
AcDbCircle
 10
234.9868255447785
 20
269.0643903847392
 30
0.0
 40
3.322595799999999
100
AcDbArc
 50
334.3832000000007
 51
34.38389599999978
  0
ARC
  5
31E2
330
18
100
AcDbEntity
  8
DRAW2
100
AcDbCircle
 10
225.8895655447785
 20
274.6935503847391
 30
0.0
 40
12.419868
100
AcDbArc
 50
342.4126499999992
 51
17.58735499999995
  0
LINE
  5
31E3
330
18
100
AcDbEntity
  8
DRAW2
100
AcDbLine
 10
237.7288955447785
 20
282.1991103847392
 30
0.0
 11
231.8094255447785
 21
282.1991103847392
 31
0.0
  0
LINE
  5
31E4
330
18
100
AcDbEntity
  8
DRAW2
100
AcDbLine
 10
231.8094255447785
 20
281.9935403847392
 30
0.0
 11
229.8094255447785
 21
281.9935403847392
 31
0.0
  0
LINE
  5
31E5
330
18
100
AcDbEntity
  8
DRAW2
100
AcDbLine
 10
229.8094255447785
 20
282.4435503847391
 30
0.0
 11
228.2094255447785
 21
282.4435503847391
 31
0.0
  0
LINE
  5
31E6
330
18
100
AcDbEntity
  8
DRAW2
100
AcDbLine
 10
237.7288655447785
 20
282.1991203847392
 30
0.0
 11
238.3094055447786
 21
281.1935903847392
 31
0.0
  0
LINE
  5
31E7
330
18
100
AcDbEntity
  8
DRAW2
100
AcDbLine
 10
241.2093255447785
 20
278.0684903847392
 30
0.0
 11
240.5842955447785
 21
278.6935203847392
 31
0.0
  0
LINE
  5
31E8
330
18
100
AcDbEntity
  8
DRAW2
100
AcDbLine
 10
241.2093255447785
 20
271.3185503847391
 30
0.0
 11
240.5843255447785
 21
270.6935203847391
 31
0.0
  0
LINE
  5
31E9
330
18
100
AcDbEntity
  8
DRAW2
100
AcDbLine
 10
241.2093255447785
 20
278.0685503847391
 30
0.0
 11
241.2093255447785
 21
271.3185903847392
 31
0.0
  0
LINE
  5
31EA
330
18
100
AcDbEntity
  8
DRAW2
100
AcDbLine
 10
240.5843255447785
 20
278.6935503847391
 30
0.0
 11
240.5843255447785
 21
270.6935503847391
 31
0.0
  0
LINE
  5
3205
330
18
100
AcDbEntity
  8
DRAW2
100
AcDbLine
 10
50.03996664477851
 20
174.8119545847391
 30
0.0
 11
54.95941554477853
 21
174.8119545847391
 31
0.0
  0
LINE
  5
3206
330
18
100
AcDbEntity
  8
DRAW2
100
AcDbLine
 10
50.0399514447785
 20
171.0591774847391
 30
0.0
 11
54.95941554477853
 21
171.0591774847391
 31
0.0
  0
LINE
  5
3207
330
18
100
AcDbEntity
  8
DRAW2
100
AcDbLine
 10
50.0399514447785
 20
163.5536232847391
 30
0.0
 11
54.95941554477853
 21
163.5536232847391
 31
0.0
  0
LINE
  5
3208
330
18
100
AcDbEntity
  8
DRAW2
100
AcDbLine
 10
50.0399514447785
 20
159.8008461847391
 30
0.0
 11
54.95941554477853
 21
159.8008461847391
 31
0.0
  0
ARC
  5
3209
330
18
100
AcDbEntity
  8
DRAW2
100
AcDbCircle
 10
61.87927634477851
 20
167.3064003847391
 30
0.0
 40
12.419868
100
AcDbArc
 50
162.4126549999983
 51
197.5873599999993
  0
LINE
  5
320A
330
18
100
AcDbEntity
  8
DRAW2
100
AcDbLine
 10
50.0399719447785
 20
159.8008413847391
 30
0.0
 11
49.45943224477853
 21
160.8063655847391
 31
0.0
  0
LINE
  5
320B
330
18
100
AcDbEntity
  8
DRAW2
100
AcDbLine
 10
49.45941554477853
 20
160.8063698847391
 30
0.0
 11
49.45941554477853
 21
173.8064003847391
 31
0.0
  0
ARC
  5
320C
330
18
100
AcDbEntity
  8
DRAW2
100
AcDbCircle
 10
52.78207794477854
 20
161.6772347847392
 30
0.0
 40
3.3226678
100
AcDbArc
 50
145.6168539999992
 51
205.6144800000001
  0
ARC
  5
320D
330
18
100
AcDbEntity
  8
DRAW2
100
AcDbCircle
 10
52.7820168447785
 20
172.9355659847391
 30
0.0
 40
3.322595799999999
100
AcDbArc
 50
154.383207
 51
214.383909999999
  0
LINE
  5
320E
330
18
100
AcDbEntity
  8
DRAW2
100
AcDbLine
 10
49.4594136447785
 20
173.8063841847391
 30
0.0
 11
50.03998004477851
 21
174.8119545847391
 31
0.0
  0
LINE
  5
320F
330
18
100
AcDbEntity
  8
DRAW2
100
AcDbLine
 10
54.95941554477853
 20
175.0564003847391
 30
0.0
 11
57.20942554477852
 21
175.0564003847391
 31
0.0
  0
LINE
  5
3215
330
18
100
AcDbEntity
  8
DRAW2
100
AcDbLine
 10
54.95941554477854
 20
159.5564003847391
 30
0.0
 11
57.20941554477855
 21
159.5564003847391
 31
0.0
  0
LINE
  5
3216
330
18
100
AcDbEntity
  8
DRAW2
100
AcDbLine
 10
54.95941554477853
 20
159.5564003847391
 30
0.0
 11
54.95941554477853
 21
175.0564003847391
 31
0.0
  0
LINE
  5
3217
330
18
100
AcDbEntity
  8
DRAW2
100
AcDbLine
 10
54.95941554477853
 20
159.8008461847391
 30
0.0
 11
54.95941554477853
 21
174.8119545847391
 31
0.0
  0
LINE
  5
322F
330
18
100
AcDbEntity
  8
DRAW2
100
AcDbLine
 10
50.03996664477851
 20
228.5055545847392
 30
0.0
 11
54.95941554477853
 21
228.5055545847392
 31
0.0
  0
LINE
  5
3230
330
18
100
AcDbEntity
  8
DRAW2
100
AcDbLine
 10
50.0399514447785
 20
224.7527774847392
 30
0.0
 11
54.95941554477853
 21
224.7527774847392
 31
0.0
  0
LINE
  5
3231
330
18
100
AcDbEntity
  8
DRAW2
100
AcDbLine
 10
50.0399514447785
 20
217.2472232847392
 30
0.0
 11
54.95941554477853
 21
217.2472232847392
 31
0.0
  0
LINE
  5
3232
330
18
100
AcDbEntity
  8
DRAW2
100
AcDbLine
 10
50.0399514447785
 20
213.4944461847392
 30
0.0
 11
54.95941554477853
 21
213.4944461847392
 31
0.0
  0
ARC
  5
3233
330
18
100
AcDbEntity
  8
DRAW2
100
AcDbCircle
 10
61.87927634477851
 20
221.0000003847392
 30
0.0
 40
12.419868
100
AcDbArc
 50
162.4126549999983
 51
197.5873599999993
  0
LINE
  5
3234
330
18
100
AcDbEntity
  8
DRAW2
100
AcDbLine
 10
50.0399719447785
 20
213.4944413847392
 30
0.0
 11
49.45943224477853
 21
214.4999655847392
 31
0.0
  0
LINE
  5
3235
330
18
100
AcDbEntity
  8
DRAW2
100
AcDbLine
 10
49.45941554477853
 20
214.4999698847392
 30
0.0
 11
49.45941554477853
 21
227.5000003847392
 31
0.0
  0
ARC
  5
3236
330
18
100
AcDbEntity
  8
DRAW2
100
AcDbCircle
 10
52.78207794477854
 20
215.3708347847392
 30
0.0
 40
3.3226678
100
AcDbArc
 50
145.6168539999992
 51
205.6144800000001
  0
ARC
  5
3237
330
18
100
AcDbEntity
  8
DRAW2
100
AcDbCircle
 10
52.7820168447785
 20
226.6291659847392
 30
0.0
 40
3.322595799999999
100
AcDbArc
 50
154.383207
 51
214.383909999999
  0
LINE
  5
3238
330
18
100
AcDbEntity
  8
DRAW2
100
AcDbLine
 10
49.4594136447785
 20
227.4999841847392
 30
0.0
 11
50.03998004477851
 21
228.5055545847392
 31
0.0
  0
LINE
  5
3239
330
18
100
AcDbEntity
  8
DRAW2
100
AcDbLine
 10
54.95941554477853
 20
228.7500003847392
 30
0.0
 11
57.20942554477852
 21
228.7500003847392
 31
0.0
  0
LINE
  5
323F
330
18
100
AcDbEntity
  8
DRAW2
100
AcDbLine
 10
54.95941554477854
 20
213.2500003847392
 30
0.0
 11
57.20941554477855
 21
213.2500003847392
 31
0.0
  0
LINE
  5
3240
330
18
100
AcDbEntity
  8
DRAW2
100
AcDbLine
 10
54.95941554477853
 20
213.2500003847392
 30
0.0
 11
54.95941554477853
 21
228.7500003847391
 31
0.0
  0
LINE
  5
3241
330
18
100
AcDbEntity
  8
DRAW2
100
AcDbLine
 10
54.95941554477853
 20
213.4944461847392
 30
0.0
 11
54.95941554477853
 21
228.5055545847392
 31
0.0
  0
LINE
  5
3259
330
18
100
AcDbEntity
  8
DRAW2
100
AcDbLine
 10
50.03996664477851
 20
282.1991245847391
 30
0.0
 11
54.95941554477853
 21
282.1991245847391
 31
0.0
  0
LINE
  5
325A
330
18
100
AcDbEntity
  8
DRAW2
100
AcDbLine
 10
50.0399514447785
 20
278.4463474847391
 30
0.0
 11
54.95941554477853
 21
278.4463474847391
 31
0.0
  0
LINE
  5
325B
330
18
100
AcDbEntity
  8
DRAW2
100
AcDbLine
 10
50.0399514447785
 20
270.9407932847391
 30
0.0
 11
54.95941554477853
 21
270.9407932847391
 31
0.0
  0
LINE
  5
325C
330
18
100
AcDbEntity
  8
DRAW2
100
AcDbLine
 10
50.0399514447785
 20
267.1880161847391
 30
0.0
 11
54.95941554477853
 21
267.1880161847391
 31
0.0
  0
ARC
  5
325D
330
18
100
AcDbEntity
  8
DRAW2
100
AcDbCircle
 10
61.87927634477851
 20
274.6935703847391
 30
0.0
 40
12.419868
100
AcDbArc
 50
162.4126549999983
 51
197.5873599999993
  0
LINE
  5
325E
330
18
100
AcDbEntity
  8
DRAW2
100
AcDbLine
 10
50.0399719447785
 20
267.1880113847391
 30
0.0
 11
49.45943224477853
 21
268.1935355847391
 31
0.0
  0
LINE
  5
325F
330
18
100
AcDbEntity
  8
DRAW2
100
AcDbLine
 10
49.45941554477853
 20
268.1935398847391
 30
0.0
 11
49.45941554477853
 21
281.1935703847391
 31
0.0
  0
ARC
  5
3260
330
18
100
AcDbEntity
  8
DRAW2
100
AcDbCircle
 10
52.78207794477854
 20
269.0644047847391
 30
0.0
 40
3.3226678
100
AcDbArc
 50
145.6168539999992
 51
205.6144800000001
  0
ARC
  5
3261
330
18
100
AcDbEntity
  8
DRAW2
100
AcDbCircle
 10
52.7820168447785
 20
280.3227359847391
 30
0.0
 40
3.322595799999999
100
AcDbArc
 50
154.383207
 51
214.383909999999
  0
LINE
  5
3262
330
18
100
AcDbEntity
  8
DRAW2
100
AcDbLine
 10
49.4594136447785
 20
281.1935541847391
 30
0.0
 11
50.03998004477851
 21
282.1991245847391
 31
0.0
  0
LINE
  5
3263
330
18
100
AcDbEntity
  8
DRAW2
100
AcDbLine
 10
54.95941554477854
 20
282.4435703847391
 30
0.0
 11
57.20942554477852
 21
282.4435703847391
 31
0.0
  0
LINE
  5
3269
330
18
100
AcDbEntity
  8
DRAW2
100
AcDbLine
 10
54.95941554477854
 20
266.9435703847391
 30
0.0
 11
57.20941554477855
 21
266.9435703847391
 31
0.0
  0
LINE
  5
326A
330
18
100
AcDbEntity
  8
DRAW2
100
AcDbLine
 10
54.95941554477853
 20
266.9435703847391
 30
0.0
 11
54.95941554477853
 21
282.4435703847391
 31
0.0
  0
LINE
  5
326B
330
18
100
AcDbEntity
  8
DRAW2
100
AcDbLine
 10
54.95941554477853
 20
267.1880161847391
 30
0.0
 11
54.95941554477853
 21
282.1991245847391
 31
0.0
  0
LINE
  5
3507
330
18
100
AcDbEntity
  8
DRAW2
100
AcDbLine
 10
207.2121655447786
 20
353.0194703847392
 30
0.0
 11
207.2121655447786
 21
347.1000003847391
 31
0.0
  0
LINE
  5
3508
330
18
100
AcDbEntity
  8
DRAW2
100
AcDbLine
 10
210.9649455447785
 20
353.0194503847392
 30
0.0
 11
210.9649455447785
 21
347.1000003847391
 31
0.0
  0
LINE
  5
3509
330
18
100
AcDbEntity
  8
DRAW2
100
AcDbLine
 10
195.9538355447786
 20
353.0194703847392
 30
0.0
 11
195.9538355447786
 21
347.1000003847391
 31
0.0
  0
LINE
  5
350A
330
18
100
AcDbEntity
  8
DRAW2
100
AcDbLine
 10
199.7066155447785
 20
353.0194703847392
 30
0.0
 11
199.7066155447785
 21
347.1000003847391
 31
0.0
  0
LINE
  5
350C
330
18
100
AcDbEntity
  8
DRAW2
100
AcDbLine
 10
195.9538355447786
 20
347.1000003847391
 30
0.0
 11
210.9649455447785
 21
347.1000003847391
 31
0.0
  0
LINE
  5
350D
330
18
100
AcDbEntity
  8
DRAW2
100
AcDbLine
 10
195.7093855447786
 20
345.1000003847391
 30
0.0
 11
211.2093855447786
 21
345.1000003847391
 31
0.0
  0
LINE
  5
350E
330
18
100
AcDbEntity
  8
DRAW2
100
AcDbLine
 10
195.7093855447786
 20
345.1000003847391
 30
0.0
 11
195.7093855447786
 21
343.5000003847392
 31
0.0
  0
LINE
  5
350F
330
18
100
AcDbEntity
  8
DRAW2
100
AcDbLine
 10
196.1594055447785
 20
347.1000003847391
 30
0.0
 11
196.1594055447785
 21
345.1000003847391
 31
0.0
  0
LINE
  5
3510
330
18
100
AcDbEntity
  8
DRAW2
100
AcDbLine
 10
203.1707455447786
 20
347.0999703847392
 30
0.0
 11
204.3254455447785
 21
345.0999903847392
 31
0.0
  0
LINE
  5
3511
330
18
100
AcDbEntity
  8
DRAW2
100
AcDbLine
 10
202.5933955447785
 20
347.1000303847391
 30
0.0
 11
203.7481055447786
 21
345.1000203847392
 31
0.0
  0
LINE
  5
3512
330
18
100
AcDbEntity
  8
DRAW2
100
AcDbLine
 10
211.2093855447786
 20
345.1000003847391
 30
0.0
 11
211.2093855447786
 21
343.5000003847392
 31
0.0
  0
LINE
  5
3513
330
18
100
AcDbEntity
  8
DRAW2
100
AcDbLine
 10
210.7593755447785
 20
347.1000003847391
 30
0.0
 11
210.7593755447785
 21
345.1000003847391
 31
0.0
  0
LINE
  5
3514
330
18
100
AcDbEntity
  8
DRAW2
100
AcDbLine
 10
200.0843255447785
 20
361.4999703847392
 30
0.0
 11
206.8343255447785
 21
361.4999703847392
 31
0.0
  0
LINE
  5
3515
330
18
100
AcDbEntity
  8
DRAW2
100
AcDbLine
 10
199.4593255447785
 20
360.8749303847391
 30
0.0
 11
207.4593255447785
 21
360.8749303847391
 31
0.0
  0
LINE
  5
3516
330
18
100
AcDbEntity
  8
DRAW2
100
AcDbLine
 10
196.9593555447786
 20
353.6000003847391
 30
0.0
 11
209.9593855447785
 21
353.6000003847391
 31
0.0
  0
ARC
  5
3517
330
18
100
AcDbEntity
  8
DRAW2
100
AcDbCircle
 10
203.4593855447786
 20
341.1801403847392
 30
0.0
 40
12.419868
100
AcDbArc
 50
72.41265499999848
 51
107.5873599999996
  0
LINE
  5
3518
330
18
100
AcDbEntity
  8
DRAW2
100
AcDbLine
 10
200.0845155447786
 20
361.4998103847391
 30
0.0
 11
199.4595155447786
 21
360.8747803847392
 31
0.0
  0
LINE
  5
3519
330
18
100
AcDbEntity
  8
DRAW2
100
AcDbLine
 10
195.9538255447785
 20
353.0194403847392
 30
0.0
 11
196.9593455447785
 21
353.5999803847392
 31
0.0
  0
ARC
  5
351A
330
18
100
AcDbEntity
  8
DRAW2
100
AcDbCircle
 10
197.8302255447785
 20
350.2773403847392
 30
0.0
 40
3.3226678
100
AcDbArc
 50
55.61685399999976
 51
115.6144799999999
  0
LINE
  5
351B
330
18
100
AcDbEntity
  8
DRAW3
100
AcDbLine
 10
200.0843855447786
 20
361.4999703847392
 30
0.0
 11
200.0843855447786
 21
353.6000003847391
 31
0.0
  0
LINE
  5
351C
330
18
100
AcDbEntity
  8
DRAW2
100
AcDbLine
 10
199.4593855447785
 20
360.8749303847391
 30
0.0
 11
199.4593855447785
 21
353.6000003847391
 31
0.0
  0
LINE
  5
351D
330
18
100
AcDbEntity
  8
DRAW2
100
AcDbLine
 10
206.8343855447785
 20
361.4999303847391
 30
0.0
 11
207.4594455447785
 21
360.8748703847392
 31
0.0
  0
LINE
  5
351E
330
18
100
AcDbEntity
  8
DRAW2
100
AcDbLine
 10
209.9593855447785
 20
353.6000003847391
 30
0.0
 11
210.9649555447786
 21
353.0194303847392
 31
0.0
  0
ARC
  5
351F
330
18
100
AcDbEntity
  8
DRAW2
100
AcDbCircle
 10
209.0885555447786
 20
350.2774003847392
 30
0.0
 40
3.322595799999999
100
AcDbArc
 50
64.38320700000069
 51
124.3839099999995
  0
LINE
  5
3520
330
18
100
AcDbEntity
  8
DRAW2
100
AcDbLine
 10
207.4593855447786
 20
360.8749303847391
 30
0.0
 11
207.4593855447786
 21
353.6000003847391
 31
0.0
  0
LINE
  5
3521
330
18
100
AcDbEntity
  8
DRAW3
100
AcDbLine
 10
206.8343855447785
 20
361.4999703847392
 30
0.0
 11
206.8343855447786
 21
353.6000003847391
 31
0.0
  0
LINE
  5
3522
330
18
100
AcDbEntity
  8
DRAW2
100
AcDbLine
 10
85.46219554477858
 20
353.0194703847392
 30
0.0
 11
85.46219554477858
 21
347.1000003847391
 31
0.0
  0
LINE
  5
3523
330
18
100
AcDbEntity
  8
DRAW2
100
AcDbLine
 10
89.2149755447785
 20
353.0194503847392
 30
0.0
 11
89.2149755447785
 21
347.1000003847391
 31
0.0
  0
LINE
  5
3524
330
18
100
AcDbEntity
  8
DRAW2
100
AcDbLine
 10
74.20386554477857
 20
353.0194703847392
 30
0.0
 11
74.20386554477857
 21
347.1000003847391
 31
0.0
  0
LINE
  5
3525
330
18
100
AcDbEntity
  8
DRAW2
100
AcDbLine
 10
77.95664554477849
 20
353.0194703847392
 30
0.0
 11
77.95664554477849
 21
347.1000003847391
 31
0.0
  0
LINE
  5
3526
330
18
100
AcDbEntity
  8
DRAW2
100
AcDbLine
 10
74.20386554477857
 20
347.1000003847391
 30
0.0
 11
89.2149755447785
 21
347.1000003847391
 31
0.0
  0
LINE
  5
3527
330
18
100
AcDbEntity
  8
DRAW2
100
AcDbLine
 10
73.95941554477855
 20
345.1000003847391
 30
0.0
 11
89.45941554477855
 21
345.1000003847391
 31
0.0
  0
LINE
  5
3528
330
18
100
AcDbEntity
  8
DRAW2
100
AcDbLine
 10
73.95941554477855
 20
345.1000003847391
 30
0.0
 11
73.95941554477855
 21
343.5000003847392
 31
0.0
  0
LINE
  5
3529
330
18
100
AcDbEntity
  8
DRAW2
100
AcDbLine
 10
74.40943554477854
 20
347.1000003847391
 30
0.0
 11
74.40943554477854
 21
345.1000003847391
 31
0.0
  0
LINE
  5
352A
330
18
100
AcDbEntity
  8
DRAW2
100
AcDbLine
 10
89.45941554477855
 20
345.1000003847391
 30
0.0
 11
89.45941554477855
 21
343.5000003847392
 31
0.0
  0
LINE
  5
352B
330
18
100
AcDbEntity
  8
DRAW2
100
AcDbLine
 10
89.00940554477854
 20
347.1000003847391
 30
0.0
 11
89.00940554477854
 21
345.1000003847391
 31
0.0
  0
LINE
  5
352C
330
18
100
AcDbEntity
  8
DRAW2
100
AcDbLine
 10
81.42077554477856
 20
347.0999703847392
 30
0.0
 11
82.5754755447785
 21
345.0999903847392
 31
0.0
  0
LINE
  5
352D
330
18
100
AcDbEntity
  8
DRAW2
100
AcDbLine
 10
80.84342554477855
 20
347.1000303847391
 30
0.0
 11
81.99813554477856
 21
345.1000203847392
 31
0.0
  0
ARC
  5
352E
330
18
100
AcDbEntity
  8
DRAW2
100
AcDbCircle
 10
76.08025554477848
 20
350.2773403847392
 30
0.0
 40
3.3226678
100
AcDbArc
 50
55.61685399999976
 51
115.6144799999999
  0
LINE
  5
352F
330
18
100
AcDbEntity
  8
DRAW2
100
AcDbLine
 10
75.20938554477862
 20
353.6000003847391
 30
0.0
 11
88.20941554477855
 21
353.6000003847391
 31
0.0
  0
LINE
  5
3530
330
18
100
AcDbEntity
  8
DRAW2
100
AcDbLine
 10
74.20385554477849
 20
353.0194403847392
 30
0.0
 11
75.20937554477853
 21
353.5999803847392
 31
0.0
  0
LINE
  5
3531
330
18
100
AcDbEntity
  8
DRAW2
100
AcDbLine
 10
85.08447554477852
 20
361.4999303847391
 30
0.0
 11
85.70947554477852
 21
360.8749003847392
 31
0.0
  0
LINE
  5
3532
330
18
100
AcDbEntity
  8
DRAW2
100
AcDbLine
 10
88.20941554477855
 20
353.6000003847391
 30
0.0
 11
89.21498554477858
 21
353.0194303847392
 31
0.0
  0
ARC
  5
3533
330
18
100
AcDbEntity
  8
DRAW2
100
AcDbCircle
 10
87.3385855447786
 20
350.2774003847392
 30
0.0
 40
3.322595799999999
100
AcDbArc
 50
64.38320700000069
 51
124.3839099999995
  0
LINE
  5
3534
330
18
100
AcDbEntity
  8
DRAW3
100
AcDbLine
 10
85.08441554477855
 20
361.4999703847392
 30
0.0
 11
85.08441554477856
 21
353.6000003847391
 31
0.0
  0
LINE
  5
3535
330
18
100
AcDbEntity
  8
DRAW2
100
AcDbLine
 10
85.70941554477855
 20
360.8749303847391
 30
0.0
 11
85.70941554477855
 21
353.6000003847391
 31
0.0
  0
LINE
  5
3536
330
18
100
AcDbEntity
  8
DRAW2
100
AcDbLine
 10
78.33454554477857
 20
361.4998103847391
 30
0.0
 11
77.70954554477857
 21
360.8748103847391
 31
0.0
  0
LINE
  5
3537
330
18
100
AcDbEntity
  8
DRAW2
100
AcDbLine
 10
77.70947554477851
 20
360.8749303847391
 30
0.0
 11
77.70947554477851
 21
353.6000003847391
 31
0.0
  0
LINE
  5
3538
330
18
100
AcDbEntity
  8
DRAW3
100
AcDbLine
 10
78.33447554477851
 20
361.4999703847392
 30
0.0
 11
78.33447554477851
 21
353.6000003847391
 31
0.0
  0
LINE
  5
3539
330
18
100
AcDbEntity
  8
DRAW2
100
AcDbLine
 10
78.33447554477851
 20
361.4999703847392
 30
0.0
 11
85.08441554477855
 21
361.4999703847392
 31
0.0
  0
LINE
  5
353A
330
18
100
AcDbEntity
  8
DRAW2
100
AcDbLine
 10
77.70947554477851
 20
360.8749303847391
 30
0.0
 11
85.70941554477855
 21
360.8749303847391
 31
0.0
  0
ARC
  5
353B
330
18
100
AcDbEntity
  8
DRAW2
100
AcDbCircle
 10
81.70941554477854
 20
341.1801403847392
 30
0.0
 40
12.419868
100
AcDbArc
 50
72.41265499999848
 51
107.5873599999996
  0
LINE
  5
4160
330
18
100
AcDbEntity
  8
DRAW2
100
AcDbLine
 10
196.1593911270652
 20
99.09999038473921
 30
0.0
 11
210.7593711270652
 21
99.09999038473921
 31
0.0
  0
LINE
  5
4161
330
18
100
AcDbEntity
  8
DRAW2
100
AcDbLine
 10
195.7093811270651
 20
97.09999038473918
 30
0.0
 11
211.2093811270651
 21
97.09999038473918
 31
0.0
  0
LINE
  5
4163
330
18
100
AcDbEntity
  8
DRAW2
100
AcDbLine
 10
196.1593911270652
 20
99.09999038473921
 30
0.0
 11
196.1593911270652
 21
97.09999038473918
 31
0.0
  0
LINE
  5
4164
330
18
100
AcDbEntity
  8
DRAW2
100
AcDbLine
 10
195.7093811270651
 20
97.09999038473918
 30
0.0
 11
195.7093811270651
 21
95.49999038473918
 31
0.0
  0
LINE
  5
4165
330
18
100
AcDbEntity
  8
DRAW2
100
AcDbLine
 10
210.7593711270652
 20
99.09999038473921
 30
0.0
 11
210.7593711270652
 21
97.09999038473918
 31
0.0
  0
LINE
  5
4166
330
18
100
AcDbEntity
  8
DRAW2
100
AcDbLine
 10
211.2093811270651
 20
97.09999038473918
 30
0.0
 11
211.2093811270651
 21
95.49999038473918
 31
0.0
  0
LINE
  5
4167
330
18
100
AcDbEntity
  8
DRAW2
100
AcDbLine
 10
203.1707311270652
 20
99.0999603847392
 30
0.0
 11
204.3254211270651
 21
97.09997038473922
 31
0.0
  0
LINE
  5
4168
330
18
100
AcDbEntity
  8
DRAW2
100
AcDbLine
 10
202.5933811270652
 20
99.09998038473922
 30
0.0
 11
203.7480911270651
 21
97.09997038473922
 31
0.0
  0
LINE
  5
4169
330
18
100
AcDbEntity
  8
DRAW2
100
AcDbLine
 10
196.5311811270651
 20
99.49997038473917
 30
0.0
 11
179.9594155447785
 21
99.49997038473917
 31
0.0
  0
LINE
  5
416A
330
18
100
AcDbEntity
  8
DRAW2
100
AcDbLine
 10
88.63751554477852
 20
99.49997038473918
 30
0.0
 11
104.4594155447786
 21
99.49997038473917
 31
0.0
  0
LINE
  5
4178
330
18
100
AcDbEntity
  8
DRAW2
100
AcDbLine
 10
74.40942554477857
 20
99.09999038473921
 30
0.0
 11
89.00940554477859
 21
99.09999038473921
 31
0.0
  0
LINE
  5
4179
330
18
100
AcDbEntity
  8
DRAW2
100
AcDbLine
 10
73.95941554477849
 20
97.09999038473918
 30
0.0
 11
89.45941554477849
 21
97.09999038473918
 31
0.0
  0
LINE
  5
417B
330
18
100
AcDbEntity
  8
DRAW2
100
AcDbLine
 10
74.40942554477857
 20
99.09999038473921
 30
0.0
 11
74.40942554477857
 21
97.09999038473918
 31
0.0
  0
LINE
  5
417C
330
18
100
AcDbEntity
  8
DRAW2
100
AcDbLine
 10
73.95941554477849
 20
97.09999038473918
 30
0.0
 11
73.95941554477849
 21
95.49999038473918
 31
0.0
  0
LINE
  5
417D
330
18
100
AcDbEntity
  8
DRAW2
100
AcDbLine
 10
89.00940554477859
 20
99.09999038473921
 30
0.0
 11
89.00940554477859
 21
97.09999038473918
 31
0.0
  0
LINE
  5
417E
330
18
100
AcDbEntity
  8
DRAW2
100
AcDbLine
 10
89.45941554477849
 20
97.09999038473918
 30
0.0
 11
89.45941554477849
 21
95.49999038473918
 31
0.0
  0
LINE
  5
417F
330
18
100
AcDbEntity
  8
DRAW2
100
AcDbLine
 10
81.42076554477858
 20
99.0999603847392
 30
0.0
 11
82.57545554477848
 21
97.09997038473922
 31
0.0
  0
LINE
  5
4180
330
18
100
AcDbEntity
  8
DRAW2
100
AcDbLine
 10
80.84341554477857
 20
99.09998038473922
 30
0.0
 11
81.99812554477848
 21
97.09997038473922
 31
0.0
  0
LINE
  5
4543
330
18
100
AcDbEntity
  8
DRAW2
100
AcDbLine
 10
105.5093455447786
 20
611.1929589798921
 30
0.0
 11
105.5093455447786
 21
564.4957803201278
 31
0.0
  0
LINE
  5
4544
330
18
100
AcDbEntity
  8
DRAW2
100
AcDbLine
 10
179.2094155447785
 20
564.8005076016625
 30
0.0
 11
179.2094155447785
 21
611.1929589798921
 31
0.0
  0
LINE
  5
4545
330
18
100
AcDbEntity
  8
DRAW2
100
AcDbLine
 10
229.8094056447788
 20
611.9429589798919
 30
0.0
 11
229.8094056447788
 21
596.4429589798919
 31
0.0
  0
LINE
  5
4546
330
18
100
AcDbEntity
  8
DRAW2
100
AcDbLine
 10
228.2094455447785
 20
564.6024081559919
 30
0.0
 11
228.2094455447785
 21
612.6929589798922
 31
0.0
  0
LINE
  5
4547
330
18
100
AcDbEntity
  8
DRAW2
100
AcDbLine
 10
201.4094355447785
 20
576.0670786545415
 30
0.0
 11
201.4094355447785
 21
602.3755789798922
 31
0.0
  0
LINE
  5
4548
330
18
100
AcDbEntity
  8
DRAW2
100
AcDbLine
 10
204.4094355447785
 20
576.0670786545415
 30
0.0
 11
204.4094355447785
 21
602.3755789798922
 31
0.0
  0
ARC
  5
4549
330
18
100
AcDbEntity
  8
DRAW2
100
AcDbCircle
 10
133.5094055447785
 20
619.1778709453871
 30
0.0
 40
23.19073196549494
100
AcDbArc
 50
210.4113413381969
 51
329.588658661803
  0
LINE
  5
454A
330
18
100
AcDbEntity
  8
DRAW2
100
AcDbLine
 10
180.2094455447786
 20
565.1691911930369
 30
0.0
 11
180.2094455447786
 21
612.6929589798922
 31
0.0
  0
LINE
  5
454B
330
18
100
AcDbEntity
  8
DRAW2
100
AcDbLine
 10
155.8094555447786
 20
559.106860259663
 30
0.0
 11
155.8094555447786
 21
613.1929589798921
 31
0.0
  0
LINE
  5
454C
330
18
100
AcDbEntity
  8
DRAW2
100
AcDbLine
 10
157.1094455447785
 20
559.2833763390616
 30
0.0
 11
157.1094455447785
 21
613.1929589798921
 31
0.0
  0
LINE
  5
454F
330
18
100
AcDbEntity
  8
DRAW2
100
AcDbLine
 10
54.95941554477855
 20
596.442958979892
 30
0.0
 11
54.95941554477855
 21
611.9429589798921
 31
0.0
  0
LINE
  5
4550
330
18
100
AcDbEntity
  8
DRAW2
100
AcDbLine
 10
105.2094255447783
 20
564.6024152994971
 30
0.0
 11
105.2094255447783
 21
612.6929589798922
 31
0.0
  0
LINE
  5
4551
330
18
100
AcDbEntity
  8
DRAW2
100
AcDbLine
 10
78.9094355447786
 20
575.824158317157
 30
0.0
 11
78.9094355447786
 21
602.3755789798922
 31
0.0
  0
LINE
  5
4552
330
18
100
AcDbEntity
  8
DRAW2
100
AcDbLine
 10
81.90943554477861
 20
576.1817009385648
 30
0.0
 11
81.90943554477859
 21
602.3755789798922
 31
0.0
  0
LINE
  5
4554
330
18
100
AcDbEntity
  8
DRAW2
100
AcDbLine
 10
57.20942554477824
 20
612.6929589798922
 30
0.0
 11
57.20942554477858
 21
471.6929589798922
 31
0.0
  0
ARC
  5
455D
330
18
100
AcDbEntity
  8
DRAW2
100
AcDbCircle
 10
142.2094155447787
 20
668.1929589798921
 30
0.0
 40
109.9999999999997
100
AcDbArc
 50
241.1929149344462
 51
298.8070850655537
  0
ARC
  5
455E
330
18
100
AcDbEntity
  8
DRAW2
100
AcDbCircle
 10
142.2094155447787
 20
416.1929589798914
 30
0.0
 40
110.0000000000006
100
AcDbArc
 50
61.19291493444628
 51
118.8070850655537
  0
LINE
  5
455F
330
18
100
AcDbEntity
  8
DRAW2
100
AcDbLine
 10
177.2094155447785
 20
471.1929589798922
 30
0.0
 11
107.4094355447787
 21
471.1929589798922
 31
0.0
  0
LINE
  5
4560
330
18
100
AcDbEntity
  8
DRAW2
100
AcDbLine
 10
177.9094355447785
 20
576.7906489798921
 30
0.0
 11
105.4094355447788
 21
576.7906489798921
 31
0.0
  0
LINE
  5
4561
330
18
100
AcDbEntity
  8
DRAW2
100
AcDbLine
 10
177.9094355447785
 20
507.5952689798921
 30
0.0
 11
105.4094355447788
 21
507.5952689798921
 31
0.0
  0
LINE
  5
4562
330
18
100
AcDbEntity
  8
DRAW2
100
AcDbLine
 10
105.5093455447786
 20
519.8901376396564
 30
0.0
 11
105.5093455447786
 21
473.1929589798921
 31
0.0
  0
LINE
  5
4563
330
18
100
AcDbEntity
  8
DRAW2
100
AcDbLine
 10
155.8094555447786
 20
525.3489891019078
 30
0.0
 11
155.8094555447786
 21
471.1929589798923
 31
0.0
  0
LINE
  5
4564
330
18
100
AcDbEntity
  8
DRAW2
100
AcDbLine
 10
157.1094455447785
 20
525.1791466643831
 30
0.0
 11
157.1094455447785
 21
471.1929589798923
 31
0.0
  0
LINE
  5
4565
330
18
100
AcDbEntity
  8
DRAW2
100
AcDbLine
 10
105.2094255447783
 20
519.7835026602873
 30
0.0
 11
105.2094255447782
 21
471.6929589798922
 31
0.0
  0
LINE
  5
4566
330
18
100
AcDbEntity
  8
DRAW2
100
AcDbLine
 10
81.90943554477859
 20
508.2042170212197
 30
0.0
 11
81.90943554477859
 21
482.0103389798921
 31
0.0
  0
LINE
  5
4567
330
18
100
AcDbEntity
  8
DRAW2
100
AcDbLine
 10
78.90943554477859
 20
508.5617596426275
 30
0.0
 11
78.9094355447786
 21
482.0103389798921
 31
0.0
  0
LINE
  5
4568
330
18
100
AcDbEntity
  8
DRAW2
100
AcDbLine
 10
104.7094255447783
 20
471.1929589798923
 30
0.0
 11
57.70942554477835
 21
471.1929589798923
 31
0.0
  0
LINE
  5
4569
330
18
100
AcDbEntity
  8
DRAW2
100
AcDbLine
 10
67.70941554477852
 20
452.1929289798921
 30
0.0
 11
95.70941554477855
 21
452.1929289798922
 31
0.0
  0
ARC
  5
456A
330
18
100
AcDbEntity
  8
DRAW2
100
AcDbCircle
 10
81.70941554477824
 20
477.1929289798922
 30
0.0
 40
9.0
100
AcDbArc
 50
221.8100586617736
 51
318.1899413382264
  0
LINE
  5
456B
330
18
100
AcDbEntity
  8
DRAW2
100
AcDbLine
 10
58.70941554477852
 20
471.1929589798923
 30
0.0
 11
58.70941554477852
 21
461.1929289798921
 31
0.0
  0
ARC
  5
456C
330
18
100
AcDbEntity
  8
DRAW2
100
AcDbCircle
 10
67.70941554477852
 20
461.1929289798921
 30
0.0
 40
9.0
100
AcDbArc
 50
180.0
 51
270.0
  0
LINE
  5
456D
330
18
100
AcDbEntity
  8
DRAW2
100
AcDbLine
 10
54.95941554477878
 20
487.942958979892
 30
0.0
 11
57.20942164477875
 21
487.942958979892
 31
0.0
  0
LINE
  5
456E
330
18
100
AcDbEntity
  8
DRAW2
100
AcDbLine
 10
49.45941554477879
 20
486.6929589798921
 30
0.0
 11
54.95941554477878
 21
486.6929589798919
 31
0.0
  0
ARC
  5
456F
330
18
100
AcDbEntity
  8
DRAW2
100
AcDbCircle
 10
57.70942554477835
 20
471.6929589798922
 30
0.0
 40
0.5
100
AcDbArc
 50
180.0
 51
270.0
  0
LINE
  5
4570
330
18
100
AcDbEntity
  8
DRAW2
100
AcDbLine
 10
54.95941554477878
 20
472.4429589798921
 30
0.0
 11
57.20942164477875
 21
472.4429589798922
 31
0.0
  0
ARC
  5
4571
330
18
100
AcDbEntity
  8
DRAW2
100
AcDbCircle
 10
58.84688187477884
 20
476.9429589798919
 30
0.0
 40
9.3874664
100
AcDbArc
 50
159.7445509999977
 51
200.2554700000027
  0
LINE
  5
4572
330
18
100
AcDbEntity
  8
DRAW2
100
AcDbLine
 10
49.45941554477879
 20
473.692958979892
 30
0.0
 11
54.95941554477878
 21
473.692958979892
 31
0.0
  0
LINE
  5
4573
330
18
100
AcDbEntity
  8
DRAW2
100
AcDbLine
 10
50.03995134477879
 20
480.1929589798922
 30
0.0
 11
54.95941554477878
 21
480.1929589798922
 31
0.0
  0
LINE
  5
4574
330
18
100
AcDbEntity
  8
DRAW2
100
AcDbLine
 10
54.95941554477878
 20
472.4429589798922
 30
0.0
 11
54.95941554477878
 21
487.942958979892
 31
0.0
  0
LINE
  5
4575
330
18
100
AcDbEntity
  8
DRAW2
100
AcDbLine
 10
49.45941554477879
 20
473.692958979892
 30
0.0
 11
49.45941554477879
 21
486.6929589798921
 31
0.0
  0
ARC
  5
4576
330
18
100
AcDbEntity
  8
DRAW2
100
AcDbCircle
 10
58.84688187477884
 20
483.442958979892
 30
0.0
 40
9.3874664
100
AcDbArc
 50
159.7445509999977
 51
200.2554700000027
  0
LINE
  5
4578
330
18
100
AcDbEntity
  8
DRAW2
100
AcDbLine
 10
104.7094155447785
 20
471.1929589798923
 30
0.0
 11
104.7094155447785
 21
461.1929289798922
 31
0.0
  0
ARC
  5
4579
330
18
100
AcDbEntity
  8
DRAW2
100
AcDbCircle
 10
95.70941554477853
 20
461.1929289798922
 30
0.0
 40
9.0
100
AcDbArc
 50
270.0
 51
0.0
  0
ARC
  5
457A
330
18
100
AcDbEntity
  8
DRAW2
100
AcDbCircle
 10
104.7094255447783
 20
471.6929589798922
 30
0.0
 40
0.5
100
AcDbArc
 50
270.0
 51
359.9999999999934
  0
ARC
  5
457B
330
18
100
AcDbEntity
  8
DRAW2
100
AcDbCircle
 10
107.5093455447786
 20
473.1929589798921
 30
0.0
 40
2.0
100
AcDbArc
 50
180.0
 51
270.0
  0
LINE
  5
457C
330
18
100
AcDbEntity
  8
DRAW2
100
AcDbLine
 10
141.7594430447787
 20
439.1929589798922
 30
0.0
 11
141.7594430447787
 21
446.1929589798923
 31
0.0
  0
LINE
  5
457D
330
18
100
AcDbEntity
  8
DRAW2
100
AcDbLine
 10
125.2593680447787
 20
439.1929589798922
 30
0.0
 11
125.2593680447787
 21
446.1929589798923
 31
0.0
  0
LINE
  5
457E
330
18
100
AcDbEntity
  8
DRAW2
100
AcDbLine
 10
136.5094055447785
 20
452.2767604927964
 30
0.0
 11
136.5094055447786
 21
436.1929589798921
 31
0.0
  0
LINE
  5
457F
330
18
100
AcDbEntity
  8
DRAW2
100
AcDbLine
 10
130.5094055447786
 20
452.2767604927967
 30
0.0
 11
130.5094055447786
 21
436.1929589798921
 31
0.0
  0
LINE
  5
4580
330
18
100
AcDbEntity
  8
DRAW2
100
AcDbLine
 10
136.5094055447786
 20
439.1929589798922
 30
0.0
 11
141.7594430447787
 21
439.1929589798922
 31
0.0
  0
LINE
  5
4581
330
18
100
AcDbEntity
  8
DRAW2
100
AcDbLine
 10
130.5094055447788
 20
439.1929589798922
 30
0.0
 11
125.2593680447787
 21
439.1929589798922
 31
0.0
  0
ARC
  5
4582
330
18
100
AcDbEntity
  8
DRAW2
100
AcDbCircle
 10
135.5094055447786
 20
436.1929589798921
 30
0.0
 40
1.0
100
AcDbArc
 50
270.0
 51
0.0
  0
LINE
  5
4583
330
18
100
AcDbEntity
  8
DRAW2
100
AcDbLine
 10
131.5094055447786
 20
435.1929589798922
 30
0.0
 11
135.5094055447786
 21
435.1929589798922
 31
0.0
  0
ARC
  5
4584
330
18
100
AcDbEntity
  8
DRAW2
100
AcDbCircle
 10
131.5094055447786
 20
436.1929589798921
 30
0.0
 40
1.0
100
AcDbArc
 50
180.0
 51
270.0
  0
ARC
  5
4585
330
18
100
AcDbEntity
  8
DRAW2
100
AcDbCircle
 10
133.5094055447785
 20
466.7154159004333
 30
0.0
 40
15.76995377759075
100
AcDbArc
 50
40.45279988428894
 51
139.547200115711
  0
ARC
  5
4586
330
18
100
AcDbEntity
  8
DRAW2
100
AcDbCircle
 10
140.8560956441576
 20
463.6360458516769
 30
0.0
 40
4.266557709360186
100
AcDbArc
 50
64.46908114148246
 51
115.5309188585168
  0
ARC
  5
4587
330
18
100
AcDbEntity
  8
DRAW2
100
AcDbCircle
 10
140.8667929119488
 20
454.6744453178108
 30
0.0
 40
8.412313860415329
100
AcDbArc
 50
259.8470989734835
 51
280.152901026522
  0
ARC
  5
4588
330
18
100
AcDbEntity
  8
DRAW2
100
AcDbCircle
 10
140.8706589769464
 20
441.1678384601718
 30
0.0
 40
8.455947153849152
100
AcDbArc
 50
79.92664653399924
 51
100.1265694821696
  0
ARC
  5
4589
330
18
100
AcDbEntity
  8
DRAW2
100
AcDbCircle
 10
140.8460411640539
 20
452.3462209582414
 30
0.0
 40
2.653480447004878
100
AcDbArc
 50
227.2937208246168
 51
314.1704540829987
  0
LINE
  5
458A
330
18
100
AcDbEntity
  8
DRAW2
100
AcDbLine
 10
136.5094055447785
 20
446.1929589798923
 30
0.0
 11
141.7594430447787
 21
446.1929589798923
 31
0.0
  0
LINE
  5
458B
330
18
100
AcDbEntity
  8
DRAW2
100
AcDbLine
 10
142.0094430447787
 20
449.6929589798923
 30
0.0
 11
136.5094055447784
 21
449.6929589798923
 31
0.0
  0
CIRCLE
  5
458C
330
18
100
AcDbEntity
  8
DRAW2
100
AcDbCircle
 10
133.5094055447787
 20
459.6929589798922
 30
0.0
 40
8.0
  0
LINE
  5
458E
330
18
100
AcDbEntity
  8
DRAW2
100
AcDbLine
 10
140.2525517232516
 20
468.9154812687563
 30
0.0
 11
142.7594430447786
 21
467.4859862908882
 31
0.0
  0
LINE
  5
458F
330
18
100
AcDbEntity
  8
DRAW3
100
AcDbLine
 10
140.2525517232516
 20
468.9154812687563
 30
0.0
 11
139.3475680447787
 21
470.4829589798921
 31
0.0
  0
LINE
  5
4590
330
18
100
AcDbEntity
  8
DRAW2
100
AcDbLine
 10
140.2525517232516
 20
468.9154812687563
 30
0.0
 11
140.1813805447787
 21
471.1929589798922
 31
0.0
  0
LINE
  5
4591
330
18
100
AcDbEntity
  8
DRAW3
100
AcDbLine
 10
126.7663343663057
 20
468.9154812687563
 30
0.0
 11
127.6713180447787
 21
470.4829589798921
 31
0.0
  0
LINE
  5
4592
330
18
100
AcDbEntity
  8
DRAW2
100
AcDbLine
 10
126.7663343663057
 20
468.9154812687563
 30
0.0
 11
126.8375055447786
 21
471.1929589798922
 31
0.0
  0
ARC
  5
4593
330
18
100
AcDbEntity
  8
DRAW2
100
AcDbCircle
 10
126.1627904453998
 20
463.6360458516769
 30
0.0
 40
4.266557709360186
100
AcDbArc
 50
64.46908114148172
 51
115.5309188585219
  0
LINE
  5
4594
330
18
100
AcDbEntity
  8
DRAW2
100
AcDbLine
 10
125.0093680447788
 20
449.6929589798923
 30
0.0
 11
124.2593680447787
 21
450.4429589798921
 31
0.0
  0
LINE
  5
4595
330
18
100
AcDbEntity
  8
DRAW2
100
AcDbLine
 10
124.2593680447787
 20
450.4429589798921
 30
0.0
 11
125.0093680447788
 21
449.6929589798923
 31
0.0
  0
ARC
  5
4596
330
18
100
AcDbEntity
  8
DRAW2
100
AcDbCircle
 10
126.1727699255035
 20
452.3462209582414
 30
0.0
 40
2.653480447004878
100
AcDbArc
 50
225.8295459170012
 51
312.7062791753825
  0
LINE
  5
4597
330
18
100
AcDbEntity
  8
DRAW2
100
AcDbLine
 10
126.7663343663057
 20
468.9154812687563
 30
0.0
 11
124.2594430447787
 21
467.4859862908882
 31
0.0
  0
LINE
  5
4598
330
18
100
AcDbEntity
  8
DRAW2
100
AcDbLine
 10
124.3239121726952
 20
467.4859862908882
 30
0.0
 11
124.2594430447787
 21
467.4859862908882
 31
0.0
  0
LINE
  5
4599
330
18
100
AcDbEntity
  8
DRAW2
100
AcDbLine
 10
124.2593680447787
 20
450.4429589798921
 30
0.0
 11
124.3238371726952
 21
450.4429589798921
 31
0.0
  0
LINE
  5
459A
330
18
100
AcDbEntity
  8
DRAW2
100
AcDbLine
 10
124.3238371726952
 20
467.4859862908882
 30
0.0
 11
124.3238371726952
 21
450.4429589798921
 31
0.0
  0
LINE
  5
459B
330
18
100
AcDbEntity
  8
DRAW2
100
AcDbLine
 10
124.2593680447787
 20
467.4859862908882
 30
0.0
 11
124.2593680447787
 21
450.4429589798921
 31
0.0
  0
LINE
  5
459C
330
18
100
AcDbEntity
  8
DRAW2
100
AcDbLine
 10
126.7663343663057
 20
468.9154812687563
 30
0.0
 11
140.2525517232516
 21
468.9154812687563
 31
0.0
  0
LINE
  5
459D
330
18
100
AcDbEntity
  8
DRAW2
100
AcDbLine
 10
137.1580729246102
 20
467.4859862908882
 30
0.0
 11
139.0463440370307
 21
467.4859862908882
 31
0.0
  0
LINE
  5
459E
330
18
100
AcDbEntity
  8
DRAW2
100
AcDbLine
 10
137.1580729246102
 20
467.4859862908882
 30
0.0
 11
137.1580729246102
 21
466.8124551946082
 31
0.0
  0
LINE
  5
459F
330
18
100
AcDbEntity
  8
DRAW2
100
AcDbLine
 10
139.0463440370307
 20
467.4859862908882
 30
0.0
 11
139.0463440370307
 21
465.4672392062943
 31
0.0
  0
LINE
  5
45A0
330
18
100
AcDbEntity
  8
DRAW2
100
AcDbLine
 10
129.8607381649472
 20
467.4859862908882
 30
0.0
 11
129.8607381649472
 21
466.8124551946082
 31
0.0
  0
ARC
  5
45A1
330
18
100
AcDbEntity
  8
DRAW2
100
AcDbCircle
 10
133.5094430447787
 20
451.6603289698907
 30
0.0
 40
16.24081062144512
100
AcDbArc
 50
77.01722515769001
 51
102.9827748423099
  0
LINE
  5
45A2
330
18
100
AcDbEntity
  8
DRAW2
100
AcDbLine
 10
139.3916390311715
 20
446.393861185928
 30
0.0
 11
139.3916390311715
 21
449.4920567738565
 31
0.0
  0
LINE
  5
45A3
330
18
100
AcDbEntity
  8
DRAW2
100
AcDbLine
 10
139.0463440370307
 20
450.3963366710023
 30
0.0
 11
137.1580729246102
 21
450.3963366710023
 31
0.0
  0
LINE
  5
45A4
330
18
100
AcDbEntity
  8
DRAW2
100
AcDbLine
 10
137.1580729246102
 20
452.5734627651765
 30
0.0
 11
137.1580729246102
 21
450.3963366710023
 31
0.0
  0
ARC
  5
45A5
330
18
100
AcDbEntity
  8
DRAW2
100
AcDbCircle
 10
133.5093680447787
 20
459.5079135561158
 30
0.0
 40
9.814954576223676
100
AcDbArc
 50
248.1769149490542
 51
252.2025936347652
  0
LINE
  5
45A6
330
18
100
AcDbEntity
  8
DRAW2
100
AcDbLine
 10
129.8607381649472
 20
452.5734627651765
 30
0.0
 11
129.8607381649472
 21
450.3963366710023
 31
0.0
  0
LINE
  5
45A7
330
18
100
AcDbEntity
  8
DRAW2
100
AcDbLine
 10
136.5094055447785
 20
446.3938611859281
 30
0.0
 11
139.3916390311715
 21
446.393861185928
 31
0.0
  0
LINE
  5
45A8
330
18
100
AcDbEntity
  8
DRAW2
100
AcDbLine
 10
136.5094055447785
 20
449.4920567738565
 30
0.0
 11
139.3916390311715
 21
449.4920567738565
 31
0.0
  0
ARC
  5
45A9
330
18
100
AcDbEntity
  8
DRAW2
100
AcDbCircle
 10
133.5094430447787
 20
459.5079135561158
 30
0.0
 40
9.814954576223676
100
AcDbArc
 50
287.7974063652347
 51
291.8230850509457
  0
LINE
  5
45AA
330
18
100
AcDbEntity
  8
DRAW2
100
AcDbLine
 10
139.0463440370307
 20
453.9186787534902
 30
0.0
 11
139.0463440370307
 21
450.3963366710023
 31
0.0
  0
LINE
  5
45AB
330
18
100
AcDbEntity
  8
DRAW2
100
AcDbLine
 10
127.9724670525268
 20
467.4859862908882
 30
0.0
 11
127.9724670525268
 21
465.4672392062943
 31
0.0
  0
LINE
  5
45AC
330
18
100
AcDbEntity
  8
DRAW2
100
AcDbLine
 10
127.6271720583859
 20
446.393861185928
 30
0.0
 11
127.6271720583859
 21
449.4920567738565
 31
0.0
  0
LINE
  5
45AD
330
18
100
AcDbEntity
  8
DRAW2
100
AcDbLine
 10
124.6691321668361
 20
446.393861185928
 30
0.0
 11
124.6691321668361
 21
449.4934340706184
 31
0.0
  0
LINE
  5
45AE
330
18
100
AcDbEntity
  8
DRAW2
100
AcDbLine
 10
124.5093680447787
 20
446.393861185928
 30
0.0
 11
125.2593680447787
 21
446.1929589798923
 31
0.0
  0
LINE
  5
45AF
330
18
100
AcDbEntity
  8
DRAW2
100
AcDbLine
 10
124.6691321668361
 20
446.393861185928
 30
0.0
 11
124.5093680447787
 21
446.393861185928
 31
0.0
  0
ARC
  5
45B0
330
18
100
AcDbEntity
  8
DRAW2
100
AcDbCircle
 10
126.1520181776086
 20
454.6744453178108
 30
0.0
 40
8.412313860415329
100
AcDbArc
 50
259.8470989734779
 51
280.1529010265164
  0
LINE
  5
45B1
330
18
100
AcDbEntity
  8
DRAW2
100
AcDbLine
 10
124.6691321668361
 20
449.4920567738565
 30
0.0
 11
124.5093680447787
 21
449.4920567738565
 31
0.0
  0
LINE
  5
45B2
330
18
100
AcDbEntity
  8
DRAW2
100
AcDbLine
 10
124.5093680447787
 20
449.4920567738565
 30
0.0
 11
125.2593680447787
 21
449.6929589798923
 31
0.0
  0
ARC
  5
45B3
330
18
100
AcDbEntity
  8
DRAW2
100
AcDbCircle
 10
126.148152112611
 20
441.1678384601718
 30
0.0
 40
8.455947153849152
100
AcDbArc
 50
79.87343051783035
 51
100.0733534660007
  0
LINE
  5
45B4
330
18
100
AcDbEntity
  8
DRAW2
100
AcDbLine
 10
124.5093680447787
 20
446.393861185928
 30
0.0
 11
124.5093680447787
 21
449.4920567738565
 31
0.0
  0
LINE
  5
45B5
330
18
100
AcDbEntity
  8
DRAW2
100
AcDbLine
 10
127.9724670525268
 20
453.9186787534902
 30
0.0
 11
127.9724670525268
 21
450.3963366710023
 31
0.0
  0
CIRCLE
  5
45B6
330
18
100
AcDbEntity
  8
DRAW2
100
AcDbCircle
 10
133.5094055447787
 20
459.6929589798922
 30
0.0
 40
6.0
  0
CIRCLE
  5
45B7
330
18
100
AcDbEntity
  8
DRAW2
100
AcDbCircle
 10
133.5094055447787
 20
459.6929589798922
 30
0.0
 40
5.0
  0
LINE
  5
45B8
330
18
100
AcDbEntity
  8
DRAW2
100
AcDbLine
 10
130.5094055447789
 20
446.3938611859281
 30
0.0
 11
127.6271720583859
 21
446.393861185928
 31
0.0
  0
LINE
  5
45B9
330
18
100
AcDbEntity
  8
DRAW2
100
AcDbLine
 10
130.5094055447789
 20
446.1929589798923
 30
0.0
 11
125.2593680447787
 21
446.1929589798923
 31
0.0
  0
LINE
  5
45BA
330
18
100
AcDbEntity
  8
DRAW2
100
AcDbLine
 10
130.5094055447789
 20
449.4920567738565
 30
0.0
 11
127.6271720583859
 21
449.4920567738565
 31
0.0
  0
LINE
  5
45BB
330
18
100
AcDbEntity
  8
DRAW2
100
AcDbLine
 10
127.9725420525267
 20
450.3963366710023
 30
0.0
 11
129.8608131649471
 21
450.3963366710023
 31
0.0
  0
LINE
  5
45BC
330
18
100
AcDbEntity
  8
DRAW2
100
AcDbLine
 10
125.0093680447788
 20
449.6929589798923
 30
0.0
 11
130.5094055447791
 21
449.6929589798923
 31
0.0
  0
LINE
  5
45BD
330
18
100
AcDbEntity
  8
DRAW2
100
AcDbLine
 10
129.8608131649471
 20
467.4859862908882
 30
0.0
 11
127.9725420525267
 21
467.4859862908882
 31
0.0
  0
LINE
  5
45BE
330
18
100
AcDbEntity
  8
DRAW2
100
AcDbLine
 10
121.5094055447785
 20
471.1929589798923
 30
0.0
 11
121.5094055447785
 21
476.9472995074408
 31
0.0
  0
LINE
  5
45BF
330
18
100
AcDbEntity
  8
DRAW3
100
AcDbLine
 10
139.3475680447787
 20
470.4829589798921
 30
0.0
 11
139.3253805447787
 21
471.1929589798923
 31
0.0
  0
LINE
  5
45C0
330
18
100
AcDbEntity
  8
DRAW3
100
AcDbLine
 10
127.6713180447787
 20
470.4829589798921
 30
0.0
 11
127.6935055447786
 21
471.1929589798922
 31
0.0
  0
LINE
  5
45C1
330
18
100
AcDbEntity
  8
DRAW2
100
AcDbLine
 10
140.2035680447787
 20
470.4829589798921
 30
0.0
 11
126.8153180447787
 21
470.4829589798921
 31
0.0
  0
LINE
  5
45C2
330
18
100
AcDbEntity
  8
DRAW2
100
AcDbLine
 10
142.6949739168622
 20
467.4859862908882
 30
0.0
 11
142.7594430447786
 21
467.4859862908882
 31
0.0
  0
LINE
  5
45C3
330
18
100
AcDbEntity
  8
DRAW2
100
AcDbLine
 10
142.3496789227213
 20
446.393861185928
 30
0.0
 11
142.3496789227213
 21
449.4934340706184
 31
0.0
  0
LINE
  5
45C4
330
18
100
AcDbEntity
  8
DRAW2
100
AcDbLine
 10
142.5094430447786
 20
446.393861185928
 30
0.0
 11
142.5094430447786
 21
449.4920567738565
 31
0.0
  0
LINE
  5
45C5
330
18
100
AcDbEntity
  8
DRAW2
100
AcDbLine
 10
142.5094430447786
 20
446.393861185928
 30
0.0
 11
141.7594430447787
 21
446.1929589798923
 31
0.0
  0
LINE
  5
45C6
330
18
100
AcDbEntity
  8
DRAW2
100
AcDbLine
 10
142.3496789227213
 20
446.393861185928
 30
0.0
 11
142.5094430447786
 21
446.393861185928
 31
0.0
  0
LINE
  5
45C7
330
18
100
AcDbEntity
  8
DRAW2
100
AcDbLine
 10
142.7594430447786
 20
450.4429589798921
 30
0.0
 11
142.6949739168622
 21
450.4429589798921
 31
0.0
  0
LINE
  5
45C8
330
18
100
AcDbEntity
  8
DRAW2
100
AcDbLine
 10
142.0094430447787
 20
449.6929589798923
 30
0.0
 11
142.7594430447786
 21
450.4429589798921
 31
0.0
  0
LINE
  5
45C9
330
18
100
AcDbEntity
  8
DRAW2
100
AcDbLine
 10
142.3496789227213
 20
449.4920567738565
 30
0.0
 11
142.5094430447786
 21
449.4920567738565
 31
0.0
  0
LINE
  5
45CA
330
18
100
AcDbEntity
  8
DRAW2
100
AcDbLine
 10
142.5094430447786
 20
449.4920567738565
 30
0.0
 11
141.7594430447787
 21
449.6929589798923
 31
0.0
  0
LINE
  5
45CB
330
18
100
AcDbEntity
  8
DRAW2
100
AcDbLine
 10
142.7594430447786
 20
450.4429589798921
 30
0.0
 11
142.0094430447787
 21
449.6929589798923
 31
0.0
  0
LINE
  5
45CC
330
18
100
AcDbEntity
  8
DRAW2
100
AcDbLine
 10
142.6949739168622
 20
467.4859862908882
 30
0.0
 11
142.6949739168622
 21
450.4429589798921
 31
0.0
  0
LINE
  5
45CD
330
18
100
AcDbEntity
  8
DRAW2
100
AcDbLine
 10
142.7594430447786
 20
467.4859862908882
 30
0.0
 11
142.7594430447786
 21
450.4429589798921
 31
0.0
  0
LINE
  5
45CE
330
18
100
AcDbEntity
  8
DRAW2
100
AcDbLine
 10
145.5094055447784
 20
471.1929589798923
 30
0.0
 11
145.5094055447784
 21
476.9472995074408
 31
0.0
  0
LINE
  5
45CF
330
18
100
AcDbEntity
  8
DRAW2
100
AcDbLine
 10
104.4376648253287
 20
543.1929889798921
 30
0.0
 11
179.9811662642285
 21
543.1929889798921
 31
0.0
  0
LINE
  5
45D0
330
18
100
AcDbEntity
  8
DRAW2
100
AcDbLine
 10
104.4376661309307
 20
541.1929589798923
 30
0.0
 11
179.9811649586265
 21
541.1929589798923
 31
0.0
  0
LINE
  5
45D3
330
18
100
AcDbEntity
  8
DRAW2
100
AcDbLine
 10
179.7803989764327
 20
549.5595587324357
 30
0.0
 11
104.6384321131244
 21
549.5595587324357
 31
0.0
  0
LINE
  5
45D4
330
18
100
AcDbEntity
  8
DRAW2
100
AcDbLine
 10
179.7803989764327
 20
534.8263592273485
 30
0.0
 11
104.6384321131244
 21
534.8263592273485
 31
0.0
  0
ARC
  5
45D7
330
18
100
AcDbEntity
  8
DRAW2
100
AcDbCircle
 10
81.45941554477863
 20
542.1929589798923
 30
0.0
 40
23.0
100
AcDbArc
 50
325.9442022574284
 51
34.05579774257155
  0
LINE
  5
45D8
330
18
100
AcDbEntity
  8
DRAW2
100
AcDbLine
 10
82.45941554477857
 20
555.6929589798921
 30
0.0
 11
82.45941554477857
 21
543.1929589798922
 31
0.0
  0
LINE
  5
45D9
330
18
100
AcDbEntity
  8
DRAW2
100
AcDbLine
 10
80.45941554477858
 20
555.6929589798921
 30
0.0
 11
80.45941554477858
 21
543.1929589798922
 31
0.0
  0
ARC
  5
45DA
330
18
100
AcDbEntity
  8
DRAW2
100
AcDbCircle
 10
81.45941554477863
 20
542.1929589798923
 30
0.0
 40
19.0
100
AcDbArc
 50
314.722246024788
 51
45.27775397521195
  0
ARC
  5
45DB
330
18
100
AcDbEntity
  8
DRAW2
100
AcDbCircle
 10
81.45941554477863
 20
542.1929589798923
 30
0.0
 40
23.0
100
AcDbArc
 50
145.9442022574284
 51
214.0557977425715
  0
ARC
  5
45DC
330
18
100
AcDbEntity
  8
DRAW2
100
AcDbCircle
 10
81.45941554477863
 20
542.1929589798923
 30
0.0
 40
19.0
100
AcDbArc
 50
134.722246024788
 51
225.2777539752119
  0
LINE
  5
45DF
330
18
100
AcDbEntity
  8
DRAW2
100
AcDbLine
 10
68.08967358765776
 20
528.6929589798923
 30
0.0
 11
94.82915750189951
 21
528.6929589798922
 31
0.0
  0
LINE
  5
45E0
330
18
100
AcDbEntity
  8
DRAW2
100
AcDbLine
 10
62.48574958376829
 20
543.1929589798922
 30
0.0
 11
80.45941554477858
 21
543.1929589798922
 31
0.0
  0
LINE
  5
45E1
330
18
100
AcDbEntity
  8
DRAW2
100
AcDbLine
 10
62.48574958376829
 20
541.1929589798923
 30
0.0
 11
80.45941554477858
 21
541.1929589798923
 31
0.0
  0
LINE
  5
45E2
330
18
100
AcDbEntity
  8
DRAW2
100
AcDbLine
 10
74.20389134477847
 20
517.1929583497656
 30
0.0
 11
77.95666824477848
 21
523.6929589798921
 31
0.0
  0
LINE
  5
45E3
330
18
100
AcDbEntity
  8
DRAW2
100
AcDbLine
 10
77.95666394477848
 20
510.6929560798922
 30
0.0
 11
74.20388704477847
 21
517.1929565572549
 31
0.0
  0
ARC
  5
45E5
330
18
100
AcDbEntity
  8
DRAW2
100
AcDbCircle
 10
81.45941554477863
 20
517.1929589798923
 30
0.0
 40
9.0
100
AcDbArc
 50
214.0557977425715
 51
325.9442022574284
  0
CIRCLE
  5
45E6
330
18
100
AcDbEntity
  8
DRAW2
100
AcDbCircle
 10
81.70944554477854
 20
517.1929589798923
 30
0.0
 40
6.500003299999998
  0
CIRCLE
  5
45E7
330
18
100
AcDbEntity
  8
DRAW2
100
AcDbCircle
 10
81.70944554477854
 20
517.1929589798923
 30
0.0
 40
8.0
  0
CIRCLE
  5
45E8
330
18
100
AcDbEntity
  8
DRAW2
100
AcDbCircle
 10
81.70944554477854
 20
517.1929589798923
 30
0.0
 40
7.5
  0
LINE
  5
45E9
330
18
100
AcDbEntity
  8
DRAW2
100
AcDbLine
 10
74.00298208098374
 20
512.1529589798922
 30
0.0
 11
62.40408558174735
 21
529.3129589798922
 31
0.0
  0
LINE
  5
45EA
330
18
100
AcDbEntity
  8
DRAW2
100
AcDbLine
 10
54.95941554477878
 20
518.9429589798919
 30
0.0
 11
57.20942164477875
 21
518.9429589798919
 31
0.0
  0
LINE
  5
45EB
330
18
100
AcDbEntity
  8
DRAW2
100
AcDbLine
 10
49.45941554477879
 20
517.6929589798919
 30
0.0
 11
54.95941554477878
 21
517.6929589798919
 31
0.0
  0
LINE
  5
45EC
330
18
100
AcDbEntity
  8
DRAW2
100
AcDbLine
 10
54.95941554477878
 20
503.4429589798919
 30
0.0
 11
57.20942164477875
 21
503.4429589798919
 31
0.0
  0
ARC
  5
45ED
330
18
100
AcDbEntity
  8
DRAW2
100
AcDbCircle
 10
58.84688187477872
 20
507.9429589798921
 30
0.0
 40
9.3874664
100
AcDbArc
 50
159.7445509999977
 51
200.2554700000027
  0
LINE
  5
45EE
330
18
100
AcDbEntity
  8
DRAW2
100
AcDbLine
 10
49.45941554477879
 20
504.6929589798919
 30
0.0
 11
54.95941554477878
 21
504.692958979892
 31
0.0
  0
LINE
  5
45EF
330
18
100
AcDbEntity
  8
DRAW2
100
AcDbLine
 10
50.03995134477879
 20
511.192958979892
 30
0.0
 11
54.95941554477878
 21
511.192958979892
 31
0.0
  0
ARC
  5
45F0
330
18
100
AcDbEntity
  8
DRAW2
100
AcDbCircle
 10
58.84688187477872
 20
514.4429589798919
 30
0.0
 40
9.3874664
100
AcDbArc
 50
159.7445509999977
 51
200.2554700000027
  0
LINE
  5
45F1
330
18
100
AcDbEntity
  8
DRAW2
100
AcDbLine
 10
49.45941554477879
 20
504.6929589798919
 30
0.0
 11
49.45941554477879
 21
517.6929589798919
 31
0.0
  0
LINE
  5
45F2
330
18
100
AcDbEntity
  8
DRAW2
100
AcDbLine
 10
54.95941554477878
 20
503.4429589798919
 30
0.0
 11
54.95941554477878
 21
518.9429589798919
 31
0.0
  0
LINE
  5
45F3
330
18
100
AcDbEntity
  8
DRAW2
100
AcDbLine
 10
89.21499644477847
 20
517.1929568725767
 30
0.0
 11
85.46221934477847
 21
523.6929575798922
 31
0.0
  0
CIRCLE
  5
45F4
330
18
100
AcDbEntity
  8
DRAW3
100
AcDbCircle
 10
81.70944554477854
 20
517.1929589798923
 30
0.0
 40
4.0
  0
LINE
  5
45F5
330
18
100
AcDbEntity
  8
DRAW2
100
AcDbLine
 10
88.91584900857353
 20
512.1529589798922
 30
0.0
 11
100.5147455078099
 21
529.3129589798922
 31
0.0
  0
LINE
  5
45F6
330
18
100
AcDbEntity
  8
DRAW2
100
AcDbLine
 10
85.46222284477847
 20
510.6929589798921
 30
0.0
 11
89.21499974477848
 21
517.1929596100186
 31
0.0
  0
CIRCLE
  5
45F7
330
18
100
AcDbEntity
  8
DRAW2
100
AcDbCircle
 10
81.70944554477854
 20
517.1929589798923
 30
0.0
 40
3.3235002
  0
LINE
  5
45F8
330
18
100
AcDbEntity
  8
DRAW2
100
AcDbLine
 10
77.95667674477846
 20
510.6929713798922
 30
0.0
 11
85.46223094477847
 21
510.6929713798922
 31
0.0
  0
LINE
  5
45F9
330
18
100
AcDbEntity
  8
DRAW2
100
AcDbLine
 10
82.45941554477857
 20
543.1929589798922
 30
0.0
 11
100.4330815057889
 21
543.1929589798922
 31
0.0
  0
LINE
  5
45FA
330
18
100
AcDbEntity
  8
DRAW2
100
AcDbLine
 10
82.45941554477857
 20
541.1929589798923
 30
0.0
 11
100.4330815057889
 21
541.1929589798922
 31
0.0
  0
LINE
  5
45FB
330
18
100
AcDbEntity
  8
DRAW2
100
AcDbLine
 10
82.45941554477857
 20
541.1929589798923
 30
0.0
 11
82.45941554477857
 21
528.6929589798923
 31
0.0
  0
LINE
  5
45FC
330
18
100
AcDbEntity
  8
DRAW2
100
AcDbLine
 10
80.45941554477858
 20
541.1929589798923
 30
0.0
 11
80.45941554477858
 21
528.6929589798923
 31
0.0
  0
ARC
  5
45FD
330
18
100
AcDbEntity
  8
DRAW2
100
AcDbCircle
 10
82.45941554477857
 20
542.1929589798923
 30
0.0
 40
1.0
100
AcDbArc
 50
90.0
 51
270.0
  0
ARC
  5
45FE
330
18
100
AcDbEntity
  8
DRAW2
100
AcDbCircle
 10
80.45941554477858
 20
542.1929589798923
 30
0.0
 40
1.0
100
AcDbArc
 50
270.0
 51
90.0
  0
LINE
  5
45FF
330
18
100
AcDbEntity
  8
DRAW2
100
AcDbLine
 10
77.95668294477849
 20
523.6929732798922
 30
0.0
 11
85.4622371447785
 21
523.6929732798922
 31
0.0
  0
ARC
  5
4600
330
18
100
AcDbEntity
  8
DRAW2
100
AcDbCircle
 10
104.6384321131244
 20
532.8263592273486
 30
0.0
 40
2.0
100
AcDbArc
 50
90.0
 51
157.996453099388
  0
LINE
  5
4601
330
18
100
AcDbEntity
  8
DRAW2
100
AcDbLine
 10
74.20389134477847
 20
567.1929596100186
 30
0.0
 11
77.95666824477848
 21
560.6929589798921
 31
0.0
  0
LINE
  5
4602
330
18
100
AcDbEntity
  8
DRAW2
100
AcDbLine
 10
77.95666394477848
 20
573.6929618798922
 30
0.0
 11
74.20388704477847
 21
567.1929614025296
 31
0.0
  0
ARC
  5
4603
330
18
100
AcDbEntity
  8
DRAW2
100
AcDbCircle
 10
81.45941554477863
 20
567.1929589798923
 30
0.0
 40
9.0
100
AcDbArc
 50
34.05579774257155
 51
145.9442022574284
  0
LINE
  5
4605
330
18
100
AcDbEntity
  8
DRAW2
100
AcDbLine
 10
68.08967358765776
 20
555.6929589798922
 30
0.0
 11
94.82915750189963
 21
555.6929589798921
 31
0.0
  0
CIRCLE
  5
4606
330
18
100
AcDbEntity
  8
DRAW2
100
AcDbCircle
 10
81.70944554477854
 20
567.1929589798923
 30
0.0
 40
7.5
  0
CIRCLE
  5
4607
330
18
100
AcDbEntity
  8
DRAW2
100
AcDbCircle
 10
81.70944554477854
 20
567.1929589798923
 30
0.0
 40
8.0
  0
CIRCLE
  5
4608
330
18
100
AcDbEntity
  8
DRAW2
100
AcDbCircle
 10
81.70944554477854
 20
567.1929589798923
 30
0.0
 40
6.500003299999998
  0
ARC
  5
4609
330
18
100
AcDbEntity
  8
DRAW2
100
AcDbCircle
 10
58.84688187477861
 20
569.9429589798921
 30
0.0
 40
9.3874664
100
AcDbArc
 50
159.7445509999977
 51
200.2554700000027
  0
LINE
  5
460A
330
18
100
AcDbEntity
  8
DRAW2
100
AcDbLine
 10
49.45941554477867
 20
566.6929589798922
 30
0.0
 11
49.45941554477867
 21
579.6929589798922
 31
0.0
  0
LINE
  5
460B
330
18
100
AcDbEntity
  8
DRAW2
100
AcDbLine
 10
54.95941554477864
 20
565.4429589798922
 30
0.0
 11
54.95941554477864
 21
580.9429589798922
 31
0.0
  0
LINE
  5
460C
330
18
100
AcDbEntity
  8
DRAW2
100
AcDbLine
 10
74.00298208098374
 20
572.2329589798922
 30
0.0
 11
62.40408558174735
 21
555.0729589798922
 31
0.0
  0
LINE
  5
460D
330
18
100
AcDbEntity
  8
DRAW2
100
AcDbLine
 10
54.95941554477864
 20
565.4429589798922
 30
0.0
 11
57.20942164477865
 21
565.4429589798922
 31
0.0
  0
LINE
  5
460E
330
18
100
AcDbEntity
  8
DRAW2
100
AcDbLine
 10
49.45941554477867
 20
566.6929589798922
 30
0.0
 11
54.95941554477864
 21
566.6929589798922
 31
0.0
  0
LINE
  5
460F
330
18
100
AcDbEntity
  8
DRAW2
100
AcDbLine
 10
54.95941554477855
 20
596.442958979892
 30
0.0
 11
57.2094216447785
 21
596.442958979892
 31
0.0
  0
LINE
  5
4610
330
18
100
AcDbEntity
  8
DRAW2
100
AcDbLine
 10
54.95941554477864
 20
580.9429589798922
 30
0.0
 11
57.20942164477865
 21
580.9429589798922
 31
0.0
  0
ARC
  5
4611
330
18
100
AcDbEntity
  8
DRAW2
100
AcDbCircle
 10
58.84688187477861
 20
576.442958979892
 30
0.0
 40
9.3874664
100
AcDbArc
 50
159.7445509999977
 51
200.2554700000027
  0
LINE
  5
4612
330
18
100
AcDbEntity
  8
DRAW2
100
AcDbLine
 10
49.45941554477867
 20
579.6929589798922
 30
0.0
 11
54.95941554477864
 21
579.692958979892
 31
0.0
  0
LINE
  5
4613
330
18
100
AcDbEntity
  8
DRAW2
100
AcDbLine
 10
50.03995134477868
 20
573.192958979892
 30
0.0
 11
54.95941554477864
 21
573.192958979892
 31
0.0
  0
LINE
  5
4614
330
18
100
AcDbEntity
  8
DRAW2
100
AcDbLine
 10
85.46222284477847
 20
573.6929589798921
 30
0.0
 11
89.21499974477848
 21
567.1929583497655
 31
0.0
  0
LINE
  5
4615
330
18
100
AcDbEntity
  8
DRAW2
100
AcDbLine
 10
88.91584900857353
 20
572.2329589798922
 30
0.0
 11
100.5147455078099
 21
555.0729589798922
 31
0.0
  0
LINE
  5
4616
330
18
100
AcDbEntity
  8
DRAW2
100
AcDbLine
 10
89.21499644477847
 20
567.1929610872077
 30
0.0
 11
85.46221934477847
 21
560.6929603798922
 31
0.0
  0
CIRCLE
  5
4617
330
18
100
AcDbEntity
  8
DRAW2
100
AcDbCircle
 10
81.70944554477854
 20
567.1929589798923
 30
0.0
 40
3.3235002
  0
CIRCLE
  5
4618
330
18
100
AcDbEntity
  8
DRAW3
100
AcDbCircle
 10
81.70944554477854
 20
567.1929589798923
 30
0.0
 40
4.0
  0
LINE
  5
4619
330
18
100
AcDbEntity
  8
DRAW2
100
AcDbLine
 10
77.95668294477849
 20
560.6929446798922
 30
0.0
 11
85.4622371447785
 21
560.6929446798922
 31
0.0
  0
ARC
  5
461A
330
18
100
AcDbEntity
  8
DRAW2
100
AcDbCircle
 10
104.6384321131244
 20
551.5595587324358
 30
0.0
 40
2.0
100
AcDbArc
 50
202.0035469006119
 51
270.0
  0
LINE
  5
461B
330
18
100
AcDbEntity
  8
DRAW2
100
AcDbLine
 10
77.95667674477846
 20
573.6929465798921
 30
0.0
 11
85.46223094477847
 21
573.6929465798921
 31
0.0
  0
LINE
  5
463C
330
18
100
AcDbEntity
  8
DRAW2
100
AcDbLine
 10
179.2094155447786
 20
519.7834990885333
 30
0.0
 11
179.2094155447785
 21
473.1929589798921
 31
0.0
  0
LINE
  5
463D
330
18
100
AcDbEntity
  8
DRAW2
100
AcDbLine
 10
228.2094455447784
 20
519.7835098037925
 30
0.0
 11
228.2094455447785
 21
471.6929589798922
 31
0.0
  0
LINE
  5
463E
330
18
100
AcDbEntity
  8
DRAW2
100
AcDbLine
 10
204.4094355447785
 20
508.3188393052426
 30
0.0
 11
204.4094355447785
 21
482.0103389798921
 31
0.0
  0
LINE
  5
463F
330
18
100
AcDbEntity
  8
DRAW2
100
AcDbLine
 10
201.4094355447785
 20
508.3188393052426
 30
0.0
 11
201.4094355447785
 21
482.0103389798921
 31
0.0
  0
LINE
  5
4640
330
18
100
AcDbEntity
  8
DRAW2
100
AcDbLine
 10
180.2094455447786
 20
519.4208511408731
 30
0.0
 11
180.2094455447786
 21
471.6929589798922
 31
0.0
  0
LINE
  5
4641
330
18
100
AcDbEntity
  8
DRAW3
100
AcDbLine
 10
238.3094155447785
 20
483.5679289798921
 30
0.0
 11
241.2093855447783
 21
483.5679289798921
 31
0.0
  0
LINE
  5
4642
330
18
100
AcDbEntity
  8
DRAW2
100
AcDbLine
 10
238.3094155447785
 20
484.1929589798922
 30
0.0
 11
240.5843555447783
 21
484.1929589798922
 31
0.0
  0
LINE
  5
4643
330
18
100
AcDbEntity
  8
DRAW3
100
AcDbLine
 10
238.3094155447785
 20
476.8179289798921
 30
0.0
 11
241.2093255447786
 21
476.8179289798921
 31
0.0
  0
LINE
  5
4644
330
18
100
AcDbEntity
  8
DRAW2
100
AcDbLine
 10
238.3094155447785
 20
476.1929589798922
 30
0.0
 11
240.5844155418986
 21
476.1929589798922
 31
0.0
  0
LINE
  5
4646
330
18
100
AcDbEntity
  8
DRAW2
100
AcDbLine
 10
180.7094455447785
 20
471.1929589798923
 30
0.0
 11
227.7094455447785
 21
471.1929589798923
 31
0.0
  0
LINE
  5
4647
330
18
100
AcDbEntity
  8
DRAW2
100
AcDbLine
 10
189.4594111270656
 20
452.1929289798921
 30
0.0
 11
217.459411127065
 21
452.1929289798922
 31
0.0
  0
ARC
  5
4648
330
18
100
AcDbEntity
  8
DRAW2
100
AcDbCircle
 10
203.459411127065
 20
477.1929289798922
 30
0.0
 40
9.0
100
AcDbArc
 50
221.8100586617736
 51
318.1899413382264
  0
LINE
  5
464A
330
18
100
AcDbEntity
  8
DRAW2
100
AcDbLine
 10
180.4594111270651
 20
471.1929589798923
 30
0.0
 11
180.4594111270651
 21
461.1929289798921
 31
0.0
  0
ARC
  5
464B
330
18
100
AcDbEntity
  8
DRAW2
100
AcDbCircle
 10
189.4594111270656
 20
461.1929289798921
 30
0.0
 40
9.0
100
AcDbArc
 50
180.0
 51
270.0
  0
ARC
  5
464C
330
18
100
AcDbEntity
  8
DRAW2
100
AcDbCircle
 10
180.7094455447785
 20
471.6929589798922
 30
0.0
 40
0.5
100
AcDbArc
 50
180.0000000000065
 51
270.0
  0
ARC
  5
464D
330
18
100
AcDbEntity
  8
DRAW2
100
AcDbCircle
 10
177.2094155447785
 20
473.1929589798921
 30
0.0
 40
2.0
100
AcDbArc
 50
270.0
 51
0.0
  0
LINE
  5
464E
330
18
100
AcDbEntity
  8
DRAW2
100
AcDbLine
 10
226.4594111270652
 20
471.1929589798922
 30
0.0
 11
226.459411127065
 21
461.1929289798922
 31
0.0
  0
ARC
  5
464F
330
18
100
AcDbEntity
  8
DRAW2
100
AcDbCircle
 10
217.459411127065
 20
461.1929289798922
 30
0.0
 40
9.0
100
AcDbArc
 50
270.0
 51
0.0
  0
LINE
  5
4650
330
18
100
AcDbEntity
  8
DRAW2
100
AcDbLine
 10
231.8094516447787
 20
487.4929467798921
 30
0.0
 11
229.8094516447787
 21
487.4929467798921
 31
0.0
  0
LINE
  5
4651
330
18
100
AcDbEntity
  8
DRAW2
100
AcDbLine
 10
238.3094515447785
 20
486.692958979892
 30
0.0
 11
231.8094516447787
 21
486.692958979892
 31
0.0
  0
LINE
  5
4652
330
18
100
AcDbEntity
  8
DRAW2
100
AcDbLine
 10
237.7289157447785
 20
480.1929589798922
 30
0.0
 11
231.8094516447787
 21
480.1929589798922
 31
0.0
  0
LINE
  5
4653
330
18
100
AcDbEntity
  8
DRAW2
100
AcDbLine
 10
231.8094201447785
 20
480.4816070798921
 30
0.0
 11
229.8094322447785
 21
479.3269133298921
 31
0.0
  0
LINE
  5
4654
330
18
100
AcDbEntity
  8
DRAW2
100
AcDbLine
 10
231.8094445447785
 20
481.0589573698921
 30
0.0
 11
229.8094301447787
 21
479.9042483898921
 31
0.0
  0
LINE
  5
4655
330
18
100
AcDbEntity
  8
DRAW2
100
AcDbLine
 10
231.8094516447787
 20
472.8929711798921
 30
0.0
 11
229.8094516447787
 21
472.8929711798921
 31
0.0
  0
ARC
  5
4656
330
18
100
AcDbEntity
  8
DRAW2
100
AcDbCircle
 10
228.9219852147785
 20
476.942958979892
 30
0.0
 40
9.3874664
100
AcDbArc
 50
339.7445299999972
 51
20.25544900000227
  0
LINE
  5
4657
330
18
100
AcDbEntity
  8
DRAW2
100
AcDbLine
 10
238.3094515447785
 20
473.692958979892
 30
0.0
 11
231.8094516447787
 21
473.692958979892
 31
0.0
  0
LINE
  5
4658
330
18
100
AcDbEntity
  8
DRAW2
100
AcDbLine
 10
238.3094515447785
 20
473.692958979892
 30
0.0
 11
238.3094515447785
 21
486.692958979892
 31
0.0
  0
ARC
  5
4659
330
18
100
AcDbEntity
  8
DRAW2
100
AcDbCircle
 10
228.9219852147785
 20
483.442958979892
 30
0.0
 40
9.3874664
100
AcDbArc
 50
339.7445299999972
 51
20.25544900000227
  0
LINE
  5
465A
330
18
100
AcDbEntity
  8
DRAW2
100
AcDbLine
 10
231.8094516447787
 20
472.8929711798921
 30
0.0
 11
231.8094516447787
 21
487.4929467798921
 31
0.0
  0
LINE
  5
465B
330
18
100
AcDbEntity
  8
DRAW2
100
AcDbLine
 10
229.8094516447787
 20
472.442958979892
 30
0.0
 11
229.8094516447787
 21
487.942958979892
 31
0.0
  0
ARC
  5
465C
330
18
100
AcDbEntity
  8
DRAW2
100
AcDbCircle
 10
227.7094455447785
 20
471.6929589798922
 30
0.0
 40
0.5
100
AcDbArc
 50
270.0
 51
359.9999999999934
  0
LINE
  5
465D
330
18
100
AcDbEntity
  8
DRAW2
100
AcDbLine
 10
229.8094516447787
 20
487.942958979892
 30
0.0
 11
228.2094455447785
 21
487.942958979892
 31
0.0
  0
LINE
  5
465E
330
18
100
AcDbEntity
  8
DRAW2
100
AcDbLine
 10
229.8094516447787
 20
472.442958979892
 30
0.0
 11
228.2094455447785
 21
472.442958979892
 31
0.0
  0
LINE
  5
465F
330
18
100
AcDbEntity
  8
DRAW2
100
AcDbLine
 10
241.2093855447785
 20
483.567928979892
 30
0.0
 11
240.5843255447785
 21
484.1929889798921
 31
0.0
  0
LINE
  5
4660
330
18
100
AcDbEntity
  8
DRAW2
100
AcDbLine
 10
241.2093255447785
 20
476.817928979892
 30
0.0
 11
240.5843855447785
 21
476.1929289798921
 31
0.0
  0
LINE
  5
4661
330
18
100
AcDbEntity
  8
DRAW2
100
AcDbLine
 10
240.5843255447785
 20
484.1929889798921
 30
0.0
 11
240.5843255447785
 21
476.1929889798921
 31
0.0
  0
LINE
  5
4662
330
18
100
AcDbEntity
  8
DRAW2
100
AcDbLine
 10
241.2093255447785
 20
476.817958979892
 30
0.0
 11
241.2093255447785
 21
483.5679589798921
 31
0.0
  0
LINE
  5
4663
330
18
100
AcDbEntity
  8
DRAW2
100
AcDbLine
 10
238.3093695447786
 20
569.1929589798924
 30
0.0
 11
240.5843695418986
 21
569.1929589798924
 31
0.0
  0
LINE
  5
4664
330
18
100
AcDbEntity
  8
DRAW3
100
AcDbLine
 10
238.3093695447786
 20
569.8179289798922
 30
0.0
 11
241.2092795447787
 21
569.8179289798922
 31
0.0
  0
LINE
  5
4665
330
18
100
AcDbEntity
  8
DRAW2
100
AcDbLine
 10
238.3093695447786
 20
577.1929589798924
 30
0.0
 11
240.5843095447784
 21
577.1929589798924
 31
0.0
  0
LINE
  5
4666
330
18
100
AcDbEntity
  8
DRAW3
100
AcDbLine
 10
238.3093695447786
 20
576.5679289798923
 30
0.0
 11
241.2093395447784
 21
576.5679289798923
 31
0.0
  0
LINE
  5
4667
330
18
100
AcDbEntity
  8
DRAW2
100
AcDbLine
 10
238.3093894447783
 20
507.1929589798923
 30
0.0
 11
240.5843894418984
 21
507.1929589798923
 31
0.0
  0
LINE
  5
4668
330
18
100
AcDbEntity
  8
DRAW3
100
AcDbLine
 10
238.3093894447783
 20
507.8179289798921
 30
0.0
 11
241.2092994447784
 21
507.8179289798921
 31
0.0
  0
LINE
  5
4669
330
18
100
AcDbEntity
  8
DRAW2
100
AcDbLine
 10
238.3093894447783
 20
515.1929589798923
 30
0.0
 11
240.5843294447781
 21
515.1929589798923
 31
0.0
  0
LINE
  5
466A
330
18
100
AcDbEntity
  8
DRAW3
100
AcDbLine
 10
238.3093894447783
 20
514.5679289798921
 30
0.0
 11
241.2093594447781
 21
514.5679289798921
 31
0.0
  0
LINE
  5
466B
330
18
100
AcDbEntity
  8
DRAW2
100
AcDbLine
 10
243.9594155447784
 20
557.6929289798921
 30
0.0
 11
237.0312455447784
 21
553.6929289798921
 31
0.0
  0
LINE
  5
466C
330
18
100
AcDbEntity
  8
DRAW2
100
AcDbLine
 10
225.9376661309307
 20
541.1929589798923
 30
0.0
 11
249.9594155447786
 21
541.1929589798922
 31
0.0
  0
LINE
  5
466D
330
18
100
AcDbEntity
  8
DRAW2
100
AcDbLine
 10
225.9376648253286
 20
543.1929889798921
 30
0.0
 11
249.9594155447786
 21
543.1929889798921
 31
0.0
  0
ARC
  5
466E
330
18
100
AcDbEntity
  8
DRAW2
100
AcDbCircle
 10
265.209415544779
 20
668.1929589798937
 30
0.0
 40
110.0000000000015
100
AcDbArc
 50
239.6124079382991
 51
267.1779190862451
  0
LINE
  5
4671
330
18
100
AcDbEntity
  8
DRAW2
100
AcDbLine
 10
243.9594155447784
 20
526.6929589798922
 30
0.0
 11
237.0311855447784
 21
530.6929589798922
 31
0.0
  0
ARC
  5
4672
330
18
100
AcDbEntity
  8
DRAW2
100
AcDbCircle
 10
265.2094155447788
 20
416.1929589798906
 30
0.0
 40
110.0000000000015
100
AcDbArc
 50
92.82208091375478
 51
120.3875920617008
  0
LINE
  5
4673
330
18
100
AcDbEntity
  8
DRAW2
100
AcDbLine
 10
237.0311855447784
 20
553.6929589798923
 30
0.0
 11
237.0311855447784
 21
543.1929889798921
 31
0.0
  0
ARC
  5
4674
330
18
100
AcDbEntity
  8
DRAW2
100
AcDbCircle
 10
202.9594155447786
 20
542.1929589798923
 30
0.0
 40
23.0
100
AcDbArc
 50
325.9442022574284
 51
34.05579774257155
  0
ARC
  5
4675
330
18
100
AcDbEntity
  8
DRAW2
100
AcDbCircle
 10
202.9594155447786
 20
542.1929589798923
 30
0.0
 40
19.0
100
AcDbArc
 50
314.722246024788
 51
45.27775397521195
  0
LINE
  5
4676
330
18
100
AcDbEntity
  8
DRAW2
100
AcDbLine
 10
203.9594155447784
 20
555.6929589798921
 30
0.0
 11
203.9594155447784
 21
543.1929589798922
 31
0.0
  0
LINE
  5
4677
330
18
100
AcDbEntity
  8
DRAW2
100
AcDbLine
 10
201.9594155447784
 20
555.6929589798921
 30
0.0
 11
201.9594155447784
 21
543.1929589798922
 31
0.0
  0
ARC
  5
4678
330
18
100
AcDbEntity
  8
DRAW2
100
AcDbCircle
 10
202.9594155447786
 20
542.1929589798923
 30
0.0
 40
19.0
100
AcDbArc
 50
134.722246024788
 51
225.2777539752119
  0
ARC
  5
4679
330
18
100
AcDbEntity
  8
DRAW2
100
AcDbCircle
 10
202.9594155447786
 20
542.1929589798923
 30
0.0
 40
23.0
100
AcDbArc
 50
145.9442022574284
 51
214.0557977425715
  0
LINE
  5
467B
330
18
100
AcDbEntity
  8
DRAW2
100
AcDbLine
 10
189.5896735876576
 20
528.6929589798923
 30
0.0
 11
216.3291575018994
 21
528.6929589798922
 31
0.0
  0
LINE
  5
467C
330
18
100
AcDbEntity
  8
DRAW2
100
AcDbLine
 10
203.9594155447784
 20
543.1929589798922
 30
0.0
 11
221.9330815057889
 21
543.1929589798922
 31
0.0
  0
LINE
  5
467D
330
18
100
AcDbEntity
  8
DRAW2
100
AcDbLine
 10
203.9594155447784
 20
541.1929589798923
 30
0.0
 11
221.9330815057889
 21
541.1929589798922
 31
0.0
  0
LINE
  5
467E
330
18
100
AcDbEntity
  8
DRAW2
100
AcDbLine
 10
206.1622128447785
 20
523.6929589798921
 30
0.0
 11
209.9149897447785
 21
517.1929583497655
 31
0.0
  0
ARC
  5
467F
330
18
100
AcDbEntity
  8
DRAW2
100
AcDbCircle
 10
202.9594155447786
 20
517.1929589798923
 30
0.0
 40
9.0
100
AcDbArc
 50
214.0557977425715
 51
325.9442022574284
  0
CIRCLE
  5
4680
330
18
100
AcDbEntity
  8
DRAW2
100
AcDbCircle
 10
202.4094355447786
 20
517.1929589798923
 30
0.0
 40
6.500003299999998
  0
LINE
  5
4681
330
18
100
AcDbEntity
  8
DRAW2
100
AcDbLine
 10
209.9149864447785
 20
517.1929610872077
 30
0.0
 11
206.1622093447785
 21
510.6929603798922
 31
0.0
  0
CIRCLE
  5
4682
330
18
100
AcDbEntity
  8
DRAW2
100
AcDbCircle
 10
202.4094355447786
 20
517.1929589798923
 30
0.0
 40
7.5
  0
CIRCLE
  5
4683
330
18
100
AcDbEntity
  8
DRAW2
100
AcDbCircle
 10
202.4094355447786
 20
517.1929589798923
 30
0.0
 40
8.0
  0
LINE
  5
4685
330
18
100
AcDbEntity
  8
DRAW2
100
AcDbLine
 10
198.6566539447785
 20
523.6929618798922
 30
0.0
 11
194.9038770447785
 21
517.1929614025296
 31
0.0
  0
CIRCLE
  5
4686
330
18
100
AcDbEntity
  8
DRAW3
100
AcDbCircle
 10
202.4094355447786
 20
517.1929589798923
 30
0.0
 40
4.0
  0
LINE
  5
4687
330
18
100
AcDbEntity
  8
DRAW2
100
AcDbLine
 10
195.5029820809837
 20
512.1529589798922
 30
0.0
 11
183.9040855817472
 21
529.3129589798922
 31
0.0
  0
CIRCLE
  5
4688
330
18
100
AcDbEntity
  8
DRAW2
100
AcDbCircle
 10
202.4094355447786
 20
517.1929589798923
 30
0.0
 40
3.3235002
  0
LINE
  5
4689
330
18
100
AcDbEntity
  8
DRAW2
100
AcDbLine
 10
198.6566729447785
 20
510.6929446798922
 30
0.0
 11
206.1622271447785
 21
510.6929446798922
 31
0.0
  0
LINE
  5
468A
330
18
100
AcDbEntity
  8
DRAW2
100
AcDbLine
 10
194.9038813447785
 20
517.1929596100186
 30
0.0
 11
198.6566582447785
 21
510.6929589798921
 31
0.0
  0
LINE
  5
468B
330
18
100
AcDbEntity
  8
DRAW2
100
AcDbLine
 10
183.9857495837683
 20
543.1929589798922
 30
0.0
 11
201.9594155447784
 21
543.1929589798922
 31
0.0
  0
LINE
  5
468C
330
18
100
AcDbEntity
  8
DRAW2
100
AcDbLine
 10
183.9857495837683
 20
541.1929589798923
 30
0.0
 11
201.9594155447784
 21
541.1929589798923
 31
0.0
  0
ARC
  5
468D
330
18
100
AcDbEntity
  8
DRAW2
100
AcDbCircle
 10
179.7803989764327
 20
532.8263592273486
 30
0.0
 40
2.0
100
AcDbArc
 50
22.00354690061197
 51
90.0
  0
LINE
  5
468E
330
18
100
AcDbEntity
  8
DRAW2
100
AcDbLine
 10
203.9594155447784
 20
541.1929589798923
 30
0.0
 11
203.9594155447784
 21
528.6929589798923
 31
0.0
  0
LINE
  5
468F
330
18
100
AcDbEntity
  8
DRAW2
100
AcDbLine
 10
201.9594155447784
 20
541.1929589798923
 30
0.0
 11
201.9594155447784
 21
528.6929589798923
 31
0.0
  0
ARC
  5
4690
330
18
100
AcDbEntity
  8
DRAW2
100
AcDbCircle
 10
201.9594155447784
 20
542.1929589798923
 30
0.0
 40
1.0
100
AcDbArc
 50
270.0
 51
90.0
  0
ARC
  5
4691
330
18
100
AcDbEntity
  8
DRAW2
100
AcDbCircle
 10
203.9594155447784
 20
542.1929589798923
 30
0.0
 40
1.0
100
AcDbArc
 50
90.0
 51
270.0
  0
LINE
  5
4692
330
18
100
AcDbEntity
  8
DRAW2
100
AcDbLine
 10
198.6566667447785
 20
523.6929465798921
 30
0.0
 11
206.1622209447785
 21
523.6929465798921
 31
0.0
  0
LINE
  5
4693
330
18
100
AcDbEntity
  8
DRAW2
100
AcDbLine
 10
210.4158490085735
 20
512.1529589798922
 30
0.0
 11
222.0147455078099
 21
529.3129589798922
 31
0.0
  0
LINE
  5
4694
330
18
100
AcDbEntity
  8
DRAW2
100
AcDbLine
 10
231.8094255447785
 20
518.4929467798919
 30
0.0
 11
229.8094255447785
 21
518.4929467798919
 31
0.0
  0
LINE
  5
4695
330
18
100
AcDbEntity
  8
DRAW2
100
AcDbLine
 10
238.3094254447783
 20
517.6929589798921
 30
0.0
 11
231.8094255447785
 21
517.6929589798921
 31
0.0
  0
LINE
  5
4696
330
18
100
AcDbEntity
  8
DRAW2
100
AcDbLine
 10
237.7288896447783
 20
511.1929589798921
 30
0.0
 11
231.8094255447785
 21
511.1929589798921
 31
0.0
  0
LINE
  5
4697
330
18
100
AcDbEntity
  8
DRAW2
100
AcDbLine
 10
231.8094255447785
 20
503.892971179892
 30
0.0
 11
229.8094255447785
 21
503.892971179892
 31
0.0
  0
LINE
  5
4698
330
18
100
AcDbEntity
  8
DRAW2
100
AcDbLine
 10
231.8094184447783
 20
512.058957369892
 30
0.0
 11
229.8094040447785
 21
510.9042483898921
 31
0.0
  0
LINE
  5
4699
330
18
100
AcDbEntity
  8
DRAW2
100
AcDbLine
 10
231.8093940447783
 20
511.4816070798922
 30
0.0
 11
229.8094061447783
 21
510.3269133298921
 31
0.0
  0
LINE
  5
469A
330
18
100
AcDbEntity
  8
DRAW2
100
AcDbLine
 10
238.3094254447783
 20
504.692958979892
 30
0.0
 11
231.8094255447785
 21
504.692958979892
 31
0.0
  0
ARC
  5
469B
330
18
100
AcDbEntity
  8
DRAW2
100
AcDbCircle
 10
228.9219591147783
 20
507.9429589798921
 30
0.0
 40
9.3874664
100
AcDbArc
 50
339.7445299999972
 51
20.25544900000227
  0
ARC
  5
469C
330
18
100
AcDbEntity
  8
DRAW2
100
AcDbCircle
 10
228.9219591147783
 20
514.442958979892
 30
0.0
 40
9.3874664
100
AcDbArc
 50
339.7445299999972
 51
20.25544900000227
  0
LINE
  5
469D
330
18
100
AcDbEntity
  8
DRAW2
100
AcDbLine
 10
238.3094254447783
 20
504.692958979892
 30
0.0
 11
238.3094254447783
 21
517.6929589798921
 31
0.0
  0
LINE
  5
469E
330
18
100
AcDbEntity
  8
DRAW2
100
AcDbLine
 10
229.8094255447785
 20
503.4429589798921
 30
0.0
 11
229.8094255447785
 21
518.942958979892
 31
0.0
  0
LINE
  5
469F
330
18
100
AcDbEntity
  8
DRAW2
100
AcDbLine
 10
231.8094255447785
 20
503.892971179892
 30
0.0
 11
231.8094255447785
 21
518.4929467798919
 31
0.0
  0
LINE
  5
46A0
330
18
100
AcDbEntity
  8
DRAW2
100
AcDbLine
 10
229.8094255447785
 20
518.942958979892
 30
0.0
 11
228.2094194447783
 21
518.942958979892
 31
0.0
  0
LINE
  5
46A1
330
18
100
AcDbEntity
  8
DRAW2
100
AcDbLine
 10
229.8094255447785
 20
503.4429589798921
 30
0.0
 11
228.2094194447783
 21
503.4429589798921
 31
0.0
  0
LINE
  5
46A2
330
18
100
AcDbEntity
  8
DRAW2
100
AcDbLine
 10
222.8780171522986
 20
530.6929889798921
 30
0.0
 11
237.0311855447784
 21
530.6929889798921
 31
0.0
  0
LINE
  5
46A3
330
18
100
AcDbEntity
  8
DRAW2
100
AcDbLine
 10
237.0311855447784
 20
541.1929589798923
 30
0.0
 11
237.0311855447784
 21
530.6929889798921
 31
0.0
  0
ARC
  5
46A4
330
18
100
AcDbEntity
  8
DRAW2
100
AcDbCircle
 10
202.9594155447786
 20
567.1929589798923
 30
0.0
 40
9.0
100
AcDbArc
 50
34.05579774257155
 51
145.9442022574284
  0
LINE
  5
46A5
330
18
100
AcDbEntity
  8
DRAW2
100
AcDbLine
 10
209.9149864447785
 20
567.1929610872077
 30
0.0
 11
206.1622093447785
 21
560.6929603798922
 31
0.0
  0
CIRCLE
  5
46A6
330
18
100
AcDbEntity
  8
DRAW2
100
AcDbCircle
 10
202.4094355447786
 20
567.1929589798923
 30
0.0
 40
7.5
  0
CIRCLE
  5
46A7
330
18
100
AcDbEntity
  8
DRAW2
100
AcDbCircle
 10
202.4094355447786
 20
567.1929589798923
 30
0.0
 40
6.500003299999998
  0
LINE
  5
46A8
330
18
100
AcDbEntity
  8
DRAW2
100
AcDbLine
 10
206.1622128447785
 20
573.6929589798921
 30
0.0
 11
209.9149897447785
 21
567.1929583497655
 31
0.0
  0
CIRCLE
  5
46A9
330
18
100
AcDbEntity
  8
DRAW2
100
AcDbCircle
 10
202.4094355447786
 20
567.1929589798923
 30
0.0
 40
8.0
  0
LINE
  5
46AB
330
18
100
AcDbEntity
  8
DRAW2
100
AcDbLine
 10
189.5896735876576
 20
555.6929589798922
 30
0.0
 11
216.3291575018996
 21
555.6929589798921
 31
0.0
  0
LINE
  5
46AC
330
18
100
AcDbEntity
  8
DRAW2
100
AcDbLine
 10
198.6566539447785
 20
573.6929618798922
 30
0.0
 11
194.9038770447785
 21
567.1929614025296
 31
0.0
  0
LINE
  5
46AD
330
18
100
AcDbEntity
  8
DRAW2
100
AcDbLine
 10
195.5029820809837
 20
572.2329589798922
 30
0.0
 11
183.9040855817472
 21
555.0729589798922
 31
0.0
  0
ARC
  5
46AE
330
18
100
AcDbEntity
  8
DRAW2
100
AcDbCircle
 10
179.7803989764327
 20
551.5595587324358
 30
0.0
 40
2.0
100
AcDbArc
 50
270.0
 51
337.996453099388
  0
LINE
  5
46AF
330
18
100
AcDbEntity
  8
DRAW2
100
AcDbLine
 10
194.9038813447785
 20
567.1929596100186
 30
0.0
 11
198.6566582447785
 21
560.6929589798921
 31
0.0
  0
CIRCLE
  5
46B0
330
18
100
AcDbEntity
  8
DRAW2
100
AcDbCircle
 10
202.4094355447786
 20
567.1929589798923
 30
0.0
 40
3.3235002
  0
LINE
  5
46B1
330
18
100
AcDbEntity
  8
DRAW2
100
AcDbLine
 10
198.6566729447785
 20
560.6929446798922
 30
0.0
 11
206.1622271447785
 21
560.6929446798922
 31
0.0
  0
CIRCLE
  5
46B2
330
18
100
AcDbEntity
  8
DRAW3
100
AcDbCircle
 10
202.4094355447786
 20
567.1929589798923
 30
0.0
 40
4.0
  0
LINE
  5
46B3
330
18
100
AcDbEntity
  8
DRAW2
100
AcDbLine
 10
198.6566667447785
 20
573.6929465798921
 30
0.0
 11
206.1622209447785
 21
573.6929465798921
 31
0.0
  0
LINE
  5
46B4
330
18
100
AcDbEntity
  8
DRAW2
100
AcDbLine
 10
231.8094255447785
 20
580.492946779892
 30
0.0
 11
231.8094255447785
 21
565.8929711798921
 31
0.0
  0
LINE
  5
46B5
330
18
100
AcDbEntity
  8
DRAW2
100
AcDbLine
 10
238.3094254447783
 20
579.6929589798922
 30
0.0
 11
238.3094254447783
 21
566.6929589798922
 31
0.0
  0
LINE
  5
46B6
330
18
100
AcDbEntity
  8
DRAW2
100
AcDbLine
 10
229.8094255447785
 20
580.9429589798922
 30
0.0
 11
229.8094255447785
 21
565.4429589798922
 31
0.0
  0
ARC
  5
46B7
330
18
100
AcDbEntity
  8
DRAW2
100
AcDbCircle
 10
228.9219591147783
 20
569.9429589798922
 30
0.0
 40
9.3874664
100
AcDbArc
 50
339.7445509999977
 51
20.25547000000273
  0
LINE
  5
46B8
330
18
100
AcDbEntity
  8
DRAW2
100
AcDbLine
 10
210.4158490085735
 20
572.2329589798922
 30
0.0
 11
222.0147455078099
 21
555.0729589798922
 31
0.0
  0
LINE
  5
46B9
330
18
100
AcDbEntity
  8
DRAW2
100
AcDbLine
 10
222.8779998318206
 20
553.6929589798923
 30
0.0
 11
237.0311855447784
 21
553.6929589798923
 31
0.0
  0
LINE
  5
46BA
330
18
100
AcDbEntity
  8
DRAW2
100
AcDbLine
 10
231.8094255447785
 20
565.8929711798921
 30
0.0
 11
229.8094255447785
 21
565.8929711798921
 31
0.0
  0
LINE
  5
46BB
330
18
100
AcDbEntity
  8
DRAW2
100
AcDbLine
 10
238.3094254447783
 20
566.6929589798922
 30
0.0
 11
231.8094255447785
 21
566.6929589798922
 31
0.0
  0
LINE
  5
46BC
330
18
100
AcDbEntity
  8
DRAW2
100
AcDbLine
 10
229.8094255447785
 20
565.4429589798922
 30
0.0
 11
228.2094194447783
 21
565.4429589798922
 31
0.0
  0
LINE
  5
46BD
330
18
100
AcDbEntity
  8
DRAW2
100
AcDbLine
 10
229.8094056447788
 20
596.4429589798919
 30
0.0
 11
228.2093995447786
 21
596.4429589798919
 31
0.0
  0
LINE
  5
46BE
330
18
100
AcDbEntity
  8
DRAW2
100
AcDbLine
 10
231.8093940447783
 20
573.481607079892
 30
0.0
 11
229.8094061447783
 21
572.3269133298921
 31
0.0
  0
LINE
  5
46BF
330
18
100
AcDbEntity
  8
DRAW2
100
AcDbLine
 10
231.8094184447783
 20
574.058957369892
 30
0.0
 11
229.8094040447785
 21
572.9042483898921
 31
0.0
  0
LINE
  5
46C0
330
18
100
AcDbEntity
  8
DRAW2
100
AcDbLine
 10
237.7288896447783
 20
573.192958979892
 30
0.0
 11
231.8094255447785
 21
573.192958979892
 31
0.0
  0
LINE
  5
46C1
330
18
100
AcDbEntity
  8
DRAW2
100
AcDbLine
 10
231.8094255447785
 20
580.492946779892
 30
0.0
 11
229.8094255447785
 21
580.492946779892
 31
0.0
  0
ARC
  5
46C2
330
18
100
AcDbEntity
  8
DRAW2
100
AcDbCircle
 10
228.9219591147783
 20
576.4429589798921
 30
0.0
 40
9.3874664
100
AcDbArc
 50
339.7445509999977
 51
20.25547000000273
  0
LINE
  5
46C3
330
18
100
AcDbEntity
  8
DRAW2
100
AcDbLine
 10
238.3094254447783
 20
579.6929589798922
 30
0.0
 11
231.8094255447785
 21
579.6929589798922
 31
0.0
  0
LINE
  5
46C4
330
18
100
AcDbEntity
  8
DRAW2
100
AcDbLine
 10
229.8094255447785
 20
580.9429589798922
 30
0.0
 11
228.2094194447783
 21
580.9429589798922
 31
0.0
  0
LINE
  5
46C5
330
18
100
AcDbEntity
  8
DRAW2
100
AcDbLine
 10
268.9594155447784
 20
556.6113589798922
 30
0.0
 11
268.9594155447784
 21
527.7745589798922
 31
0.0
  0
LINE
  5
46C6
330
18
100
AcDbEntity
  8
DRAW2
100
AcDbLine
 10
243.9594155447784
 20
557.6929589798923
 30
0.0
 11
243.9594155447784
 21
543.1929889798921
 31
0.0
  0
LINE
  5
46C7
330
18
100
AcDbEntity
  8
DRAW2
100
AcDbLine
 10
241.2092994447783
 20
507.817958979892
 30
0.0
 11
241.2092994447783
 21
514.5679589798922
 31
0.0
  0
LINE
  5
46C8
330
18
100
AcDbEntity
  8
DRAW2
100
AcDbLine
 10
240.5842994447783
 20
515.192988979892
 30
0.0
 11
240.5842994447783
 21
507.1929889798921
 31
0.0
  0
LINE
  5
46C9
330
18
100
AcDbEntity
  8
DRAW2
100
AcDbLine
 10
241.2092994447783
 20
507.817928979892
 30
0.0
 11
240.5843594447783
 21
507.1929289798921
 31
0.0
  0
LINE
  5
46CA
330
18
100
AcDbEntity
  8
DRAW2
100
AcDbLine
 10
241.2093594447783
 20
514.567928979892
 30
0.0
 11
240.5842994447783
 21
515.192988979892
 31
0.0
  0
LINE
  5
46CB
330
18
100
AcDbEntity
  8
DRAW2
100
AcDbLine
 10
243.9594155447784
 20
526.6929889798922
 30
0.0
 11
266.8794555447786
 21
525.7761789798921
 31
0.0
  0
LINE
  5
46CC
330
18
100
AcDbEntity
  8
DRAW2
100
AcDbLine
 10
243.9594155447784
 20
541.1929589798923
 30
0.0
 11
243.9594155447784
 21
526.6929589798922
 31
0.0
  0
ARC
  5
46CD
330
18
100
AcDbEntity
  8
DRAW2
100
AcDbCircle
 10
266.9594155447784
 20
527.7745589798922
 30
0.0
 40
2.0
100
AcDbArc
 50
267.7093900000012
 51
0.0
  0
LINE
  5
46CE
330
18
100
AcDbEntity
  8
DRAW2
100
AcDbLine
 10
241.2092795447786
 20
569.8179589798922
 30
0.0
 11
241.2092795447786
 21
576.5679589798923
 31
0.0
  0
LINE
  5
46CF
330
18
100
AcDbEntity
  8
DRAW2
100
AcDbLine
 10
240.5842795447786
 20
577.1929889798922
 30
0.0
 11
240.5842795447786
 21
569.1929889798922
 31
0.0
  0
LINE
  5
46D0
330
18
100
AcDbEntity
  8
DRAW2
100
AcDbLine
 10
266.8794555447786
 20
558.6097989798921
 30
0.0
 11
243.9593555447786
 21
557.6929889798922
 31
0.0
  0
LINE
  5
46D1
330
18
100
AcDbEntity
  8
DRAW2
100
AcDbLine
 10
241.2092795447786
 20
569.8179289798921
 30
0.0
 11
240.5843395447786
 21
569.1929289798922
 31
0.0
  0
ARC
  5
46D2
330
18
100
AcDbEntity
  8
DRAW2
100
AcDbCircle
 10
266.9594155447784
 20
556.6113589798922
 30
0.0
 40
2.0
100
AcDbArc
 50
0.0
 51
92.29060899999952
  0
LINE
  5
46D3
330
18
100
AcDbEntity
  8
DRAW2
100
AcDbLine
 10
241.2093395447786
 20
576.5679289798921
 30
0.0
 11
240.5842795447786
 21
577.1929889798922
 31
0.0
  0
LINE
  5
46D4
330
18
100
AcDbEntity
  8
DRAW2
100
AcDbLine
 10
177.2094155447785
 20
613.1929589798922
 30
0.0
 11
153.5094055447784
 21
613.1929589798922
 31
0.0
  0
LINE
  5
46D5
330
18
100
AcDbEntity
  8
DRAW2
100
AcDbLine
 10
113.5094055447784
 20
613.1929589798922
 30
0.0
 11
107.4094355447787
 21
613.1929589798922
 31
0.0
  0
LINE
  5
46D6
330
18
100
AcDbEntity
  8
DRAW2
100
AcDbLine
 10
104.7094255447783
 20
613.1929589798922
 30
0.0
 11
57.70942554477835
 21
613.1929589798922
 31
0.0
  0
ARC
  5
46D7
330
18
100
AcDbEntity
  8
DRAW2
100
AcDbCircle
 10
81.70941554477824
 20
607.1929889798919
 30
0.0
 40
9.0
100
AcDbArc
 50
41.8100586617736
 51
138.1899413382263
  0
LINE
  5
46D8
330
18
100
AcDbEntity
  8
DRAW2
100
AcDbLine
 10
67.70941554477852
 20
632.1929889798919
 30
0.0
 11
95.70941554477839
 21
632.1929889798921
 31
0.0
  0
LINE
  5
46D9
330
18
100
AcDbEntity
  8
DRAW2
100
AcDbLine
 10
58.70941554477818
 20
623.192988979892
 30
0.0
 11
58.70941554477832
 21
613.1929589798922
 31
0.0
  0
ARC
  5
46DA
330
18
100
AcDbEntity
  8
DRAW2
100
AcDbCircle
 10
57.70942554477835
 20
612.6929589798922
 30
0.0
 40
0.5
100
AcDbArc
 50
90.0
 51
179.9999999999934
  0
LINE
  5
46DB
330
18
100
AcDbEntity
  8
DRAW2
100
AcDbLine
 10
54.95941554477855
 20
611.9429589798921
 30
0.0
 11
57.2094216447785
 21
611.9429589798921
 31
0.0
  0
ARC
  5
46DC
330
18
100
AcDbEntity
  8
DRAW2
100
AcDbCircle
 10
58.84688187477861
 20
607.4429589798919
 30
0.0
 40
9.3874664
100
AcDbArc
 50
159.7445509999977
 51
200.2554700000027
  0
LINE
  5
46DD
330
18
100
AcDbEntity
  8
DRAW2
100
AcDbLine
 10
49.45941554477855
 20
610.692958979892
 30
0.0
 11
54.95941554477855
 21
610.692958979892
 31
0.0
  0
LINE
  5
46DE
330
18
100
AcDbEntity
  8
DRAW2
100
AcDbLine
 10
50.03995134477857
 20
604.1929589798919
 30
0.0
 11
54.95941554477855
 21
604.1929589798919
 31
0.0
  0
LINE
  5
46DF
330
18
100
AcDbEntity
  8
DRAW2
100
AcDbLine
 10
49.45941554477855
 20
597.692958979892
 30
0.0
 11
54.95941554477855
 21
597.692958979892
 31
0.0
  0
ARC
  5
46E0
330
18
100
AcDbEntity
  8
DRAW2
100
AcDbCircle
 10
58.84688187477861
 20
600.9429589798919
 30
0.0
 40
9.3874664
100
AcDbArc
 50
159.7445509999977
 51
200.2554700000027
  0
LINE
  5
46E1
330
18
100
AcDbEntity
  8
DRAW2
100
AcDbLine
 10
49.45941554477855
 20
597.692958979892
 30
0.0
 11
49.45941554477855
 21
610.692958979892
 31
0.0
  0
ARC
  5
46E2
330
18
100
AcDbEntity
  8
DRAW2
100
AcDbCircle
 10
67.70941554477852
 20
623.192988979892
 30
0.0
 40
9.0
100
AcDbArc
 50
90.0
 51
180.0
  0
LINE
  5
46E4
330
18
100
AcDbEntity
  8
DRAW2
100
AcDbLine
 10
104.7094155447785
 20
613.1929589798922
 30
0.0
 11
104.7094155447785
 21
623.192988979892
 31
0.0
  0
ARC
  5
46E5
330
18
100
AcDbEntity
  8
DRAW2
100
AcDbCircle
 10
104.7094255447783
 20
612.6929589798923
 30
0.0
 40
0.5
100
AcDbArc
 50
0.0000000000065138
 51
90.0
  0
ARC
  5
46E6
330
18
100
AcDbEntity
  8
DRAW2
100
AcDbCircle
 10
107.5093455447786
 20
611.1929589798921
 30
0.0
 40
2.0
100
AcDbArc
 50
90.00000000000081
 51
180.0
  0
ARC
  5
46E7
330
18
100
AcDbEntity
  8
DRAW2
100
AcDbCircle
 10
95.70941554477839
 20
623.192988979892
 30
0.0
 40
9.0
100
AcDbArc
 50
0.0
 51
90.0
  0
LINE
  5
46E8
330
18
100
AcDbEntity
  8
DRAW2
100
AcDbLine
 10
115.5094055447784
 20
616.1929789798923
 30
0.0
 11
151.5094055447785
 21
616.1929789798923
 31
0.0
  0
LINE
  5
46E9
330
18
100
AcDbEntity
  8
DRAW2
100
AcDbLine
 10
137.5093355447784
 20
616.1929789798923
 30
0.0
 11
137.5093355447784
 21
623.6929789798923
 31
0.0
  0
LINE
  5
46EA
330
18
100
AcDbEntity
  8
DRAW2
100
AcDbLine
 10
129.5093755447785
 20
616.1929789798923
 30
0.0
 11
129.5093755447785
 21
623.6929789798923
 31
0.0
  0
LINE
  5
46EB
330
18
100
AcDbEntity
  8
DRAW2
100
AcDbLine
 10
113.5094055447784
 20
607.4386184523437
 30
0.0
 11
113.5094055447784
 21
614.1929789798925
 31
0.0
  0
ARC
  5
46EC
330
18
100
AcDbEntity
  8
DRAW2
100
AcDbCircle
 10
115.5094055447784
 20
614.1929789798925
 30
0.0
 40
2.0
100
AcDbArc
 50
90.0
 51
180.0
  0
LINE
  5
46ED
330
18
100
AcDbEntity
  8
DRAW2
100
AcDbLine
 10
137.5094355447784
 20
623.6928989798922
 30
0.0
 11
137.0094055447785
 21
624.1929189798923
 31
0.0
  0
LINE
  5
46EE
330
18
100
AcDbEntity
  8
DRAW2
100
AcDbLine
 10
130.0095255447785
 20
624.1929289798922
 30
0.0
 11
129.5095255447785
 21
623.6929289798922
 31
0.0
  0
LINE
  5
46EF
330
18
100
AcDbEntity
  8
DRAW2
100
AcDbLine
 10
137.5094055447785
 20
623.6929789798923
 30
0.0
 11
129.5094055447785
 21
623.6929789798923
 31
0.0
  0
LINE
  5
46F0
330
18
100
AcDbEntity
  8
DRAW2
100
AcDbLine
 10
137.0094355447784
 20
624.1929789798923
 30
0.0
 11
130.0094355447784
 21
624.1929789798923
 31
0.0
  0
LINE
  5
46F1
330
18
100
AcDbEntity
  8
DRAW2
100
AcDbLine
 10
153.5094055447785
 20
607.4386184523437
 30
0.0
 11
153.5094055447785
 21
614.1929789798925
 31
0.0
  0
ARC
  5
46F2
330
18
100
AcDbEntity
  8
DRAW2
100
AcDbCircle
 10
151.5094055447785
 20
614.1929789798925
 30
0.0
 40
2.0
100
AcDbArc
 50
0.0
 51
90.0
  0
LINE
  5
46F3
330
18
100
AcDbEntity
  8
DRAW2
100
AcDbLine
 10
238.3093695447786
 20
600.1929589798922
 30
0.0
 11
240.5843695418986
 21
600.1929589798922
 31
0.0
  0
LINE
  5
46F4
330
18
100
AcDbEntity
  8
DRAW3
100
AcDbLine
 10
238.3093695447786
 20
600.817928979892
 30
0.0
 11
241.2092795447787
 21
600.817928979892
 31
0.0
  0
LINE
  5
46F5
330
18
100
AcDbEntity
  8
DRAW2
100
AcDbLine
 10
238.3093695447786
 20
608.1929589798922
 30
0.0
 11
240.5843095447784
 21
608.1929589798922
 31
0.0
  0
LINE
  5
46F6
330
18
100
AcDbEntity
  8
DRAW3
100
AcDbLine
 10
238.3093695447786
 20
607.567928979892
 30
0.0
 11
241.2093395447784
 21
607.567928979892
 31
0.0
  0
ARC
  5
46F8
330
18
100
AcDbEntity
  8
DRAW2
100
AcDbCircle
 10
203.459411127065
 20
607.1929889798919
 30
0.0
 40
9.0
100
AcDbArc
 50
41.8100586617736
 51
138.1899413382263
  0
LINE
  5
46F9
330
18
100
AcDbEntity
  8
DRAW2
100
AcDbLine
 10
180.7094455447785
 20
613.1929589798922
 30
0.0
 11
227.7094455447785
 21
613.1929589798922
 31
0.0
  0
LINE
  5
46FA
330
18
100
AcDbEntity
  8
DRAW2
100
AcDbLine
 10
189.4594111270655
 20
632.1929889798919
 30
0.0
 11
217.459411127065
 21
632.1929889798919
 31
0.0
  0
LINE
  5
46FC
330
18
100
AcDbEntity
  8
DRAW2
100
AcDbLine
 10
180.4594111270651
 20
613.1929589798922
 30
0.0
 11
180.4594111270651
 21
623.192988979892
 31
0.0
  0
ARC
  5
46FD
330
18
100
AcDbEntity
  8
DRAW2
100
AcDbCircle
 10
180.7094455447785
 20
612.6929589798922
 30
0.0
 40
0.5
100
AcDbArc
 50
90.0
 51
179.9999999999934
  0
ARC
  5
46FE
330
18
100
AcDbEntity
  8
DRAW2
100
AcDbCircle
 10
177.2094155447785
 20
611.1929589798921
 30
0.0
 40
2.0
100
AcDbArc
 50
0.0
 51
90.0
  0
ARC
  5
46FF
330
18
100
AcDbEntity
  8
DRAW2
100
AcDbCircle
 10
189.4594111270655
 20
623.192988979892
 30
0.0
 40
9.0
100
AcDbArc
 50
90.0
 51
180.0
  0
LINE
  5
4700
330
18
100
AcDbEntity
  8
DRAW2
100
AcDbLine
 10
226.4594111270652
 20
613.1929589798922
 30
0.0
 11
226.459411127065
 21
623.1929889798919
 31
0.0
  0
LINE
  5
4701
330
18
100
AcDbEntity
  8
DRAW2
100
AcDbLine
 10
231.8093985447786
 20
605.0589573698919
 30
0.0
 11
229.8093841447788
 21
603.9042483898919
 31
0.0
  0
LINE
  5
4702
330
18
100
AcDbEntity
  8
DRAW2
100
AcDbLine
 10
231.8093741447786
 20
604.481607079892
 30
0.0
 11
229.8093862447786
 21
603.3269133298919
 31
0.0
  0
LINE
  5
4703
330
18
100
AcDbEntity
  8
DRAW2
100
AcDbLine
 10
231.8094056447788
 20
611.492946779892
 30
0.0
 11
229.8094056447788
 21
611.492946779892
 31
0.0
  0
LINE
  5
4704
330
18
100
AcDbEntity
  8
DRAW2
100
AcDbLine
 10
237.7288697447786
 20
604.1929589798919
 30
0.0
 11
231.8094056447788
 21
604.1929589798919
 31
0.0
  0
ARC
  5
4705
330
18
100
AcDbEntity
  8
DRAW2
100
AcDbCircle
 10
228.9219392147786
 20
607.4429589798921
 30
0.0
 40
9.3874664
100
AcDbArc
 50
339.7445509999977
 51
20.25547000000273
  0
LINE
  5
4706
330
18
100
AcDbEntity
  8
DRAW2
100
AcDbLine
 10
238.3094055447786
 20
610.6929589798919
 30
0.0
 11
231.8094056447788
 21
610.6929589798919
 31
0.0
  0
LINE
  5
4707
330
18
100
AcDbEntity
  8
DRAW2
100
AcDbLine
 10
231.8094056447788
 20
596.8929711798919
 30
0.0
 11
229.8094056447788
 21
596.8929711798919
 31
0.0
  0
LINE
  5
4708
330
18
100
AcDbEntity
  8
DRAW2
100
AcDbLine
 10
238.3094055447786
 20
597.692958979892
 30
0.0
 11
231.8094056447788
 21
597.692958979892
 31
0.0
  0
LINE
  5
4709
330
18
100
AcDbEntity
  8
DRAW2
100
AcDbLine
 10
238.3094055447786
 20
610.6929589798919
 30
0.0
 11
238.3094055447786
 21
597.692958979892
 31
0.0
  0
LINE
  5
470A
330
18
100
AcDbEntity
  8
DRAW2
100
AcDbLine
 10
231.8094056447788
 20
611.492946779892
 30
0.0
 11
231.8094056447788
 21
596.8929711798919
 31
0.0
  0
ARC
  5
470B
330
18
100
AcDbEntity
  8
DRAW2
100
AcDbCircle
 10
228.9219392147786
 20
600.9429589798919
 30
0.0
 40
9.3874664
100
AcDbArc
 50
339.7445509999977
 51
20.25547000000273
  0
ARC
  5
470C
330
18
100
AcDbEntity
  8
DRAW2
100
AcDbCircle
 10
227.7094455447785
 20
612.6929589798922
 30
0.0
 40
0.5
100
AcDbArc
 50
0.0000000000065138
 51
90.0
  0
LINE
  5
470D
330
18
100
AcDbEntity
  8
DRAW2
100
AcDbLine
 10
229.8094056447788
 20
611.9429589798919
 30
0.0
 11
228.2093995447786
 21
611.9429589798919
 31
0.0
  0
ARC
  5
470E
330
18
100
AcDbEntity
  8
DRAW2
100
AcDbCircle
 10
217.459411127065
 20
623.1929889798919
 30
0.0
 40
9.0
100
AcDbArc
 50
0.0
 51
90.0
  0
LINE
  5
470F
330
18
100
AcDbEntity
  8
DRAW2
100
AcDbLine
 10
241.2092795447786
 20
600.817958979892
 30
0.0
 11
241.2092795447786
 21
607.567958979892
 31
0.0
  0
LINE
  5
4710
330
18
100
AcDbEntity
  8
DRAW2
100
AcDbLine
 10
240.5842795447786
 20
608.192988979892
 30
0.0
 11
240.5842795447786
 21
600.192988979892
 31
0.0
  0
LINE
  5
4711
330
18
100
AcDbEntity
  8
DRAW2
100
AcDbLine
 10
241.2092795447786
 20
600.8179289798919
 30
0.0
 11
240.5843395447786
 21
600.192928979892
 31
0.0
  0
LINE
  5
4712
330
18
100
AcDbEntity
  8
DRAW2
100
AcDbLine
 10
241.2093395447786
 20
607.5679289798919
 30
0.0
 11
240.5842795447786
 21
608.192988979892
 31
0.0
  0
VIEWPORT
  5
37
330
15
100
AcDbEntity
 67
     1
  8
0
100
AcDbViewport
 10
296.9950122070312
 20
209.9950000476836
 30
0.0
 40
621.7706669655449
 41
423.142144638404
 68
     1
 69
     1
 12
296.9950122070312
 22
209.9950000476836
 13
0.0
 23
0.0
 14
10.0
 24
10.0
 15
10.0
 25
10.0
 16
0.0
 26
0.0
 36
1.0
 17
0.0
 27
0.0
 37
0.0
 42
50.0
 43
0.0
 44
0.0
 45
423.142144638404
 50
0.0
 51
0.0
 72
   100
 90
    32768
  1

281
     0
 71
     1
 74
     0
110
0.0
120
0.0
130
0.0
111
1.0
121
0.0
131
0.0
112
0.0
122
1.0
132
0.0
 79
     0
146
0.0
  0
ENDSEC
  0
SECTION
  2
OBJECTS
  0
DICTIONARY
  5
C
330
0
100
AcDbDictionary
281
     1
  3
ACAD_GROUP
350
D
  3
ACAD_IMAGE_VARS
350
7A9
  3
ACAD_LAYOUT
350
1AD
  3
ACAD_MLINESTYLE
350
1B
  3
ACAD_PLOTSETTINGS
350
1AE
  3
ACAD_PLOTSTYLENAME
350
1D4D
1001
ACAD
1000
TREAT_AS_HARD
1070
     0
  0
DICTIONARY
  5
1D45
330
18
100
AcDbDictionary
280
     1
281
     1
  3
ACAD_LAYOUTSELFREF
360
1D46
  0
DICTIONARY
  5
1D43
330
15
100
AcDbDictionary
280
     1
281
     1
  3
ACAD_LAYOUTSELFREF
360
1D44
  0
DICTIONARY
  5
D
102
{ACAD_REACTORS
330
C
102
}
330
C
100
AcDbDictionary
281
     1
  3
*A1
350
35C4
  3
*A2
350
36BE
1001
ACAD
1000
TREAT_AS_HARD
1070
     0
  0
RASTERVARIABLES
  5
7A9
102
{ACAD_REACTORS
330
C
102
}
330
C
100
AcDbRasterVariables
 90
        0
 70
     1
 71
     1
 72
     0
  0
DICTIONARY
  5
1AD
102
{ACAD_REACTORS
330
C
102
}
330
C
100
AcDbDictionary
281
     1
  3
Model
350
1D4F
  3
ﾚｲｱｳﾄ1
350
1D50
1001
ACAD
1000
TREAT_AS_HARD
1070
     0
  0
DICTIONARY
  5
1B
102
{ACAD_REACTORS
330
C
102
}
330
C
100
AcDbDictionary
281
     1
  3
STANDARD
350
1C
1001
ACAD
1000
TREAT_AS_HARD
1070
     0
  0
DICTIONARY
  5
1AE
102
{ACAD_REACTORS
330
C
102
}
330
C
100
AcDbDictionary
281
     1
  3
AdobePDF_A2
350
1D5A
  3
トレース紙Ａ１
350
7A0
  3
トレース紙Ａ２
350
79E
  3
トレース紙Ａ３
350
79C
  3
トレース紙Ａ４
350
794
  3
モデル
350
91D
  3
モデル_XL-5810
350
92C
  3
普通紙Ａ１からＡ３
350
705
  3
普通紙Ａ１からＡ３_XL-5810
350
A53
  3
普通紙Ａ２からＡ３
350
7A2
  3
普通紙Ａ２からＡ３_XL-5810
350
A52
  3
普通紙Ａ３
350
66A
  3
普通紙Ａ３_XL-5810
350
A51
  3
普通紙Ａ４
350
66B
  3
普通紙Ａ４_XL-5810
350
A50
1001
ACAD
1000
TREAT_AS_HARD
1070
     0
  0
ACDBDICTIONARYWDFLT
  5
1D4D
102
{ACAD_REACTORS
330
C
102
}
330
C
100
AcDbDictionary
281
     1
  3
Normal
350
1D4E
100
AcDbDictionaryWithDefault
340
1D4E
  0
XRECORD
  5
1D46
102
{ACAD_REACTORS
330
1D45
102
}
330
1D45
100
AcDbXrecord
280
     1
340
18
  0
XRECORD
  5
1D44
102
{ACAD_REACTORS
330
1D43
102
}
330
1D43
100
AcDbXrecord
280
     1
340
15
  0
GROUP
  5
35C4
102
{ACAD_REACTORS
330
D
102
}
330
D
100
AcDbGroup
300

 70
     1
 71
     1
  0
GROUP
  5
36BE
102
{ACAD_REACTORS
330
D
102
}
330
D
100
AcDbGroup
300

 70
     1
 71
     1
  0
LAYOUT
  5
1D4F
102
{ACAD_REACTORS
330
1AD
102
}
330
1AD
100
AcDbPlotSettings
  1

  2
Acrobat Distiller
  4

  6

 40
0.0
 41
0.0
 42
0.0
 43
0.0
 44
0.0
 45
0.0
 46
0.0
 47
0.0
 48
0.0
 49
0.0
140
0.0
141
0.0
142
1.0
143
1.0
 70
  1712
 72
     0
 73
     0
 74
     0
  7

 75
     0
147
1.0
148
0.0
149
0.0
100
AcDbLayout
  1
Model
 70
     1
 71
     0
 10
0.0
 20
0.0
 11
12.0
 21
9.0
 12
0.0
 22
0.0
 32
0.0
 14
0.0
 24
0.0
 34
0.0
 15
0.0
 25
0.0
 35
0.0
146
0.0
 13
0.0
 23
0.0
 33
0.0
 16
1.0
 26
0.0
 36
0.0
 17
0.0
 27
1.0
 37
0.0
 76
     0
330
18
  0
LAYOUT
  5
1D50
102
{ACAD_REACTORS
330
1AD
102
}
330
1AD
100
AcDbPlotSettings
  1
AdobePDF_A2
  2
Adobe PDF
  4
User66
  6
A1
 40
3.174999952316284
 41
3.174999952316284
 42
3.17498779296875
 43
3.17498779296875
 44
420.0
 45
594.0
 46
-3.169999999999999
 47
-3.169999999999999
 48
0.0
 49
0.0
140
594.0
141
420.0
142
1.0
143
1.0
 70
   692
 72
     1
 73
     1
 74
     4
  7
LineScale_10.ctb
 75
    16
147
1.0
148
0.0
149
0.0
100
AcDbLayout
  1
ﾚｲｱｳﾄ1
 70
     1
 71
     1
 10
-0.0049877929687501
 20
-0.0049999523162843
 11
593.9950122070312
 21
419.9950000476837
 12
0.0
 22
0.0
 32
0.0
 14
1.000000000000000E+20
 24
1.000000000000000E+20
 34
1.000000000000000E+20
 15
-1.000000000000000E+20
 25
-1.000000000000000E+20
 35
-1.000000000000000E+20
146
0.0
 13
0.0
 23
0.0
 33
0.0
 16
1.0
 26
0.0
 36
0.0
 17
0.0
 27
1.0
 37
0.0
 76
     0
330
15
331
37
  0
MLINESTYLE
  5
1C
102
{ACAD_REACTORS
330
1B
102
}
330
1B
100
AcDbMlineStyle
  2
STANDARD
 70
     0
  3

 62
   256
 51
90.0
 52
90.0
 71
     2
 49
0.5
 62
   256
  6
BYLAYER
 49
-0.5
 62
   256
  6
BYLAYER
  0
PLOTSETTINGS
  5
1D5A
102
{ACAD_REACTORS
330
1AE
102
}
330
1AE
100
AcDbPlotSettings
  1
AdobePDF_A2
  2
Adobe PDF
  4
User66
  6
A1
 40
3.174999952316284
 41
3.174999952316284
 42
3.17498779296875
 43
3.17498779296875
 44
420.0
 45
594.0
 46
-3.169999999999999
 47
-3.169999999999999
 48
0.0
 49
0.0
140
594.0
141
420.0
142
1.0
143
1.0
 70
   692
 72
     1
 73
     1
 74
     4
  7
LineScale_10.ctb
 75
    16
147
1.0
148
0.0
149
0.0
  0
PLOTSETTINGS
  5
7A0
102
{ACAD_REACTORS
330
1AE
102
}
330
1AE
100
AcDbPlotSettings
  1
トレース紙Ａ１
  2
SII LP-2150 (D-SCAN)
  4
User117
  6
A1
 40
3.174999952316283
 41
3.174999952316283
 42
3.17498779296875
 43
3.17498779296875
 44
840.9939575195313
 45
593.97900390625
 46
1.0
 47
-7.0
 48
0.0
 49
0.0
140
841.0
141
594.0
142
1.0
143
1.0
 70
   688
 72
     1
 73
     0
 74
     4
  7
LineScale_10.ctb
 75
    16
147
1.0
148
0.0
149
0.0
  0
PLOTSETTINGS
  5
79E
102
{ACAD_REACTORS
330
1AE
102
}
330
1AE
100
AcDbPlotSettings
  1
トレース紙Ａ２
  2
SII LP-2150 (D-SCAN)
  4
User118
  6
A1
 40
3.174999952316283
 41
3.174999952316283
 42
3.17498779296875
 43
3.17498779296875
 44
593.97900390625
 45
419.9889831542968
 46
0.5
 47
-6.5
 48
0.0
 49
0.0
140
594.0
141
420.0
142
1.0
143
1.0
 70
   688
 72
     1
 73
     0
 74
     4
  7
LineScale_10.ctb
 75
    16
147
1.0
148
0.0
149
0.0
  0
PLOTSETTINGS
  5
79C
102
{ACAD_REACTORS
330
1AE
102
}
330
1AE
100
AcDbPlotSettings
  1
トレース紙Ａ３
  2
SII LP-2150 (D-SCAN)
  4
User257
  6
A1
 40
3.174999952316283
 41
3.174999952316283
 42
3.17498779296875
 43
3.17498779296875
 44
419.9889831542968
 45
296.989501953125
 46
1.0
 47
-6.0
 48
0.0
 49
0.0
140
420.0
141
297.0
142
1.0
143
1.0
 70
   688
 72
     1
 73
     0
 74
     4
  7
LineScale_10.ctb
 75
    16
147
1.0
148
0.0
149
0.0
  0
PLOTSETTINGS
  5
794
102
{ACAD_REACTORS
330
1AE
102
}
330
1AE
100
AcDbPlotSettings
  1
トレース紙Ａ４
  2
SII LP-2150 (D-SCAN)
  4
User258
  6
A1
 40
3.174999952316283
 41
3.174999952316283
 42
3.17498779296875
 43
3.175003051757812
 44
296.989501953125
 45
209.9944915771484
 46
0.8
 47
-2.0
 48
0.0
 49
0.0
140
210.0
141
297.0
142
1.0
143
1.0
 70
   688
 72
     1
 73
     1
 74
     4
  7
LineScale_10.ctb
 75
    16
147
1.0
148
0.0
149
0.0
  0
PLOTSETTINGS
  5
91D
102
{ACAD_REACTORS
330
1AE
102
}
330
1AE
100
AcDbPlotSettings
  1
モデル
  2
FUJITSU XL-5800
  4
A4
  6

 40
5.873749732971191
 41
5.704405784606932
 42
5.873748779296875
 43
5.873748779296875
 44
210.0579986572264
 45
296.9259948730469
 46
-934.06
 47
-482.3299999999998
 48
0.0
 49
0.0
140
0.0
141
0.0
142
1.0
143
1.0
 70
  1716
 72
     1
 73
     0
 74
     0
  7
LineScale_10.ctb
 75
    16
147
1.0
148
1033.210332103321
149
625.0
  0
PLOTSETTINGS
  5
92C
102
{ACAD_REACTORS
330
1AE
102
}
330
1AE
100
AcDbPlotSettings
  1
モデル XL-5810
  2
\\PROLIANT1500\FUJITSU XL-5810
  4
A4
  6

 40
5.873749732971191
 41
5.704405784606932
 42
5.873748779296875
 43
5.873748779296875
 44
210.0579986572264
 45
296.9259948730469
 46
-588.8099999999998
 47
-890.54
 48
0.0
 49
0.0
140
0.0
141
0.0
142
1.0
143
1.0
 70
  1716
 72
     1
 73
     1
 74
     0
  7
LineScale_10.ctb
 75
    16
147
1.0
148
1033.210332103321
149
625.0
  0
PLOTSETTINGS
  5
705
102
{ACAD_REACTORS
330
1AE
102
}
330
1AE
100
AcDbPlotSettings
  1
普通紙Ａ１からＡ３
  2
FUJITSU XL-5800
  4
A3
  6
A1
 40
5.873749732971191
 41
5.873747825622557
 42
5.70440673828125
 43
5.873748779296875
 44
296.9259948730469
 45
420.1159973144531
 46
-4.129999999999999
 47
-7.07
 48
0.0
 49
0.0
140
841.0
141
594.0
142
1.0
143
2.0
 70
   688
 72
     1
 73
     1
 74
     4
  7
LineScale_05.ctb
 75
    17
147
0.5
148
0.0
149
0.0
  0
PLOTSETTINGS
  5
A53
102
{ACAD_REACTORS
330
1AE
102
}
330
1AE
100
AcDbPlotSettings
  1
普通紙Ａ１からＡ３ XL-5810
  2
\\PROLIANT1500\FUJITSU XL-5810
  4
A3
  6
A1
 40
5.873749732971191
 41
5.873747825622557
 42
5.70440673828125
 43
5.873748779296875
 44
296.9259948730469
 45
420.1159973144531
 46
-4.129999999999999
 47
-7.07
 48
0.0
 49
0.0
140
841.0
141
594.0
142
1.0
143
2.0
 70
   688
 72
     1
 73
     1
 74
     4
  7
LineScale_05.ctb
 75
    17
147
0.5
148
0.0
149
0.0
  0
PLOTSETTINGS
  5
7A2
102
{ACAD_REACTORS
330
1AE
102
}
330
1AE
100
AcDbPlotSettings
  1
普通紙Ａ２からＡ３
  2
FUJITSU XL-5800
  4
A3
  6
A1
 40
5.873749732971191
 41
5.873747825622557
 42
5.70440673828125
 43
5.873748779296875
 44
296.9259948730469
 45
420.1159973144531
 46
-5.0
 47
-7.0
 48
0.0
 49
0.0
140
594.0
141
420.0
142
0.7071066999999999
143
1.0
 70
   672
 72
     1
 73
     1
 74
     4
  7
LineScale_07.ctb
 75
     0
147
0.7071066999999999
148
0.0
149
0.0
  0
PLOTSETTINGS
  5
A52
102
{ACAD_REACTORS
330
1AE
102
}
330
1AE
100
AcDbPlotSettings
  1
普通紙Ａ２からＡ３ XL-5810
  2
\\PROLIANT1500\FUJITSU XL-5810
  4
A3
  6
A1
 40
5.873749732971191
 41
5.873747825622557
 42
5.70440673828125
 43
5.873748779296875
 44
296.9259948730469
 45
420.1159973144531
 46
-5.0
 47
-7.0
 48
0.0
 49
0.0
140
594.0
141
420.0
142
0.7071066999999999
143
1.0
 70
   672
 72
     1
 73
     1
 74
     4
  7
LineScale_07.ctb
 75
     0
147
0.7071066999999999
148
0.0
149
0.0
  0
PLOTSETTINGS
  5
66A
102
{ACAD_REACTORS
330
1AE
102
}
330
1AE
100
AcDbPlotSettings
  1
普通紙Ａ３
  2
FUJITSU XL-5800
  4
A3
  6
A1
 40
5.873749732971191
 41
5.873747825622557
 42
5.70440673828125
 43
5.873748779296875
 44
296.9259948730469
 45
420.1159973144531
 46
-3.83
 47
-6.82
 48
0.0
 49
0.0
140
420.0
141
297.0
142
1.0
143
1.0
 70
   688
 72
     1
 73
     1
 74
     4
  7
LineScale_10.ctb
 75
    16
147
1.0
148
0.0
149
0.0
  0
PLOTSETTINGS
  5
A51
102
{ACAD_REACTORS
330
1AE
102
}
330
1AE
100
AcDbPlotSettings
  1
普通紙Ａ３ XL-5810
  2
\\PROLIANT1500\FUJITSU XL-5810
  4
A3
  6
A1
 40
5.873749732971191
 41
5.873747825622557
 42
5.70440673828125
 43
5.873748779296875
 44
296.9259948730469
 45
420.1159973144531
 46
-3.83
 47
-6.82
 48
0.0
 49
0.0
140
420.0
141
297.0
142
1.0
143
1.0
 70
   688
 72
     1
 73
     1
 74
     4
  7
LineScale_10.ctb
 75
    16
147
1.0
148
0.0
149
0.0
  0
PLOTSETTINGS
  5
66B
102
{ACAD_REACTORS
330
1AE
102
}
330
1AE
100
AcDbPlotSettings
  1
普通紙Ａ４
  2
FUJITSU XL-5800
  4
A4
  6
A1
 40
5.873749732971191
 41
5.704405784606932
 42
5.873748779296875
 43
5.873748779296875
 44
210.0579986572264
 45
296.9259948730469
 46
-6.82
 47
-3.83
 48
0.0
 49
0.0
140
420.0
141
297.0
142
1.0
143
1.0
 70
   688
 72
     1
 73
     0
 74
     4
  7
LineScale_10.ctb
 75
    16
147
1.0
148
0.0
149
0.0
  0
PLOTSETTINGS
  5
A50
102
{ACAD_REACTORS
330
1AE
102
}
330
1AE
100
AcDbPlotSettings
  1
普通紙Ａ４ XL-5810
  2
\\PROLIANT1500\FUJITSU XL-5810
  4
A4
  6
A1
 40
5.873749732971191
 41
5.704405784606932
 42
5.873748779296875
 43
5.873748779296875
 44
210.0579986572264
 45
296.9259948730469
 46
-6.82
 47
-3.83
 48
0.0
 49
0.0
140
420.0
141
297.0
142
1.0
143
1.0
 70
   688
 72
     1
 73
     0
 74
     4
  7
LineScale_10.ctb
 75
    16
147
1.0
148
0.0
149
0.0
  0
ACDBPLACEHOLDER
  5
1D4E
102
{ACAD_REACTORS
330
1D4D
102
}
330
1D4D
  0
ENDSEC
  0
EOF
