  0
SECTION
  2
HEADER
  9
$ACADVER
  1
AC1015
  9
$ACADMAINTVER
 70
     6
  9
$DWGCODEPAGE
  3
ANSI_932
  9
$INSBASE
 10
0.0
 20
0.0
 30
0.0
  9
$EXTMIN
 10
-486.4831611666127
 20
-127.8118048779954
 30
-0.0015258207003583
  9
$EXTMAX
 10
48.12219454098794
 20
451.7847621607379
 30
0.0000000349246037
  9
$LIMMIN
 10
-634.3694229922621
 20
-210.8181714586057
  9
$LIMMAX
 10
208.5488162757692
 20
542.3183533890296
  9
$ORTHOMODE
 70
     1
  9
$REGENMODE
 70
     1
  9
$FILLMODE
 70
     1
  9
$QTEXTMODE
 70
     0
  9
$MIRRTEXT
 70
     0
  9
$LTSCALE
 40
7.0
  9
$ATTMODE
 70
     1
  9
$TEXTSIZE
 40
4.799999999999999
  9
$TRACEWID
 40
0.05
  9
$TEXTSTYLE
  7
DIMFONT
  9
$CLAYER
  8
DRAW2
  9
$CELTYPE
  6
BYLAYER
  9
$CECOLOR
 62
   256
  9
$CELTSCALE
 40
1.0
  9
$DISPSILH
 70
     0
  9
$DIMSCALE
 40
2.0
  9
$DIMASZ
 40
3.0
  9
$DIMEXO
 40
0.0
  9
$DIMDLI
 40
10.0
  9
$DIMRND
 40
0.0
  9
$DIMDLE
 40
0.0
  9
$DIMEXE
 40
1.0
  9
$DIMTP
 40
0.5
  9
$DIMTM
 40
0.0
  9
$DIMTXT
 40
3.2
  9
$DIMCEN
 40
0.0
  9
$DIMTSZ
 40
0.0
  9
$DIMTOL
 70
     0
  9
$DIMLIM
 70
     0
  9
$DIMTIH
 70
     0
  9
$DIMTOH
 70
     0
  9
$DIMSE1
 70
     0
  9
$DIMSE2
 70
     0
  9
$DIMTAD
 70
     3
  9
$DIMZIN
 70
     8
  9
$DIMBLK
  1

  9
$DIMASO
 70
     1
  9
$DIMSHO
 70
     1
  9
$DIMPOST
  1

  9
$DIMAPOST
  1

  9
$DIMALT
 70
     0
  9
$DIMALTD
 70
     2
  9
$DIMALTF
 40
25.4
  9
$DIMLFAC
 40
1.0
  9
$DIMTOFL
 70
     1
  9
$DIMTVP
 40
0.0
  9
$DIMTIX
 70
     0
  9
$DIMSOXD
 70
     0
  9
$DIMSAH
 70
     1
  9
$DIMBLK1
  1
OPEN
  9
$DIMBLK2
  1
OPEN
  9
$DIMSTYLE
  2
１：２
  9
$DIMCLRD
 70
     0
  9
$DIMCLRE
 70
     0
  9
$DIMCLRT
 70
     0
  9
$DIMTFAC
 40
0.75
  9
$DIMGAP
 40
1.0
  9
$DIMJUST
 70
     0
  9
$DIMSD1
 70
     0
  9
$DIMSD2
 70
     0
  9
$DIMTOLJ
 70
     1
  9
$DIMTZIN
 70
     8
  9
$DIMALTZ
 70
     0
  9
$DIMALTTZ
 70
     0
  9
$DIMUPT
 70
     0
  9
$DIMDEC
 70
     3
  9
$DIMTDEC
 70
     3
  9
$DIMALTU
 70
     2
  9
$DIMALTTD
 70
     2
  9
$DIMTXSTY
  7
DIMFONT
  9
$DIMAUNIT
 70
     0
  9
$DIMADEC
 70
     0
  9
$DIMALTRND
 40
0.0
  9
$DIMAZIN
 70
     0
  9
$DIMDSEP
 70
    46
  9
$DIMATFIT
 70
     3
  9
$DIMFRAC
 70
     0
  9
$DIMLDRBLK
  1
OPEN
  9
$DIMLUNIT
 70
     2
  9
$DIMLWD
 70
    -2
  9
$DIMLWE
 70
    -2
  9
$DIMTMOVE
 70
     0
  9
$LUNITS
 70
     2
  9
$LUPREC
 70
     4
  9
$SKETCHINC
 40
0.1
  9
$FILLETRAD
 40
9.0
  9
$AUNITS
 70
     0
  9
$AUPREC
 70
     4
  9
$MENU
  1
acad
  9
$ELEVATION
 40
0.0
  9
$PELEVATION
 40
0.0
  9
$THICKNESS
 40
0.0
  9
$LIMCHECK
 70
     0
  9
$CHAMFERA
 40
0.0
  9
$CHAMFERB
 40
0.0
  9
$CHAMFERC
 40
0.0
  9
$CHAMFERD
 40
0.0
  9
$SKPOLY
 70
     0
  9
$TDCREATE
 40
2450926.776452442
  9
$TDUCREATE
 40
2450926.401452442
  9
$TDUPDATE
 40
2455048.476691435
  9
$TDUUPDATE
 40
2455048.101691435
  9
$TDINDWG
 40
0.6352607639
  9
$TDUSRTIMER
 40
0.6352607639
  9
$USRTIMER
 70
     1
  9
$ANGBASE
 50
0.0
  9
$ANGDIR
 70
     0
  9
$PDMODE
 70
    35
  9
$PDSIZE
 40
0.5
  9
$PLINEWID
 40
0.0
  9
$SPLFRAME
 70
     0
  9
$SPLINETYPE
 70
     6
  9
$SPLINESEGS
 70
     8
  9
$HANDSEED
  5
5E83
  9
$SURFTAB1
 70
     6
  9
$SURFTAB2
 70
     6
  9
$SURFTYPE
 70
     6
  9
$SURFU
 70
     6
  9
$SURFV
 70
     6
  9
$UCSBASE
  2

  9
$UCSNAME
  2

  9
$UCSORG
 10
0.0
 20
0.0
 30
0.0
  9
$UCSXDIR
 10
1.0
 20
0.0
 30
0.0
  9
$UCSYDIR
 10
0.0
 20
1.0
 30
0.0
  9
$UCSORTHOREF
  2

  9
$UCSORTHOVIEW
 70
     0
  9
$UCSORGTOP
 10
0.0
 20
0.0
 30
0.0
  9
$UCSORGBOTTOM
 10
0.0
 20
0.0
 30
0.0
  9
$UCSORGLEFT
 10
0.0
 20
0.0
 30
0.0
  9
$UCSORGRIGHT
 10
0.0
 20
0.0
 30
0.0
  9
$UCSORGFRONT
 10
0.0
 20
0.0
 30
0.0
  9
$UCSORGBACK
 10
0.0
 20
0.0
 30
0.0
  9
$PUCSBASE
  2

  9
$PUCSNAME
  2

  9
$PUCSORG
 10
0.0
 20
0.0
 30
0.0
  9
$PUCSXDIR
 10
1.0
 20
0.0
 30
0.0
  9
$PUCSYDIR
 10
0.0
 20
1.0
 30
0.0
  9
$PUCSORTHOREF
  2

  9
$PUCSORTHOVIEW
 70
     0
  9
$PUCSORGTOP
 10
0.0
 20
0.0
 30
0.0
  9
$PUCSORGBOTTOM
 10
0.0
 20
0.0
 30
0.0
  9
$PUCSORGLEFT
 10
0.0
 20
0.0
 30
0.0
  9
$PUCSORGRIGHT
 10
0.0
 20
0.0
 30
0.0
  9
$PUCSORGFRONT
 10
0.0
 20
0.0
 30
0.0
  9
$PUCSORGBACK
 10
0.0
 20
0.0
 30
0.0
  9
$USERI1
 70
     0
  9
$USERI2
 70
     0
  9
$USERI3
 70
     0
  9
$USERI4
 70
     0
  9
$USERI5
 70
     0
  9
$USERR1
 40
0.0
  9
$USERR2
 40
0.0
  9
$USERR3
 40
0.0
  9
$USERR4
 40
0.0
  9
$USERR5
 40
0.0
  9
$WORLDVIEW
 70
     1
  9
$SHADEDGE
 70
     3
  9
$SHADEDIF
 70
    70
  9
$TILEMODE
 70
     1
  9
$MAXACTVP
 70
    16
  9
$PINSBASE
 10
0.0
 20
0.0
 30
0.0
  9
$PLIMCHECK
 70
     0
  9
$PEXTMIN
 10
1.000000000000000E+20
 20
1.000000000000000E+20
 30
1.000000000000000E+20
  9
$PEXTMAX
 10
-1.000000000000000E+20
 20
-1.000000000000000E+20
 30
-1.000000000000000E+20
  9
$PLIMMIN
 10
-0.0049877929687501
 20
-0.0049999523162843
  9
$PLIMMAX
 10
593.9950122070312
 20
419.9950000476837
  9
$UNITMODE
 70
     0
  9
$VISRETAIN
 70
     0
  9
$PLINEGEN
 70
     1
  9
$PSLTSCALE
 70
     1
  9
$TREEDEPTH
 70
  3020
  9
$CMLSTYLE
  2
STANDARD
  9
$CMLJUST
 70
     0
  9
$CMLSCALE
 40
1.0
  9
$PROXYGRAPHICS
 70
     1
  9
$MEASUREMENT
 70
     1
  9
$CELWEIGHT
370
    -1
  9
$ENDCAPS
280
     0
  9
$JOINSTYLE
280
     0
  9
$LWDISPLAY
290
     0
  9
$INSUNITS
 70
     0
  9
$HYPERLINKBASE
  1

  9
$STYLESHEET
  1

  9
$XEDIT
290
     1
  9
$CEPSNTYPE
380
     0
  9
$PSTYLEMODE
290
     1
  9
$FINGERPRINTGUID
  2
{2EF995C1-539F-4026-ADED-A13029DC00F3}
  9
$VERSIONGUID
  2
{8453CC10-B511-4E41-B5D7-81D2AB9A1396}
  9
$EXTNAMES
290
     1
  9
$PSVPSCALE
 40
0.0
  9
$OLESTARTUP
290
     0
  0
ENDSEC
  0
SECTION
  2
CLASSES
  0
CLASS
  1
LWPOLYLINE
  2
AcDbPolyline
  3
AutoCAD 2000
 90
    32768
280
     0
281
     1
  0
CLASS
  1
ACDBDICTIONARYWDFLT
  2
AcDbDictionaryWithDefault
  3
AutoCAD 2000
 90
        0
280
     0
281
     0
  0
CLASS
  1
ACDBPLACEHOLDER
  2
AcDbPlaceHolder
  3
AutoCAD 2000
 90
        0
280
     0
281
     0
  0
CLASS
  1
LAYOUT
  2
AcDbLayout
  3
AutoCAD 2000
 90
        0
280
     0
281
     0
  0
CLASS
  1
PLOTSETTINGS
  2
AcDbPlotSettings
  3
AutoCAD 2000
 90
        0
280
     0
281
     0
  0
CLASS
  1
DICTIONARYVAR
  2
AcDbDictionaryVar
  3
AutoCAD 2000
 90
        0
280
     0
281
     0
  0
ENDSEC
  0
SECTION
  2
TABLES
  0
TABLE
  2
VPORT
  5
8
330
0
100
AcDbSymbolTable
 70
     3
  0
VPORT
  5
5E82
330
8
100
AcDbSymbolTableRecord
100
AcDbViewportTableRecord
  2
*Active
 70
     0
 10
0.0
 20
0.0
 11
1.0
 21
1.0
 12
-219.1804833128124
 22
161.9864786413712
 13
0.0
 23
0.0
 14
10.0
 24
10.0
 15
20.0
 25
20.0
 16
0.0
 26
0.0
 36
1.0
 17
0.0
 27
0.0
 37
0.0
 40
583.9327009567289
 41
1.469413233458177
 42
50.0
 43
0.0
 44
0.0
 50
0.0
 51
0.0
 71
     0
 72
   100
 73
     1
 74
     0
 75
     0
 76
     0
 77
     0
 78
     0
281
     0
 65
     1
110
0.0
120
0.0
130
0.0
111
1.0
121
0.0
131
0.0
112
0.0
122
1.0
132
0.0
 79
     0
146
0.0
  0
ENDTAB
  0
TABLE
  2
LTYPE
  5
5
330
0
100
AcDbSymbolTable
 70
     6
  0
LTYPE
  5
12
330
5
100
AcDbSymbolTableRecord
100
AcDbLinetypeTableRecord
  2
BYBLOCK
 70
     0
  3

 72
    65
 73
     0
 40
0.0
  0
LTYPE
  5
13
330
5
100
AcDbSymbolTableRecord
100
AcDbLinetypeTableRecord
  2
BYLAYER
 70
     0
  3

 72
    65
 73
     0
 40
0.0
  0
LTYPE
  5
14
330
5
100
AcDbSymbolTableRecord
100
AcDbLinetypeTableRecord
  2
CONTINUOUS
 70
     0
  3
Solid line
 72
    65
 73
     0
 40
0.0
  0
ENDTAB
  0
TABLE
  2
LAYER
  5
2
330
0
100
AcDbSymbolTable
 70
    17
  0
LAYER
  5
F
330
2
100
AcDbSymbolTableRecord
100
AcDbLayerTableRecord
  2
0
 70
     0
 62
     7
  6
CONTINUOUS
370
    -3
390
3346
  0
LAYER
  5
30
330
2
100
AcDbSymbolTableRecord
100
AcDbLayerTableRecord
  2
DRAW2
 70
     0
 62
     4
  6
CONTINUOUS
370
    -3
390
3346
  0
LAYER
  5
B93
330
2
100
AcDbSymbolTableRecord
100
AcDbLayerTableRecord
  2
DRAW3
 70
     0
 62
     1
  6
CONTINUOUS
370
    -3
390
3346
  0
LAYER
  5
15A2
330
2
100
AcDbSymbolTableRecord
100
AcDbLayerTableRecord
  2
DEFPOINTS
 70
     0
 62
     7
  6
CONTINUOUS
290
     0
370
    -3
390
3346
  0
ENDTAB
  0
TABLE
  2
STYLE
  5
3
330
0
100
AcDbSymbolTable
 70
     4
  0
STYLE
  5
10
330
3
100
AcDbSymbolTableRecord
100
AcDbTextStyleTableRecord
  2
STANDARD
 70
     0
 40
0.0
 41
1.0
 50
0.0
 71
     0
 42
0.2
  3
ROMANS.SHX
  4

  0
STYLE
  5
20
330
3
100
AcDbSymbolTableRecord
100
AcDbTextStyleTableRecord
  2
DIMFONT
 70
     0
 40
0.0
 41
1.0
 50
10.0
 71
     0
 42
4.799999999999999
  3
romans.shx
  4
extfont.shx
  0
ENDTAB
  0
TABLE
  2
VIEW
  5
6
330
0
100
AcDbSymbolTable
 70
     4
  0
VIEW
  5
24
330
6
100
AcDbSymbolTableRecord
100
AcDbViewTableRecord
  2
OLE1
 70
     0
 40
300.0
 10
232.1482602118003
 20
150.0
 41
464.2965204236006
 11
0.0
 21
0.0
 31
1.0
 12
0.0
 22
0.0
 32
0.0
 42
50.0
 43
0.0
 44
0.0
 50
0.0
 71
     0
281
     0
 72
     0
  0
VIEW
  5
E0E
330
6
100
AcDbSymbolTableRecord
100
AcDbViewTableRecord
  2
A1
 70
     1
 40
660.0
 10
511.7119266055046
 20
297.0
 41
1137.137614678899
 11
0.0
 21
0.0
 31
1.0
 12
0.0
 22
0.0
 32
0.0
 42
50.0
 43
0.0
 44
0.0
 50
0.0
 71
     0
281
     0
 72
     0
  0
VIEW
  5
E0F
330
6
100
AcDbSymbolTableRecord
100
AcDbViewTableRecord
  2
A2
 70
     1
 40
466.6666666666666
 10
361.8165137614679
 20
210.0
 41
804.0366972477063
 11
0.0
 21
0.0
 31
1.0
 12
0.0
 22
0.0
 32
0.0
 42
50.0
 43
0.0
 44
0.0
 50
0.0
 71
     0
281
     0
 72
     0
  0
VIEW
  5
E10
330
6
100
AcDbSymbolTableRecord
100
AcDbViewTableRecord
  2
A3
 70
     1
 40
330.0
 10
255.8559633027523
 20
148.5
 41
568.5688073394495
 11
0.0
 21
0.0
 31
1.0
 12
0.0
 22
0.0
 32
0.0
 42
50.0
 43
0.0
 44
0.0
 50
0.0
 71
     0
281
     0
 72
     0
  0
ENDTAB
  0
TABLE
  2
UCS
  5
7
330
0
100
AcDbSymbolTable
 70
     0
  0
ENDTAB
  0
TABLE
  2
APPID
  5
9
330
0
100
AcDbSymbolTable
 70
     1
  0
APPID
  5
11
330
9
100
AcDbSymbolTableRecord
100
AcDbRegAppTableRecord
  2
ACAD
 70
     0
  0
ENDTAB
  0
TABLE
  2
DIMSTYLE
  5
A
330
0
100
AcDbSymbolTable
 70
    14
100
AcDbDimStyleTable
 71
     1
340
BA1
  0
DIMSTYLE
105
BA1
102
{ACAD_REACTORS
330
18AA
330
18B3
330
18BA
330
18C1
330
1EC3
330
18A1
330
18AD
330
18A6
330
18A8
330
18A7
330
18A5
330
18A4
330
189F
330
18A9
330
18A0
330
18A2
330
1B38
330
18A3
330
189C
330
189E
102
}
330
A
100
AcDbSymbolTableRecord
100
AcDbDimStyleTableRecord
  2
１：２
 70
     0
 40
2.0
 41
3.0
 42
0.0
 43
10.0
 44
1.0
 47
0.5
 73
     0
 74
     0
 77
     3
 78
     8
140
3.2
141
0.0
146
0.75
147
1.0
172
     1
173
     1
271
     3
272
     3
284
     8
340
20
341
14E8
343
14E8
344
14E8
  0
DIMSTYLE
105
ED4
330
A
100
AcDbSymbolTableRecord
100
AcDbDimStyleTableRecord
  2
STANDARD
 70
     0
340
10
  0
ENDTAB
  0
TABLE
  2
BLOCK_RECORD
  5
1
330
0
100
AcDbSymbolTable
 70
    32
  0
BLOCK_RECORD
  5
18
330
1
100
AcDbSymbolTableRecord
100
AcDbBlockTableRecord
  2
*MODEL_SPACE
340
3349
  0
BLOCK_RECORD
  5
15
330
1
100
AcDbSymbolTableRecord
100
AcDbBlockTableRecord
  2
*PAPER_SPACE
340
334A
  0
BLOCK_RECORD
  5
14E8
330
1
100
AcDbSymbolTableRecord
100
AcDbBlockTableRecord
  2
_OPEN
340
0
102
{BLKREFS
331
55E3
331
55E4
331
55F5
331
55F6
331
55FE
331
55FF
331
5607
331
5608
331
5610
331
5611
331
5619
331
561A
331
562B
331
562C
331
5634
331
5635
331
563D
331
563E
331
5646
331
5647
331
564F
331
5650
331
5661
331
5662
331
566A
331
566B
331
5E49
331
5E4A
331
5E6B
331
5E6C
102
}
  0
ENDTAB
  0
ENDSEC
  0
SECTION
  2
BLOCKS
  0
BLOCK
  5
36
330
18
100
AcDbEntity
  8
0
100
AcDbBlockBegin
  2
*MODEL_SPACE
 70
     0
 10
0.0
 20
0.0
 30
0.0
  3
*MODEL_SPACE
  1

  0
ENDBLK
  5
37
330
18
100
AcDbEntity
  8
0
100
AcDbBlockEnd
  0
BLOCK
  5
34
330
15
100
AcDbEntity
 67
     1
  8
0
100
AcDbBlockBegin
  2
*PAPER_SPACE
 70
     0
 10
0.0
 20
0.0
 30
0.0
  3
*PAPER_SPACE
  1

  0
ENDBLK
  5
35
330
15
100
AcDbEntity
 67
     1
  8
0
100
AcDbBlockEnd
  0
BLOCK
  5
14EC
330
14E8
100
AcDbEntity
  8
0
100
AcDbBlockBegin
  2
_OPEN
 70
     0
 10
0.0
 20
0.0
 30
0.0
  3
_OPEN
  1

  0
LINE
  5
14E9
330
14E8
100
AcDbEntity
  8
0
  6
ByBlock
 62
     0
100
AcDbLine
 10
-1.0
 20
0.1666666666666666
 30
0.0
 11
0.0
 21
0.0
 31
0.0
  0
LINE
  5
14EA
330
14E8
100
AcDbEntity
  8
0
  6
ByBlock
 62
     0
100
AcDbLine
 10
0.0
 20
0.0
 30
0.0
 11
-1.0
 21
-0.1666666666666666
 31
0.0
  0
LINE
  5
14EB
330
14E8
100
AcDbEntity
  8
0
  6
ByBlock
 62
     0
100
AcDbLine
 10
0.0
 20
0.0
 30
0.0
 11
-1.0
 21
0.0
 31
0.0
  0
ENDBLK
  5
14ED
330
14E8
100
AcDbEntity
  8
0
100
AcDbBlockEnd
  0
ENDSEC
  0
SECTION
  2
ENTITIES
  0
LINE
  5
ED5
330
18
100
AcDbEntity
  8
DRAW2
100
AcDbLine
 10
-77.20733890997133
 20
-33.00001000000003
 30
0.0
 11
-8.011958909971383
 21
-33.00001000000003
 31
0.0
  0
LINE
  5
ED6
330
18
100
AcDbEntity
  8
DRAW2
100
AcDbLine
 10
-76.60967890997136
 20
-53.50003
 30
0.0
 11
-8.609648909971383
 21
-53.50003
 31
0.0
  0
LINE
  5
ED7
330
18
100
AcDbEntity
  8
DRAW2
100
AcDbLine
 10
-61.61358890997132
 20
86.0
 30
0.0
 11
-43.10964890997138
 21
86.0
 31
0.0
  0
LINE
  5
ED8
330
18
100
AcDbEntity
  8
DRAW2
100
AcDbLine
 10
-36.36715890997135
 20
36.81225999999998
 30
0.0
 11
-27.53711981277211
 21
52.10633829286178
 31
0.0
  0
LINE
  5
ED9
330
18
100
AcDbEntity
  8
DRAW2
100
AcDbLine
 10
-64.54897890997131
 20
69.99997000000002
 30
0.0
 11
-20.67034890997138
 21
69.99997000000002
 31
0.0
  0
LINE
  5
EDA
330
18
100
AcDbEntity
  8
DRAW2
100
AcDbLine
 10
-76.60967890997136
 20
-53.50003
 30
0.0
 11
-76.60967890997136
 21
-33.00001000000003
 31
0.0
  0
LINE
  5
EDB
330
18
100
AcDbEntity
  8
DRAW2
100
AcDbLine
 10
-8.609648909971383
 20
-53.50003
 30
0.0
 11
-8.609648909971383
 21
-33.00001000000003
 31
0.0
  0
LINE
  5
EDC
330
18
100
AcDbEntity
  8
DRAW2
100
AcDbLine
 10
-8.609648909971383
 20
111.49997
 30
0.0
 11
-8.609648909971383
 21
90.99997000000001
 31
0.0
  0
LINE
  5
EDD
330
18
100
AcDbEntity
  8
DRAW2
100
AcDbLine
 10
-76.60967890997136
 20
111.49997
 30
0.0
 11
-76.60967890997136
 21
90.99997000000001
 31
0.0
  0
LINE
  5
EDE
330
18
100
AcDbEntity
  8
DRAW2
100
AcDbLine
 10
-76.60964890997139
 20
108.49997
 30
0.0
 11
-102.7922689099713
 21
66.67032
 31
0.0
  0
LINE
  5
EDF
330
18
100
AcDbEntity
  8
DRAW2
100
AcDbLine
 10
-76.60964890997139
 20
-50.50001000000003
 30
0.0
 11
-102.7922389099713
 21
-8.670360000000016
 31
0.0
  0
LINE
  5
EE0
330
18
100
AcDbEntity
  8
DRAW2
100
AcDbLine
 10
-8.609678909971364
 20
-50.50001000000003
 30
0.0
 11
17.57294109002862
 21
-8.670350000000013
 31
0.0
  0
LINE
  5
EE1
330
18
100
AcDbEntity
  8
DRAW2
100
AcDbLine
 10
-8.609648909971383
 20
108.49997
 30
0.0
 11
17.57297109002865
 21
66.67028999999996
 31
0.0
  0
LINE
  5
EE3
330
18
100
AcDbEntity
  8
DRAW2
100
AcDbLine
 10
-77.20733890997133
 20
90.99997000000001
 30
0.0
 11
-8.011958909971383
 21
90.99997000000001
 31
0.0
  0
LINE
  5
EE4
330
18
100
AcDbEntity
  8
DRAW2
100
AcDbLine
 10
-38.96523890997133
 20
38.31225999999998
 30
0.0
 11
-30.1950770238696
 21
53.50262077945308
 31
0.0
  0
LINE
  5
EE6
330
18
100
AcDbEntity
  8
DRAW2
100
AcDbLine
 10
-32.72280890997137
 20
27.5
 30
0.0
 11
-15.18247260616641
 21
27.5
 31
0.0
  0
LINE
  5
EE7
330
18
100
AcDbEntity
  8
DRAW2
100
AcDbLine
 10
-32.72280890997137
 20
30.49997000000002
 30
0.0
 11
-15.06268247234447
 21
30.49997000000002
 31
0.0
  0
LINE
  5
EEF
330
18
100
AcDbEntity
  8
DRAW2
100
AcDbLine
 10
-26.09341239656078
 20
54.60691128155923
 30
0.0
 11
-14.74765042300453
 21
74.25834940393961
 31
0.0
  0
LINE
  5
EF0
330
18
100
AcDbEntity
  8
DRAW2
100
AcDbLine
 10
-28.72099114035808
 20
56.05579881636174
 30
0.0
 11
-17.34571985177511
 21
75.75833459299365
 31
0.0
  0
LINE
  5
EF1
330
18
100
AcDbEntity
  8
DRAW2
100
AcDbLine
 10
-12.17529135146361
 20
30.49997000000002
 30
0.0
 11
10.51622634450582
 21
30.49997000000002
 31
0.0
  0
LINE
  5
EF2
330
18
100
AcDbEntity
  8
DRAW2
100
AcDbLine
 10
-52.49651890997137
 20
27.5
 30
0.0
 11
-70.15661534759829
 21
27.5
 31
0.0
  0
LINE
  5
EF3
330
18
100
AcDbEntity
  8
DRAW2
100
AcDbLine
 10
-52.49651890997137
 20
30.49997000000002
 30
0.0
 11
-70.03682740137112
 21
30.49997000000002
 31
0.0
  0
LINE
  5
EF5
330
18
100
AcDbEntity
  8
DRAW2
100
AcDbLine
 10
-72.98504247234444
 20
30.49997000000002
 30
0.0
 11
-95.7355241644486
 21
30.49997000000002
 31
0.0
  0
LINE
  5
EFA
330
18
100
AcDbEntity
  8
DRAW2
100
AcDbLine
 10
-59.09640461467763
 20
54.55583163375559
 30
0.0
 11
-70.47164927484796
 21
74.2583598657421
 31
0.0
  0
LINE
  5
EFB
330
18
100
AcDbEntity
  8
DRAW2
100
AcDbLine
 10
-56.52780296805627
 20
56.10691785539621
 30
0.0
 11
-67.87357594125883
 21
75.75836108228692
 31
0.0
  0
LINE
  5
EFC
330
18
100
AcDbEntity
  8
DRAW2
100
AcDbLine
 10
-48.85213890997135
 20
36.81225999999998
 30
0.0
 11
-57.62230738252367
 21
52.00261003391074
 31
0.0
  0
LINE
  5
EFD
330
18
100
AcDbEntity
  8
DRAW2
100
AcDbLine
 10
-46.25405890997138
 20
38.31228999999996
 30
0.0
 11
-55.08410499321678
 21
53.60634321599775
 31
0.0
  0
LINE
  5
F05
330
18
100
AcDbEntity
  8
DRAW2
100
AcDbLine
 10
-59.09639314488305
 20
3.444106263729167
 30
0.0
 11
-70.47162589941642
 21
-16.25839856180381
 31
0.0
  0
LINE
  5
F06
330
18
100
AcDbEntity
  8
DRAW2
100
AcDbLine
 10
-56.49830078834248
 20
1.944099426055515
 30
0.0
 11
-67.87355014507859
 21
-17.7584124183574
 31
0.0
  0
LINE
  5
F07
330
18
100
AcDbEntity
  8
DRAW2
100
AcDbLine
 10
-48.85210890997138
 20
21.18767999999994
 30
0.0
 11
-57.62224858849561
 21
5.997350556812307
 31
0.0
  0
LINE
  5
F08
330
18
100
AcDbEntity
  8
DRAW2
100
AcDbLine
 10
-46.25402890997134
 20
19.68767999999994
 30
0.0
 11
-55.08410514865744
 21
4.39359651476235
 31
0.0
  0
LINE
  5
F09
330
18
100
AcDbEntity
  8
DRAW2
100
AcDbLine
 10
-36.36715890997135
 20
21.18767999999994
 30
0.0
 11
-27.59702767870072
 21
5.997365187886714
 31
0.0
  0
LINE
  5
F0A
330
18
100
AcDbEntity
  8
DRAW2
100
AcDbLine
 10
-38.96526890997137
 20
19.68767999999994
 30
0.0
 11
-30.13520718454492
 21
4.393599691012468
 31
0.0
  0
LINE
  5
F0F
330
18
100
AcDbEntity
  8
DRAW2
100
AcDbLine
 10
-26.09343723557748
 20
3.393071740838195
 30
0.0
 11
-14.74765121936338
 21
-16.25837970019452
 31
0.0
  0
LINE
  5
F10
330
18
100
AcDbEntity
  8
DRAW2
100
AcDbLine
 10
-28.72100927889846
 20
1.944120639001425
 30
0.0
 11
-17.34576835464319
 21
-17.758404709566
 31
0.0
  0
LINE
  5
F13
330
18
100
AcDbEntity
  8
DRAW2
100
AcDbLine
 10
-61.61358890997132
 20
-28.00001000000003
 30
0.0
 11
-23.60573890997136
 21
-28.00001000000003
 31
0.0
  0
LINE
  5
F17
330
18
100
AcDbEntity
  8
DRAW2
100
AcDbLine
 10
-73.04400449703781
 20
27.5
 30
0.0
 11
-95.73552923532195
 21
27.5
 31
0.0
  0
LINE
  5
F18
330
18
100
AcDbEntity
  8
DRAW2
100
AcDbLine
 10
-12.17529332290496
 20
27.5
 30
0.0
 11
10.51623141537919
 21
27.5
 31
0.0
  0
LINE
  5
F1A
330
18
100
AcDbEntity
  8
DRAW2
100
AcDbLine
 10
-54.60964890997138
 20
69.5
 30
0.0
 11
-54.60964890997138
 21
56.49542000000002
 31
0.0
  0
LINE
  5
F1B
330
18
100
AcDbEntity
  8
DRAW2
100
AcDbLine
 10
-22.60964890997138
 20
85.82976999999999
 30
0.0
 11
-22.60964890997138
 21
69.99997000000002
 31
0.0
  0
LINE
  5
F1C
330
18
100
AcDbEntity
  8
DRAW2
100
AcDbLine
 10
-30.60964890997138
 20
69.5
 30
0.0
 11
-30.60964890997138
 21
56.49542000000002
 31
0.0
  0
LINE
  5
F1E
330
18
100
AcDbEntity
  8
DRAW2
100
AcDbLine
 10
-62.60967890997136
 20
85.82976999999999
 30
0.0
 11
-62.60967890997136
 21
69.99997000000002
 31
0.0
  0
LINE
  5
F1F
330
18
100
AcDbEntity
  8
DRAW2
100
AcDbLine
 10
-54.60964890997138
 20
54.29818999999998
 30
0.0
 11
-54.60964890997138
 21
52.78460999999999
 31
0.0
  0
LINE
  5
F20
330
18
100
AcDbEntity
  8
DRAW2
100
AcDbLine
 10
-54.60964890997138
 20
46.78457999999994
 30
0.0
 11
-54.60964890997138
 21
30.49997000000002
 31
0.0
  0
LINE
  5
F21
330
18
100
AcDbEntity
  8
DRAW2
100
AcDbLine
 10
-30.60964890997138
 20
46.78457999999994
 30
0.0
 11
-30.60964890997138
 21
30.49997000000002
 31
0.0
  0
LINE
  5
F22
330
18
100
AcDbEntity
  8
DRAW2
100
AcDbLine
 10
-30.60964890997138
 20
54.29818999999998
 30
0.0
 11
-30.60964890997138
 21
52.78460999999999
 31
0.0
  0
LINE
  5
F23
330
18
100
AcDbEntity
  8
DRAW2
100
AcDbLine
 10
-54.60964890997138
 20
11.21535999999997
 30
0.0
 11
-54.60964890997138
 21
27.5
 31
0.0
  0
LINE
  5
F24
330
18
100
AcDbEntity
  8
DRAW2
100
AcDbLine
 10
-30.60964890997138
 20
11.21535999999997
 30
0.0
 11
-30.60964890997138
 21
27.5
 31
0.0
  0
LINE
  5
F25
330
18
100
AcDbEntity
  8
DRAW2
100
AcDbLine
 10
-30.60964890997138
 20
3.701750000000004
 30
0.0
 11
-30.60964890997138
 21
5.215359999999975
 31
0.0
  0
LINE
  5
F26
330
18
100
AcDbEntity
  8
DRAW2
100
AcDbLine
 10
-54.60964890997138
 20
3.701750000000004
 30
0.0
 11
-54.60964890997138
 21
5.215359999999975
 31
0.0
  0
LINE
  5
F27
330
18
100
AcDbEntity
  8
DRAW2
100
AcDbLine
 10
-54.60964890997138
 20
-11.50001000000003
 30
0.0
 11
-54.60964890997138
 21
1.504520000000013
 31
0.0
  0
LINE
  5
F28
330
18
100
AcDbEntity
  8
DRAW2
100
AcDbLine
 10
-30.60964890997138
 20
-11.50001000000003
 30
0.0
 11
-30.60964890997138
 21
1.504520000000013
 31
0.0
  0
LINE
  5
F29
330
18
100
AcDbEntity
  8
DRAW2
100
AcDbLine
 10
-64.54897890997131
 20
-12.00001000000003
 30
0.0
 11
-20.67034890997138
 21
-12.00001000000003
 31
0.0
  0
LINE
  5
F2A
330
18
100
AcDbEntity
  8
DRAW2
100
AcDbLine
 10
-62.60967890997136
 20
-27.82982000000004
 30
0.0
 11
-62.60967890997136
 21
-12.00001000000003
 31
0.0
  0
LINE
  5
F2B
330
18
100
AcDbEntity
  8
DRAW2
100
AcDbLine
 10
-22.60964890997138
 20
-27.82982000000004
 30
0.0
 11
-22.60964890997138
 21
-12.00001000000003
 31
0.0
  0
LINE
  5
F2C
330
18
100
AcDbEntity
  8
DRAW2
100
AcDbLine
 10
-46.60964890997138
 20
79.0
 30
0.0
 11
-44.60964890997138
 21
79.0
 31
0.0
  0
LINE
  5
F2D
330
18
100
AcDbEntity
  8
DRAW2
100
AcDbLine
 10
-44.60964890997138
 20
73.99997000000002
 30
0.0
 11
-40.60964890997138
 21
73.99997000000002
 31
0.0
  0
LINE
  5
F2E
330
18
100
AcDbEntity
  8
DRAW2
100
AcDbLine
 10
-44.60964890997138
 20
73.99997000000002
 30
0.0
 11
-44.60964890997138
 21
79.0
 31
0.0
  0
LINE
  5
F2F
330
18
100
AcDbEntity
  8
DRAW2
100
AcDbLine
 10
-40.60964890997138
 20
73.99997000000002
 30
0.0
 11
-40.60964890997138
 21
79.0
 31
0.0
  0
LINE
  5
F30
330
18
100
AcDbEntity
  8
DRAW2
100
AcDbLine
 10
-46.60967890997136
 20
79.0
 30
0.0
 11
-42.60967890997136
 21
87.0
 31
0.0
  0
LINE
  5
F31
330
18
100
AcDbEntity
  8
DRAW2
100
AcDbLine
 10
-38.60964890997138
 20
78.99997000000002
 30
0.0
 11
-42.60964890997138
 21
86.99997000000001
 31
0.0
  0
LINE
  5
F32
330
18
100
AcDbEntity
  8
DRAW2
100
AcDbLine
 10
-40.60964890997138
 20
79.0
 30
0.0
 11
-38.60964890997138
 21
79.0
 31
0.0
  0
LINE
  5
F33
330
18
100
AcDbEntity
  8
DRAW2
100
AcDbLine
 10
-42.10964890997138
 20
86.0
 30
0.0
 11
-23.60573890997136
 21
86.0
 31
0.0
  0
LINE
  5
F34
330
18
100
AcDbEntity
  8
DRAW2
100
AcDbLine
 10
-13.30965890997134
 20
131.49997
 30
0.0
 11
-26.1302789099713
 21
130.6751699999999
 31
0.0
  0
LINE
  5
F35
330
18
100
AcDbEntity
  8
DRAW2
100
AcDbLine
 10
-13.30965890997134
 20
131.4999999999999
 30
0.0
 11
-26.13030890997134
 21
132.3247999999999
 31
0.0
  0
LINE
  5
F36
330
18
100
AcDbEntity
  8
DRAW2
100
AcDbLine
 10
-8.609648909971383
 20
111.49997
 30
0.0
 11
-76.60967890997136
 21
111.49997
 31
0.0
  0
LINE
  5
F38
330
18
100
AcDbEntity
  8
DRAW2
100
AcDbLine
 10
-71.9096689099714
 20
131.5000299999999
 30
0.0
 11
-59.0890189099714
 21
130.6751999999999
 31
0.0
  0
LINE
  5
F39
330
18
100
AcDbEntity
  8
DRAW2
100
AcDbLine
 10
-71.90963890997136
 20
131.49997
 30
0.0
 11
-59.0890189099714
 21
132.3247999999999
 31
0.0
  0
LINE
  5
F3A
330
18
100
AcDbEntity
  8
DRAW2
100
AcDbLine
 10
-13.30965890997134
 20
-73.50001000000003
 30
0.0
 11
-26.1302789099713
 21
-72.67520000000001
 31
0.0
  0
LINE
  5
F3B
330
18
100
AcDbEntity
  8
DRAW2
100
AcDbLine
 10
-13.30962890997136
 20
-73.50003
 30
0.0
 11
-26.1302789099713
 21
-74.32486000000003
 31
0.0
  0
LINE
  5
F3C
330
18
100
AcDbEntity
  8
DRAW2
100
AcDbLine
 10
-76.60967890997136
 20
-92.50003000000001
 30
0.0
 11
-76.60967890997136
 21
-52.50003000000001
 31
0.0
  0
LINE
  5
F3D
330
18
100
AcDbEntity
  8
DRAW2
100
AcDbLine
 10
-8.609648909971383
 20
-92.50003000000001
 30
0.0
 11
-8.609648909971383
 21
-52.50003000000001
 31
0.0
  0
LINE
  5
F3F
330
18
100
AcDbEntity
  8
DRAW2
100
AcDbLine
 10
-71.90960890997138
 20
-73.50003
 30
0.0
 11
-59.0890189099714
 21
-72.67522000000003
 31
0.0
  0
LINE
  5
F40
330
18
100
AcDbEntity
  8
DRAW2
100
AcDbLine
 10
-71.90963890997136
 20
-73.50003
 30
0.0
 11
-59.08904890997138
 21
-74.32483999999999
 31
0.0
  0
LINE
  5
F41
330
18
100
AcDbEntity
  8
DRAW2
100
AcDbLine
 10
-76.60967890997136
 20
-93.50003
 30
0.0
 11
-8.609648909971383
 21
-93.50003
 31
0.0
  0
LINE
  5
F42
330
18
100
AcDbEntity
  8
DRAW2
100
AcDbLine
 10
-116.6096789099713
 20
-96.50001000000003
 30
0.0
 11
-76.60967890997136
 21
-96.50001000000003
 31
0.0
  0
LINE
  5
F43
330
18
100
AcDbEntity
  8
DRAW2
100
AcDbLine
 10
-132.6096789099713
 20
-112.50001
 30
0.0
 11
-132.6096789099713
 21
-107.7198
 31
0.0
  0
LINE
  5
F44
330
18
100
AcDbEntity
  8
DRAW2
100
AcDbLine
 10
47.39036109002864
 20
-112.50001
 30
0.0
 11
47.39036109002864
 21
-107.7198
 31
0.0
  0
LINE
  5
F45
330
18
100
AcDbEntity
  8
DRAW2
100
AcDbLine
 10
-132.6096789099713
 20
-112.50001
 30
0.0
 11
47.39036109002864
 21
-112.50001
 31
0.0
  0
LINE
  5
F46
330
18
100
AcDbEntity
  8
DRAW2
100
AcDbLine
 10
-116.6096789099713
 20
-96.50001000000003
 30
0.0
 11
-116.6096789099713
 21
-98.97609
 31
0.0
  0
LINE
  5
F47
330
18
100
AcDbEntity
  8
DRAW2
100
AcDbLine
 10
31.39033109002866
 20
-96.50001000000003
 30
0.0
 11
31.39033109002866
 21
-98.97609
 31
0.0
  0
LINE
  5
F48
330
18
100
AcDbEntity
  8
DRAW2
100
AcDbLine
 10
-76.60967890997136
 20
-93.50003
 30
0.0
 11
-76.60967890997136
 21
-96.50001000000003
 31
0.0
  0
LINE
  5
F49
330
18
100
AcDbEntity
  8
DRAW2
100
AcDbLine
 10
-8.609648909971383
 20
-93.50003
 30
0.0
 11
-8.609648909971383
 21
-96.50001000000003
 31
0.0
  0
LINE
  5
F4A
330
18
100
AcDbEntity
  8
DRAW2
100
AcDbLine
 10
31.39033109002866
 20
-96.50001000000003
 30
0.0
 11
-8.609648909971383
 21
-96.50001000000003
 31
0.0
  0
LINE
  5
F4B
330
18
100
AcDbEntity
  8
DRAW2
100
AcDbLine
 10
-113.8178989099713
 20
-127.50002
 30
0.0
 11
-86.40139890997136
 21
-127.50002
 31
0.0
  0
LINE
  5
F4C
330
18
100
AcDbEntity
  8
DRAW2
100
AcDbLine
 10
-84.91796890997136
 20
-126.22253
 30
0.0
 11
-82.85961890997141
 21
-112.50004
 31
0.0
  0
LINE
  5
F4E
330
18
100
AcDbEntity
  8
DRAW2
100
AcDbLine
 10
-115.3012689099713
 20
-126.22253
 30
0.0
 11
-117.3596489099713
 21
-112.50003
 31
0.0
  0
LINE
  5
F4F
330
18
100
AcDbEntity
  8
DRAW2
100
AcDbLine
 10
-9.609678962331244
 20
151.5
 30
0.0
 11
-75.60967896233124
 21
151.5
 31
0.0
  0
LINE
  5
F50
330
18
100
AcDbEntity
  8
DRAW2
100
AcDbLine
 10
-76.60967890997136
 20
150.5
 30
0.0
 11
-76.60967890997136
 21
110.49997
 31
0.0
  0
LINE
  5
F51
330
18
100
AcDbEntity
  8
DRAW2
100
AcDbLine
 10
-8.609648909971383
 20
150.5
 30
0.0
 11
-8.609648909971383
 21
110.49997
 31
0.0
  0
LINE
  5
F53
330
18
100
AcDbEntity
  8
DRAW2
100
AcDbLine
 10
-318.5791375048227
 20
-127.50002
 30
0.0
 11
-345.9955875048228
 21
-127.50002
 31
0.0
  0
LINE
  5
F54
330
18
100
AcDbEntity
  8
DRAW2
100
AcDbLine
 10
-347.4789175048227
 20
-126.22255
 30
0.0
 11
-349.5373275048228
 21
-112.50003
 31
0.0
  0
LINE
  5
F56
330
18
100
AcDbEntity
  8
DRAW2
100
AcDbLine
 10
-317.0956775048228
 20
-126.22254
 30
0.0
 11
-315.0373275048228
 21
-112.50006
 31
0.0
  0
LINE
  5
F57
330
18
100
AcDbEntity
  8
DRAW2
100
AcDbLine
 10
31.39033109002866
 20
38.99997000000002
 30
0.0
 11
31.39033109002866
 21
75.0
 31
0.0
  0
LINE
  5
F58
330
18
100
AcDbEntity
  8
DRAW2
100
AcDbLine
 10
29.39033109002867
 20
36.99997000000001
 30
0.0
 11
27.93822109002866
 21
36.99997000000001
 31
0.0
  0
LINE
  5
F59
330
18
100
AcDbEntity
  8
DRAW2
100
AcDbLine
 10
29.39033109002867
 20
76.99997000000002
 30
0.0
 11
11.10725109002862
 21
76.99997000000002
 31
0.0
  0
LINE
  5
F5A
330
18
100
AcDbEntity
  8
DRAW2
100
AcDbLine
 10
-113.6096789099713
 20
47.0
 30
0.0
 11
-113.6096789099713
 21
66.99997000000002
 31
0.0
  0
LINE
  5
F5B
330
18
100
AcDbEntity
  8
DRAW2
100
AcDbLine
 10
-111.6096489099713
 20
68.99997000000002
 30
0.0
 11
-101.3340489099713
 21
68.99997000000002
 31
0.0
  0
LINE
  5
F83
330
18
100
AcDbEntity
  8
DRAW2
100
AcDbLine
 10
20.39033109002866
 20
-13.00001000000003
 30
0.0
 11
14.86285109002864
 21
-13.00001000000003
 31
0.0
  0
LINE
  5
F84
330
18
100
AcDbEntity
  8
DRAW2
100
AcDbLine
 10
22.39036109002864
 20
-11.00003
 30
0.0
 11
22.39036109002864
 21
0.434269999999998
 31
0.0
  0
LINE
  5
F87
330
18
100
AcDbEntity
  8
DRAW2
100
AcDbLine
 10
-308.7872975048228
 20
150.5
 30
0.0
 11
-308.7872975048228
 21
132.4999999999999
 31
0.0
  0
LINE
  5
F88
330
18
100
AcDbEntity
  8
DRAW2
100
AcDbLine
 10
-354.7872975048228
 20
150.5
 30
0.0
 11
-354.7872975048228
 21
144.93961
 31
0.0
  0
LINE
  5
F89
330
18
100
AcDbEntity
  8
DRAW2
100
AcDbLine
 10
-353.7873575048227
 20
151.5
 30
0.0
 11
-309.7872975048228
 21
151.5
 31
0.0
  0
LINE
  5
F8A
330
18
100
AcDbEntity
  8
DRAW2
100
AcDbLine
 10
-477.2872975048228
 20
150.5
 30
0.0
 11
-477.2872975048228
 21
111.49997
 31
0.0
  0
LINE
  5
F8B
330
18
100
AcDbEntity
  8
DRAW2
100
AcDbLine
 10
-477.2872975048228
 20
111.49997
 30
0.0
 11
-431.2872975048228
 21
111.49997
 31
0.0
  0
LINE
  5
F8C
330
18
100
AcDbEntity
  8
DRAW2
100
AcDbLine
 10
-431.2872975048228
 20
150.5
 30
0.0
 11
-431.2872975048228
 21
144.93961
 31
0.0
  0
LINE
  5
F8D
330
18
100
AcDbEntity
  8
DRAW2
100
AcDbLine
 10
-476.2872375048227
 20
151.5
 30
0.0
 11
-432.2872975048228
 21
151.5
 31
0.0
  0
LINE
  5
F8E
330
18
100
AcDbEntity
  8
DRAW2
100
AcDbLine
 10
-291.7872975048228
 20
146.99997
 30
0.0
 11
-291.7872975048228
 21
132.4999999999999
 31
0.0
  0
LINE
  5
F8F
330
18
100
AcDbEntity
  8
DRAW2
100
AcDbLine
 10
-266.7872975048228
 20
145.9183699999999
 30
0.0
 11
-266.7872975048228
 21
117.08157
 31
0.0
  0
LINE
  5
F90
330
18
100
AcDbEntity
  8
DRAW2
100
AcDbLine
 10
-291.7872975048228
 20
116.0
 30
0.0
 11
-268.8672575048227
 21
115.08319
 31
0.0
  0
LINE
  5
F91
330
18
100
AcDbEntity
  8
DRAW2
100
AcDbLine
 10
-268.8672575048227
 20
147.91681
 30
0.0
 11
-291.7873575048228
 21
147.0
 31
0.0
  0
LINE
  5
F92
330
18
100
AcDbEntity
  8
DRAW2
100
AcDbLine
 10
-308.7872975048228
 20
120.0
 30
0.0
 11
-298.7155275048228
 21
120.0
 31
0.0
  0
LINE
  5
F93
330
18
100
AcDbEntity
  8
DRAW2
100
AcDbLine
 10
-308.7872975048228
 20
142.99997
 30
0.0
 11
-298.7155275048228
 21
142.99997
 31
0.0
  0
LINE
  5
F94
330
18
100
AcDbEntity
  8
DRAW2
100
AcDbLine
 10
-291.7872975048228
 20
146.9999399999999
 30
0.0
 11
-298.7154675048228
 21
142.9999399999999
 31
0.0
  0
LINE
  5
F95
330
18
100
AcDbEntity
  8
DRAW2
100
AcDbLine
 10
-291.7872975048228
 20
115.99997
 30
0.0
 11
-298.7155275048228
 21
119.99997
 31
0.0
  0
LINE
  5
F96
330
18
100
AcDbEntity
  8
DRAW2
100
AcDbLine
 10
-298.7155275048228
 20
142.99997
 30
0.0
 11
-298.7155275048228
 21
132.4999999999999
 31
0.0
  0
LINE
  5
F97
330
18
100
AcDbEntity
  8
DRAW2
100
AcDbLine
 10
-308.7873575048228
 20
148.49997
 30
0.0
 11
-285.7872975048228
 21
147.2399599999999
 31
0.0
  0
LINE
  5
F98
330
18
100
AcDbEntity
  8
DRAW2
100
AcDbLine
 10
-308.7872975048228
 20
114.4999399999999
 30
0.0
 11
-285.7872975048228
 21
115.75992
 31
0.0
  0
LINE
  5
F99
330
18
100
AcDbEntity
  8
DRAW2
100
AcDbLine
 10
-308.7872975048228
 20
132.4999999999999
 30
0.0
 11
-291.7872975048228
 21
132.4999999999999
 31
0.0
  0
LINE
  5
F9A
330
18
100
AcDbEntity
  8
DRAW2
100
AcDbLine
 10
-308.7872975048228
 20
130.49997
 30
0.0
 11
-291.7872975048228
 21
130.49997
 31
0.0
  0
LINE
  5
F9B
330
18
100
AcDbEntity
  8
DRAW2
100
AcDbLine
 10
-308.7872975048228
 20
130.49997
 30
0.0
 11
-308.7872975048228
 21
111.4999999999999
 31
0.0
  0
LINE
  5
F9C
330
18
100
AcDbEntity
  8
DRAW2
100
AcDbLine
 10
-298.7155275048228
 20
130.49997
 30
0.0
 11
-298.7155275048228
 21
120.0
 31
0.0
  0
LINE
  5
F9D
330
18
100
AcDbEntity
  8
DRAW2
100
AcDbLine
 10
-291.7872975048228
 20
130.49997
 30
0.0
 11
-291.7872975048228
 21
115.99997
 31
0.0
  0
LINE
  5
F9E
330
18
100
AcDbEntity
  8
DRAW2
100
AcDbLine
 10
-431.2872975048228
 20
132.75
 30
0.0
 11
-393.0372975048229
 21
132.75
 31
0.0
  0
LINE
  5
FA3
330
18
100
AcDbEntity
  8
DRAW2
100
AcDbLine
 10
-431.2872975048228
 20
130.2499999999999
 30
0.0
 11
-431.2872975048228
 21
122.3416499999999
 31
0.0
  0
LINE
  5
FA4
330
18
100
AcDbEntity
  8
DRAW2
100
AcDbLine
 10
-354.7872975048228
 20
130.2499999999999
 30
0.0
 11
-354.7872975048228
 21
122.3416328849115
 31
0.0
  0
LINE
  5
FA5
330
18
100
AcDbEntity
  8
DRAW2
100
AcDbLine
 10
-431.2872975048228
 20
140.6583299999999
 30
0.0
 11
-431.2872975048228
 21
132.75
 31
0.0
  0
LINE
  5
FA6
330
18
100
AcDbEntity
  8
DRAW2
100
AcDbLine
 10
-432.4849975048228
 20
140.7751799999999
 30
0.0
 11
-434.3712875048228
 21
143.5587499999999
 31
0.0
  0
LINE
  5
FB7
330
18
100
AcDbEntity
  8
DRAW2
100
AcDbLine
 10
-432.4849975048228
 20
122.2247599999999
 30
0.0
 11
-434.3712275048228
 21
119.4412199999999
 31
0.0
  0
LINE
  5
FC0
330
18
100
AcDbEntity
  8
DRAW2
100
AcDbLine
 10
-431.2872975048228
 20
130.2499999999999
 30
0.0
 11
-393.0372975048229
 21
130.25
 31
0.0
  0
LINE
  5
FC4
330
18
100
AcDbEntity
  8
DRAW2
100
AcDbLine
 10
-431.2872975048228
 20
118.0603299999999
 30
0.0
 11
-431.2872975048228
 21
110.49997
 31
0.0
  0
LINE
  5
FC5
330
18
100
AcDbEntity
  8
DRAW2
100
AcDbLine
 10
-353.5895475048228
 20
140.77515
 30
0.0
 11
-351.7033175048228
 21
143.5586899999999
 31
0.0
  0
LINE
  5
FD0
330
18
100
AcDbEntity
  8
DRAW2
100
AcDbLine
 10
-353.5896075048227
 20
122.2247899999999
 30
0.0
 11
-351.7033175048228
 21
119.4412499999999
 31
0.0
  0
LINE
  5
FDD
330
18
100
AcDbEntity
  8
DRAW2
100
AcDbLine
 10
-354.7872975048228
 20
132.75
 30
0.0
 11
-393.0372975048229
 21
132.75
 31
0.0
  0
LINE
  5
FDE
330
18
100
AcDbEntity
  8
DRAW2
100
AcDbLine
 10
-354.7872975048228
 20
130.2499999999999
 30
0.0
 11
-393.0372975048229
 21
130.2499999999999
 31
0.0
  0
LINE
  5
FE1
330
18
100
AcDbEntity
  8
DRAW2
100
AcDbLine
 10
-354.7872975048228
 20
140.6583299999999
 30
0.0
 11
-354.7872975048228
 21
132.75
 31
0.0
  0
LINE
  5
FE2
330
18
100
AcDbEntity
  8
DRAW2
100
AcDbLine
 10
-446.3004875048227
 20
131.49997
 30
0.0
 11
-431.2872975048228
 21
132.74997
 31
0.0
  0
LINE
  5
FE3
330
18
100
AcDbEntity
  8
DRAW2
100
AcDbLine
 10
-446.3005475048228
 20
131.4999999999999
 30
0.0
 11
-431.2873575048228
 21
130.2499999999999
 31
0.0
  0
LINE
  5
FE4
330
18
100
AcDbEntity
  8
DRAW2
100
AcDbLine
 10
-339.7741175048228
 20
131.4999999999999
 30
0.0
 11
-354.7872975048228
 21
130.2499999999999
 31
0.0
  0
LINE
  5
FE5
330
18
100
AcDbEntity
  8
DRAW2
100
AcDbLine
 10
-339.7741175048228
 20
131.49997
 30
0.0
 11
-354.7872975048228
 21
132.74997
 31
0.0
  0
LINE
  5
FE6
330
18
100
AcDbEntity
  8
DRAW2
100
AcDbLine
 10
-280.4873175048228
 20
131.4999999999999
 30
0.0
 11
-291.7873575048228
 21
132.4999999999999
 31
0.0
  0
LINE
  5
FE7
330
18
100
AcDbEntity
  8
DRAW2
100
AcDbLine
 10
-280.4872475048227
 20
131.4999999999999
 30
0.0
 11
-291.7872975048228
 21
130.4999999999999
 31
0.0
  0
LINE
  5
FE9
330
18
100
AcDbEntity
  8
DRAW2
100
AcDbLine
 10
-324.3309375048228
 20
131.4999999999999
 30
0.0
 11
-308.7872375048227
 21
130.4999999999999
 31
0.0
  0
LINE
  5
FEA
330
18
100
AcDbEntity
  8
DRAW2
100
AcDbLine
 10
-324.3309375048228
 20
131.4999399999999
 30
0.0
 11
-308.7872975048228
 21
132.4999399999999
 31
0.0
  0
LINE
  5
FEB
330
18
100
AcDbEntity
  8
DRAW2
100
AcDbLine
 10
-308.7872975048228
 20
111.4999999999999
 30
0.0
 11
-354.7872975048228
 21
111.4999999999999
 31
0.0
  0
LINE
  5
FED
330
18
100
AcDbEntity
  8
DRAW2
100
AcDbLine
 10
-307.5372675048228
 20
109.4999999999999
 30
0.0
 11
-307.5372675048228
 21
-51.50003000000001
 31
0.0
  0
LINE
  5
FEE
330
18
100
AcDbEntity
  8
DRAW2
100
AcDbLine
 10
-354.5372675048229
 20
111.4999999999999
 30
0.0
 11
-354.5372675048228
 21
91.99997000000001
 31
0.0
  0
LINE
  5
FEF
330
18
100
AcDbEntity
  8
DRAW2
100
AcDbLine
 10
-355.5372675048228
 20
-33.00001000000003
 30
0.0
 11
-332.0372675048228
 21
-33.00001000000003
 31
0.0
  0
LINE
  5
FF0
330
18
100
AcDbEntity
  8
DRAW2
100
AcDbLine
 10
-355.5372675048228
 20
90.99997000000001
 30
0.0
 11
-332.0372675048228
 21
90.99997000000001
 31
0.0
  0
LINE
  5
FF1
330
18
100
AcDbEntity
  8
DRAW2
100
AcDbLine
 10
-355.5372675048228
 20
90.99997000000001
 30
0.0
 11
-355.5372675048228
 21
-33.00001000000003
 31
0.0
  0
LINE
  5
FF2
330
18
100
AcDbEntity
  8
DRAW2
100
AcDbLine
 10
-354.5372675048228
 20
-34.00001000000003
 30
0.0
 11
-354.5372675048228
 21
-53.50001000000003
 31
0.0
  0
LINE
  5
FF3
330
18
100
AcDbEntity
  8
DRAW2
100
AcDbLine
 10
-329.0372675048228
 20
90.99997000000001
 30
0.0
 11
-307.5372675048228
 21
90.99997000000001
 31
0.0
  0
LINE
  5
FF4
330
18
100
AcDbEntity
  8
DRAW2
100
AcDbLine
 10
-457.0372375048228
 20
-48.50003
 30
0.0
 11
-457.0372375048228
 21
-14.26842000000002
 31
0.0
  0
LINE
  5
FF5
330
18
100
AcDbEntity
  8
DRAW2
100
AcDbLine
 10
-454.0372975048228
 20
-48.50003
 30
0.0
 11
-454.0372975048228
 21
-14.26842000000002
 31
0.0
  0
LINE
  5
FF6
330
18
100
AcDbEntity
  8
DRAW2
100
AcDbLine
 10
-329.0372675048228
 20
-33.00001000000003
 30
0.0
 11
-307.5372675048228
 21
-33.00001000000003
 31
0.0
  0
LINE
  5
FF8
330
18
100
AcDbEntity
  8
DRAW2
100
AcDbLine
 10
-478.3372775048228
 20
109.4999999999999
 30
0.0
 11
-478.3372775048228
 21
-51.50003000000001
 31
0.0
  0
LINE
  5
FF9
330
18
100
AcDbEntity
  8
DRAW2
100
AcDbLine
 10
-431.2872975048228
 20
118.0603248849116
 30
0.0
 11
-431.2872975048228
 21
91.99997000000001
 31
0.0
  0
LINE
  5
FFA
330
18
100
AcDbEntity
  8
DRAW2
100
AcDbLine
 10
-430.3372775048228
 20
-33.00001000000003
 30
0.0
 11
-454.0372975048227
 21
-33.00001000000003
 31
0.0
  0
LINE
  5
FFB
330
18
100
AcDbEntity
  8
DRAW2
100
AcDbLine
 10
-430.3372775048228
 20
90.99997000000001
 30
0.0
 11
-454.0372975048228
 21
90.99997000000001
 31
0.0
  0
LINE
  5
FFC
330
18
100
AcDbEntity
  8
DRAW2
100
AcDbLine
 10
-430.3372775048228
 20
90.99997000000001
 30
0.0
 11
-430.3372775048228
 21
-33.00001000000003
 31
0.0
  0
LINE
  5
FFD
330
18
100
AcDbEntity
  8
DRAW2
100
AcDbLine
 10
-431.3372774524629
 20
-34.00001000000003
 30
0.0
 11
-431.3372774524629
 21
-53.50001000000003
 31
0.0
  0
LINE
  5
FFE
330
18
100
AcDbEntity
  8
DRAW2
100
AcDbLine
 10
-457.0372375048228
 20
90.99997000000001
 30
0.0
 11
-478.3372775048228
 21
90.99997000000001
 31
0.0
  0
LINE
  5
FFF
330
18
100
AcDbEntity
  8
DRAW2
100
AcDbLine
 10
-457.0372375048228
 20
-33.00001000000003
 30
0.0
 11
-478.3372775048228
 21
-33.00001000000003
 31
0.0
  0
LINE
  5
1001
330
18
100
AcDbEntity
  8
DRAW2
100
AcDbLine
 10
-308.7872975048228
 20
-92.50003000000001
 30
0.0
 11
-308.7872975048228
 21
-74.50003000000001
 31
0.0
  0
LINE
  5
1002
330
18
100
AcDbEntity
  8
DRAW2
100
AcDbLine
 10
-354.7872975048228
 20
-92.50003000000001
 30
0.0
 11
-354.7872975048228
 21
-86.93965000000003
 31
0.0
  0
LINE
  5
1003
330
18
100
AcDbEntity
  8
DRAW2
100
AcDbLine
 10
-477.2872975048228
 20
-92.50003000000001
 30
0.0
 11
-477.2872975048229
 21
-53.50003000000001
 31
0.0
  0
LINE
  5
1004
330
18
100
AcDbEntity
  8
DRAW2
100
AcDbLine
 10
-477.2872975048228
 20
-53.50003
 30
0.0
 11
-431.2872975048228
 21
-53.50003
 31
0.0
  0
LINE
  5
1005
330
18
100
AcDbEntity
  8
DRAW2
100
AcDbLine
 10
-431.2872975048228
 20
-92.50003000000001
 30
0.0
 11
-431.2872975048228
 21
-86.93965000000003
 31
0.0
  0
LINE
  5
1006
330
18
100
AcDbEntity
  8
DRAW2
100
AcDbLine
 10
-477.0372975048228
 20
-93.50003
 30
0.0
 11
-461.3372875048228
 21
-93.50003
 31
0.0
  0
LINE
  5
1007
330
18
100
AcDbEntity
  8
DRAW2
100
AcDbLine
 10
-291.7872975048228
 20
-89.00001000000003
 30
0.0
 11
-291.7872975048228
 21
-74.50003000000001
 31
0.0
  0
LINE
  5
1008
330
18
100
AcDbEntity
  8
DRAW2
100
AcDbLine
 10
-266.7872975048228
 20
-87.91843000000003
 30
0.0
 11
-266.7872975048228
 21
-59.08162000000001
 31
0.0
  0
LINE
  5
1009
330
18
100
AcDbEntity
  8
DRAW2
100
AcDbLine
 10
-291.7873575048228
 20
-58.00003000000001
 30
0.0
 11
-268.8672575048227
 21
-57.08324000000001
 31
0.0
  0
LINE
  5
100A
330
18
100
AcDbEntity
  8
DRAW2
100
AcDbLine
 10
-268.8672575048227
 20
-89.91684000000001
 30
0.0
 11
-291.7872975048228
 21
-89.00004
 31
0.0
  0
LINE
  5
100B
330
18
100
AcDbEntity
  8
DRAW2
100
AcDbLine
 10
-308.7872975048228
 20
-62.00003000000001
 30
0.0
 11
-298.7155275048228
 21
-62.00003000000001
 31
0.0
  0
LINE
  5
100C
330
18
100
AcDbEntity
  8
DRAW2
100
AcDbLine
 10
-308.7872975048228
 20
-85.00003000000001
 30
0.0
 11
-298.7155275048228
 21
-85.00003000000001
 31
0.0
  0
LINE
  5
100D
330
18
100
AcDbEntity
  8
DRAW2
100
AcDbLine
 10
-291.7872975048228
 20
-89.00004
 30
0.0
 11
-298.7155275048228
 21
-85.00004000000002
 31
0.0
  0
LINE
  5
100E
330
18
100
AcDbEntity
  8
DRAW2
100
AcDbLine
 10
-291.7872975048228
 20
-58.00000000000003
 30
0.0
 11
-298.7155275048228
 21
-62.00000000000002
 31
0.0
  0
LINE
  5
100F
330
18
100
AcDbEntity
  8
DRAW2
100
AcDbLine
 10
-298.7155275048228
 20
-85.00003000000001
 30
0.0
 11
-298.7155275048228
 21
-74.50003000000001
 31
0.0
  0
LINE
  5
1010
330
18
100
AcDbEntity
  8
DRAW2
100
AcDbLine
 10
-308.7872975048228
 20
-90.50004000000001
 30
0.0
 11
-285.7872975048228
 21
-89.24004
 31
0.0
  0
LINE
  5
1011
330
18
100
AcDbEntity
  8
DRAW2
100
AcDbLine
 10
-308.7872975048228
 20
-56.50003000000001
 30
0.0
 11
-285.7872975048228
 21
-57.76002
 31
0.0
  0
LINE
  5
1012
330
18
100
AcDbEntity
  8
DRAW2
100
AcDbLine
 10
-308.7872975048228
 20
-74.50003000000001
 30
0.0
 11
-291.7872975048228
 21
-74.50003000000001
 31
0.0
  0
LINE
  5
1013
330
18
100
AcDbEntity
  8
DRAW2
100
AcDbLine
 10
-308.7872975048228
 20
-72.50003000000001
 30
0.0
 11
-291.7872975048228
 21
-72.50003000000001
 31
0.0
  0
LINE
  5
1014
330
18
100
AcDbEntity
  8
DRAW2
100
AcDbLine
 10
-308.7872975048228
 20
-72.50003000000001
 30
0.0
 11
-308.7872975048228
 21
-53.50003
 31
0.0
  0
LINE
  5
1015
330
18
100
AcDbEntity
  8
DRAW2
100
AcDbLine
 10
-298.7155275048228
 20
-72.50003000000001
 30
0.0
 11
-298.7155275048228
 21
-62.00003000000001
 31
0.0
  0
LINE
  5
1016
330
18
100
AcDbEntity
  8
DRAW2
100
AcDbLine
 10
-291.7872975048228
 20
-72.50003000000001
 30
0.0
 11
-291.7872975048228
 21
-58.00003000000001
 31
0.0
  0
LINE
  5
1017
330
18
100
AcDbEntity
  8
DRAW2
100
AcDbLine
 10
-431.2872975048228
 20
-74.75003
 30
0.0
 11
-393.0372625982379
 21
-74.75003
 31
0.0
  0
LINE
  5
101C
330
18
100
AcDbEntity
  8
DRAW2
100
AcDbLine
 10
-431.2872975048228
 20
-72.25001000000003
 30
0.0
 11
-431.2872975048228
 21
-64.34169
 31
0.0
  0
LINE
  5
101D
330
18
100
AcDbEntity
  8
DRAW2
100
AcDbLine
 10
-354.7872975048228
 20
-72.25001000000003
 30
0.0
 11
-354.7872975048228
 21
-64.34169
 31
0.0
  0
LINE
  5
101E
330
18
100
AcDbEntity
  8
DRAW2
100
AcDbLine
 10
-431.2872975048228
 20
-82.65835
 30
0.0
 11
-431.2872975048228
 21
-74.75003
 31
0.0
  0
LINE
  5
101F
330
18
100
AcDbEntity
  8
DRAW2
100
AcDbLine
 10
-432.4849975048228
 20
-82.77523999999999
 30
0.0
 11
-434.3712275048228
 21
-85.55879000000002
 31
0.0
  0
LINE
  5
1030
330
18
100
AcDbEntity
  8
DRAW2
100
AcDbLine
 10
-432.4849975048228
 20
-64.22479000000001
 30
0.0
 11
-434.3712275048228
 21
-61.44127000000001
 31
0.0
  0
LINE
  5
1039
330
18
100
AcDbEntity
  8
DRAW2
100
AcDbLine
 10
-431.2872975048228
 20
-72.25001000000003
 30
0.0
 11
-393.0372625982379
 21
-72.25001000000003
 31
0.0
  0
LINE
  5
103D
330
18
100
AcDbEntity
  8
DRAW2
100
AcDbLine
 10
-431.2872975048228
 20
-60.06039000000001
 30
0.0
 11
-431.2872975048228
 21
-53.50003
 31
0.0
  0
LINE
  5
103E
330
18
100
AcDbEntity
  8
DRAW2
100
AcDbLine
 10
-353.5896075048227
 20
-82.77521000000001
 30
0.0
 11
-351.7033775048228
 21
-85.55875
 31
0.0
  0
LINE
  5
1049
330
18
100
AcDbEntity
  8
DRAW2
100
AcDbLine
 10
-353.5896075048227
 20
-64.22479000000001
 30
0.0
 11
-351.7033775048228
 21
-61.44125000000002
 31
0.0
  0
LINE
  5
1056
330
18
100
AcDbEntity
  8
DRAW2
100
AcDbLine
 10
-354.7872975048228
 20
-74.75003
 30
0.0
 11
-393.0372625982379
 21
-74.75003
 31
0.0
  0
LINE
  5
1057
330
18
100
AcDbEntity
  8
DRAW2
100
AcDbLine
 10
-354.7872975048228
 20
-72.25001000000003
 30
0.0
 11
-393.0372625982379
 21
-72.25001000000003
 31
0.0
  0
LINE
  5
105A
330
18
100
AcDbEntity
  8
DRAW2
100
AcDbLine
 10
-354.7872975048228
 20
-82.65835
 30
0.0
 11
-354.7872975048228
 21
-74.75003
 31
0.0
  0
LINE
  5
105B
330
18
100
AcDbEntity
  8
DRAW2
100
AcDbLine
 10
-477.2872975048228
 20
-92.50003000000001
 30
0.0
 11
-460.9655275048228
 21
-92.50003000000001
 31
0.0
  0
LINE
  5
105C
330
18
100
AcDbEntity
  8
DRAW2
100
AcDbLine
 10
-446.3004875048227
 20
-73.50001000000003
 30
0.0
 11
-431.2874275048228
 21
-74.75000000000003
 31
0.0
  0
LINE
  5
105D
330
18
100
AcDbEntity
  8
DRAW2
100
AcDbLine
 10
-446.3005475048228
 20
-73.50003
 30
0.0
 11
-431.2872975048228
 21
-72.25003
 31
0.0
  0
LINE
  5
105E
330
18
100
AcDbEntity
  8
DRAW2
100
AcDbLine
 10
-339.7741175048228
 20
-73.50001000000003
 30
0.0
 11
-354.7872975048228
 21
-72.25001000000003
 31
0.0
  0
LINE
  5
105F
330
18
100
AcDbEntity
  8
DRAW2
100
AcDbLine
 10
-339.7740575048228
 20
-73.50003
 30
0.0
 11
-354.7872975048228
 21
-74.75003
 31
0.0
  0
LINE
  5
1060
330
18
100
AcDbEntity
  8
DRAW2
100
AcDbLine
 10
-280.4872475048227
 20
-73.50001000000003
 30
0.0
 11
-291.7873575048228
 21
-74.50001000000003
 31
0.0
  0
LINE
  5
1061
330
18
100
AcDbEntity
  8
DRAW2
100
AcDbLine
 10
-280.4873775048227
 20
-73.50001000000003
 30
0.0
 11
-291.7872975048228
 21
-72.50001000000003
 31
0.0
  0
LINE
  5
1063
330
18
100
AcDbEntity
  8
DRAW2
100
AcDbLine
 10
-324.3308775048228
 20
-73.50003
 30
0.0
 11
-308.7873575048228
 21
-72.50003000000001
 31
0.0
  0
LINE
  5
1064
330
18
100
AcDbEntity
  8
DRAW2
100
AcDbLine
 10
-324.3308175048229
 20
-73.50003
 30
0.0
 11
-308.7872975048228
 21
-74.50001000000003
 31
0.0
  0
LINE
  5
1065
330
18
100
AcDbEntity
  8
DRAW2
100
AcDbLine
 10
-308.7872975048228
 20
-53.50003
 30
0.0
 11
-354.5372675048228
 21
-53.50003
 31
0.0
  0
LINE
  5
1066
330
18
100
AcDbEntity
  8
DRAW2
100
AcDbLine
 10
-354.5372675048228
 20
-60.06037000000003
 30
0.0
 11
-354.5372675048228
 21
-33.00001000000003
 31
0.0
  0
LINE
  5
1067
330
18
100
AcDbEntity
  8
DRAW2
100
AcDbLine
 10
-431.3372774524629
 20
-54.50003000000001
 30
0.0
 11
-431.3372774524629
 21
-34.00001000000003
 31
0.0
  0
LINE
  5
1068
330
18
100
AcDbEntity
  8
DRAW2
100
AcDbLine
 10
-355.2873275048228
 20
-112.50001
 30
0.0
 11
-309.2873275048228
 21
-112.50001
 31
0.0
  0
LINE
  5
1069
330
18
100
AcDbEntity
  8
DRAW2
100
AcDbLine
 10
-355.2873275048228
 20
-112.50001
 30
0.0
 11
-355.2873275048228
 21
-93.50003
 31
0.0
  0
LINE
  5
106A
330
18
100
AcDbEntity
  8
DRAW2
100
AcDbLine
 10
-309.2873275048228
 20
-112.50001
 30
0.0
 11
-309.2873275048228
 21
-93.50003
 31
0.0
  0
LINE
  5
106B
330
18
100
AcDbEntity
  8
DRAW2
100
AcDbLine
 10
-313.2873275048228
 20
-103.7198199999999
 30
0.0
 11
-351.2873275048228
 21
-103.7198199999999
 31
0.0
  0
LINE
  5
106C
330
18
100
AcDbEntity
  8
DRAW2
100
AcDbLine
 10
-440.3291075048228
 20
-127.50002
 30
0.0
 11
-467.7456175048227
 21
-127.50002
 31
0.0
  0
LINE
  5
106D
330
18
100
AcDbEntity
  8
DRAW2
100
AcDbLine
 10
-469.2289475048228
 20
-126.22252
 30
0.0
 11
-471.2872975048228
 21
-112.50001
 31
0.0
  0
LINE
  5
106E
330
18
100
AcDbEntity
  8
DRAW2
100
AcDbLine
 10
-438.8456475048228
 20
-126.22253
 30
0.0
 11
-436.7872975048228
 21
-112.50003
 31
0.0
  0
LINE
  5
106F
330
18
100
AcDbEntity
  8
DRAW2
100
AcDbLine
 10
-460.9655275048228
 20
-86.96480000000002
 30
0.0
 11
-460.9655275048228
 21
-92.90004000000001
 31
0.0
  0
LINE
  5
1070
330
18
100
AcDbEntity
  8
DRAW2
100
AcDbLine
 10
-457.5014075048228
 20
-86.96480000000002
 30
0.0
 11
-457.5014075048228
 21
-92.90004000000001
 31
0.0
  0
LINE
  5
1071
330
18
100
AcDbEntity
  8
DRAW2
100
AcDbLine
 10
-450.5732475048228
 20
-86.96480000000002
 30
0.0
 11
-450.5732475048228
 21
-92.90004000000001
 31
0.0
  0
LINE
  5
1072
330
18
100
AcDbEntity
  8
DRAW2
100
AcDbLine
 10
-447.1091975048229
 20
-86.96480000000002
 30
0.0
 11
-447.1091975048229
 21
-92.90004000000001
 31
0.0
  0
LINE
  5
1074
330
18
100
AcDbEntity
  8
DRAW2
100
AcDbLine
 10
-448.0872875048228
 20
-86.40001000000003
 30
0.0
 11
-459.9872475048227
 21
-86.40001000000003
 31
0.0
  0
LINE
  5
1075
330
18
100
AcDbEntity
  8
DRAW2
100
AcDbLine
 10
-459.9873175048228
 20
-86.40004000000002
 30
0.0
 11
-460.9655275048228
 21
-86.96480000000002
 31
0.0
  0
LINE
  5
1076
330
18
100
AcDbEntity
  8
DRAW2
100
AcDbLine
 10
-448.0873475048228
 20
-86.39999000000001
 30
0.0
 11
-447.1091375048228
 21
-86.96478000000002
 31
0.0
  0
LINE
  5
107D
330
18
100
AcDbEntity
  8
DRAW2
100
AcDbLine
 10
-477.0372975048228
 20
-112.50001
 30
0.0
 11
-431.0372975048228
 21
-112.50001
 31
0.0
  0
LINE
  5
107E
330
18
100
AcDbEntity
  8
DRAW2
100
AcDbLine
 10
-477.0372975048228
 20
-112.50001
 30
0.0
 11
-477.0372975048228
 21
-93.50003
 31
0.0
  0
LINE
  5
107F
330
18
100
AcDbEntity
  8
DRAW2
100
AcDbLine
 10
-431.0372975048228
 20
-112.50001
 30
0.0
 11
-431.0372975048228
 21
-93.50003
 31
0.0
  0
LINE
  5
1080
330
18
100
AcDbEntity
  8
DRAW2
100
AcDbLine
 10
-475.0372975048228
 20
-96.50001000000003
 30
0.0
 11
-433.0372975048228
 21
-96.50001000000003
 31
0.0
  0
LINE
  5
1081
330
18
100
AcDbEntity
  8
DRAW2
100
AcDbLine
 10
-463.0372975048228
 20
-96.50001000000003
 30
0.0
 11
-463.0372975048228
 21
-100.7198
 31
0.0
  0
LINE
  5
1082
330
18
100
AcDbEntity
  8
DRAW2
100
AcDbLine
 10
-445.0373575048228
 20
-96.50001000000003
 30
0.0
 11
-445.0373575048228
 21
-100.7198
 31
0.0
  0
LINE
  5
1083
330
18
100
AcDbEntity
  8
DRAW2
100
AcDbLine
 10
-435.0372975048228
 20
-103.7198199999999
 30
0.0
 11
-473.0372375048228
 21
-103.7198199999999
 31
0.0
  0
LINE
  5
1084
330
18
100
AcDbEntity
  8
DRAW2
100
AcDbLine
 10
-446.7373075048228
 20
-93.50003
 30
0.0
 11
-431.0372975048228
 21
-93.50002999999999
 31
0.0
  0
LINE
  5
1085
330
18
100
AcDbEntity
  8
DRAW2
100
AcDbLine
 10
-98.60964890997138
 20
25.53588999999999
 30
0.0
 11
-104.6096489099713
 21
22.07180999999997
 31
0.0
  0
LINE
  5
1086
330
18
100
AcDbEntity
  8
DRAW2
100
AcDbLine
 10
-98.60964890997138
 20
32.46411
 30
0.0
 11
-98.60964890997138
 21
25.53586000000001
 31
0.0
  0
LINE
  5
1087
330
18
100
AcDbEntity
  8
DRAW2
100
AcDbLine
 10
-104.6096489099713
 20
35.92815999999999
 30
0.0
 11
-98.60964890997138
 21
32.46404999999998
 31
0.0
  0
LINE
  5
1088
330
18
100
AcDbEntity
  8
DRAW2
100
AcDbLine
 10
-110.6096489099713
 20
32.46407999999997
 30
0.0
 11
-104.6096489099713
 21
35.92815999999999
 31
0.0
  0
LINE
  5
1089
330
18
100
AcDbEntity
  8
DRAW2
100
AcDbLine
 10
-110.6096789099713
 20
25.53586000000001
 30
0.0
 11
-110.6096789099713
 21
32.46411
 31
0.0
  0
LINE
  5
108A
330
18
100
AcDbEntity
  8
DRAW2
100
AcDbLine
 10
-104.6096189099714
 20
22.07175
 30
0.0
 11
-110.6096489099713
 21
25.53586000000001
 31
0.0
  0
LINE
  5
108B
330
18
100
AcDbEntity
  8
DRAW2
100
AcDbLine
 10
-67.60964890997138
 20
79.22942999999998
 30
0.0
 11
-73.60967890997136
 21
75.76532000000003
 31
0.0
  0
LINE
  5
108C
330
18
100
AcDbEntity
  8
DRAW2
100
AcDbLine
 10
-67.60964890997138
 20
86.15764999999999
 30
0.0
 11
-67.60964890997138
 21
79.22942999999998
 31
0.0
  0
LINE
  5
108D
330
18
100
AcDbEntity
  8
DRAW2
100
AcDbLine
 10
-73.60964890997138
 20
89.62173999999999
 30
0.0
 11
-67.6096189099714
 21
86.15762000000001
 31
0.0
  0
LINE
  5
108E
330
18
100
AcDbEntity
  8
DRAW2
100
AcDbLine
 10
-79.60967890997136
 20
86.15764999999999
 30
0.0
 11
-73.60964890997138
 21
89.62177000000002
 31
0.0
  0
LINE
  5
108F
330
18
100
AcDbEntity
  8
DRAW2
100
AcDbLine
 10
-79.60964890997138
 20
79.22942999999998
 30
0.0
 11
-79.60964890997138
 21
86.15764999999999
 31
0.0
  0
LINE
  5
1090
330
18
100
AcDbEntity
  8
DRAW2
100
AcDbLine
 10
-73.6096189099714
 20
75.76532000000003
 30
0.0
 11
-79.60964890997138
 21
79.22942999999998
 31
0.0
  0
LINE
  5
1091
330
18
100
AcDbEntity
  8
DRAW2
100
AcDbLine
 10
-5.609678909971364
 20
79.22946000000002
 30
0.0
 11
-11.60964890997138
 21
75.76537999999999
 31
0.0
  0
LINE
  5
1092
330
18
100
AcDbEntity
  8
DRAW2
100
AcDbLine
 10
-5.609648909971383
 20
86.15764999999999
 30
0.0
 11
-5.609648909971383
 21
79.22942999999998
 31
0.0
  0
LINE
  5
1093
330
18
100
AcDbEntity
  8
DRAW2
100
AcDbLine
 10
-11.60964890997138
 20
89.62173999999999
 30
0.0
 11
-5.609648909971383
 21
86.15764999999999
 31
0.0
  0
LINE
  5
1094
330
18
100
AcDbEntity
  8
DRAW2
100
AcDbLine
 10
-17.60964890997138
 20
86.15764999999999
 30
0.0
 11
-11.60967890997136
 21
89.62173999999999
 31
0.0
  0
LINE
  5
1095
330
18
100
AcDbEntity
  8
DRAW2
100
AcDbLine
 10
-17.60964890997138
 20
79.22942999999998
 30
0.0
 11
-17.60964890997138
 21
86.15764999999999
 31
0.0
  0
LINE
  5
1096
330
18
100
AcDbEntity
  8
DRAW2
100
AcDbLine
 10
-11.60964890997138
 20
75.76537999999999
 30
0.0
 11
-17.60964890997138
 21
79.22946000000002
 31
0.0
  0
LINE
  5
1097
330
18
100
AcDbEntity
  8
DRAW2
100
AcDbLine
 10
25.39033109002867
 20
25.53586000000001
 30
0.0
 11
19.39036109002864
 21
22.07177999999998
 31
0.0
  0
LINE
  5
1098
330
18
100
AcDbEntity
  8
DRAW2
100
AcDbLine
 10
25.39032109002869
 20
32.46411
 30
0.0
 11
25.39032109002869
 21
25.53586000000001
 31
0.0
  0
LINE
  5
1099
330
18
100
AcDbEntity
  8
DRAW2
100
AcDbLine
 10
19.39035109002861
 20
35.92815999999999
 30
0.0
 11
25.39033109002867
 21
32.46407999999997
 31
0.0
  0
LINE
  5
109A
330
18
100
AcDbEntity
  8
DRAW2
100
AcDbLine
 10
13.39035109002861
 20
32.46411
 30
0.0
 11
19.39032109002869
 21
35.92818999999997
 31
0.0
  0
LINE
  5
109B
330
18
100
AcDbEntity
  8
DRAW2
100
AcDbLine
 10
13.39033109002866
 20
25.53586000000001
 30
0.0
 11
13.39033109002866
 21
32.46411
 31
0.0
  0
LINE
  5
109C
330
18
100
AcDbEntity
  8
DRAW2
100
AcDbLine
 10
19.39033109002866
 20
22.07177999999998
 30
0.0
 11
13.39035109002861
 21
25.53586000000001
 31
0.0
  0
LINE
  5
109D
330
18
100
AcDbEntity
  8
DRAW2
100
AcDbLine
 10
-5.609648909971383
 20
-28.15771000000003
 30
0.0
 11
-11.60967890997136
 21
-31.62182999999998
 31
0.0
  0
LINE
  5
109E
330
18
100
AcDbEntity
  8
DRAW2
100
AcDbLine
 10
-5.609648909971383
 20
-21.22947999999999
 30
0.0
 11
-5.609648909971383
 21
-28.15771000000003
 31
0.0
  0
LINE
  5
109F
330
18
100
AcDbEntity
  8
DRAW2
100
AcDbLine
 10
-11.60964890997138
 20
-17.76540000000002
 30
0.0
 11
-5.609678909971364
 21
-21.22948999999999
 31
0.0
  0
LINE
  5
10A0
330
18
100
AcDbEntity
  8
DRAW2
100
AcDbLine
 10
-17.60967890997136
 20
-21.22952000000003
 30
0.0
 11
-11.60964890997138
 21
-17.76541000000003
 31
0.0
  0
LINE
  5
10A1
330
18
100
AcDbEntity
  8
DRAW2
100
AcDbLine
 10
-17.60964890997138
 20
-28.15771000000003
 30
0.0
 11
-17.60964890997138
 21
-21.22947999999999
 31
0.0
  0
LINE
  5
10A2
330
18
100
AcDbEntity
  8
DRAW2
100
AcDbLine
 10
-11.60964890997138
 20
-31.62179
 30
0.0
 11
-17.60964890997138
 21
-28.1577
 31
0.0
  0
LINE
  5
10A4
330
18
100
AcDbEntity
  8
DRAW2
100
AcDbLine
 10
-339.2155575048228
 20
-86.96480000000002
 30
0.0
 11
-339.2155575048228
 21
-92.90004000000001
 31
0.0
  0
LINE
  5
10A5
330
18
100
AcDbEntity
  8
DRAW2
100
AcDbLine
 10
-335.7514375048228
 20
-86.96480000000002
 30
0.0
 11
-335.7514375048228
 21
-92.90004000000001
 31
0.0
  0
LINE
  5
10A6
330
18
100
AcDbEntity
  8
DRAW2
100
AcDbLine
 10
-328.8232175048227
 20
-86.96480000000002
 30
0.0
 11
-328.8232175048227
 21
-92.90004000000001
 31
0.0
  0
LINE
  5
10A7
330
18
100
AcDbEntity
  8
DRAW2
100
AcDbLine
 10
-325.3591675048227
 20
-86.96480000000002
 30
0.0
 11
-325.3591675048227
 21
-92.90004000000001
 31
0.0
  0
LINE
  5
10A9
330
18
100
AcDbEntity
  8
DRAW2
100
AcDbLine
 10
-326.3373775048227
 20
-86.40001000000003
 30
0.0
 11
-338.2374075048228
 21
-86.40001000000003
 31
0.0
  0
LINE
  5
10AA
330
18
100
AcDbEntity
  8
DRAW2
100
AcDbLine
 10
-338.2373475048228
 20
-86.40004000000002
 30
0.0
 11
-339.2155575048228
 21
-86.96478000000002
 31
0.0
  0
LINE
  5
10AB
330
18
100
AcDbEntity
  8
DRAW2
100
AcDbLine
 10
-326.3373775048227
 20
-86.39999000000001
 30
0.0
 11
-325.3591075048228
 21
-86.96478000000002
 31
0.0
  0
LINE
  5
10B2
330
18
100
AcDbEntity
  8
DRAW2
100
AcDbLine
 10
-355.2873275048228
 20
-93.50003000000004
 30
0.0
 11
-339.5873175048228
 21
-93.50003
 31
0.0
  0
LINE
  5
10B3
330
18
100
AcDbEntity
  8
DRAW2
100
AcDbLine
 10
-353.2873275048228
 20
-96.50001000000003
 30
0.0
 11
-311.2873875048228
 21
-96.50001000000003
 31
0.0
  0
LINE
  5
10B4
330
18
100
AcDbEntity
  8
DRAW2
100
AcDbLine
 10
-341.2873275048228
 20
-96.50001000000003
 30
0.0
 11
-341.2873275048228
 21
-100.7198
 31
0.0
  0
LINE
  5
10B5
330
18
100
AcDbEntity
  8
DRAW2
100
AcDbLine
 10
-323.2873275048228
 20
-96.50001000000003
 30
0.0
 11
-323.2873275048228
 21
-100.7198
 31
0.0
  0
LINE
  5
10B6
330
18
100
AcDbEntity
  8
DRAW2
100
AcDbLine
 10
-324.9873375048228
 20
-93.50003
 30
0.0
 11
-309.2873275048228
 21
-93.50003
 31
0.0
  0
LINE
  5
10B7
330
18
100
AcDbEntity
  8
DRAW2
100
AcDbLine
 10
-339.2155575048228
 20
-92.50002999999999
 30
0.0
 11
-354.7872975048228
 21
-92.50003000000001
 31
0.0
  0
LINE
  5
10C6
330
18
100
AcDbEntity
  8
DRAW2
100
AcDbLine
 10
-430.2373075048229
 20
89.0
 30
0.0
 11
-430.2373075048229
 21
-31.00001000000003
 31
0.0
  0
LINE
  5
10C7
330
18
100
AcDbEntity
  8
DRAW2
100
AcDbLine
 10
-428.2373675048228
 20
90.99997000000001
 30
0.0
 11
-359.9372575048228
 21
90.99997000000001
 31
0.0
  0
LINE
  5
10C8
330
18
100
AcDbEntity
  8
DRAW2
100
AcDbLine
 10
-357.9372575048228
 20
89.0
 30
0.0
 11
-357.9372575048228
 21
-31.00001000000003
 31
0.0
  0
LINE
  5
10DA
330
18
100
AcDbEntity
  8
DRAW2
100
AcDbLine
 10
-428.2373675048228
 20
-33.00001000000003
 30
0.0
 11
-359.9372575048228
 21
-33.00001000000003
 31
0.0
  0
LINE
  5
10DD
330
18
100
AcDbEntity
  8
DRAW2
100
AcDbLine
 10
-21.6096189099714
 20
168.87494
 30
0.0
 11
-21.6096189099714
 21
161.6000099999999
 31
0.0
  0
LINE
  5
10DE
330
18
100
AcDbEntity
  8
DRAW3
100
AcDbLine
 10
-20.9846189099714
 20
169.5
 30
0.0
 11
-20.9846189099714
 21
161.6000099999999
 31
0.0
  0
LINE
  5
10DF
330
18
100
AcDbEntity
  8
DRAW2
100
AcDbLine
 10
-21.6096189099714
 20
168.87494
 30
0.0
 11
-13.60964890997138
 21
168.87494
 31
0.0
  0
LINE
  5
10E0
330
18
100
AcDbEntity
  8
DRAW2
100
AcDbLine
 10
-20.9846189099714
 20
169.5
 30
0.0
 11
-14.23467890997136
 21
169.5
 31
0.0
  0
LINE
  5
10E1
330
18
100
AcDbEntity
  8
DRAW2
100
AcDbLine
 10
-20.98455890997138
 20
169.4999099999999
 30
0.0
 11
-21.60955890997138
 21
168.8749099999999
 31
0.0
  0
LINE
  5
10E2
330
18
100
AcDbEntity
  8
DRAW2
100
AcDbLine
 10
-13.60964890997138
 20
168.87494
 30
0.0
 11
-13.60964890997138
 21
161.6000099999999
 31
0.0
  0
LINE
  5
10E3
330
18
100
AcDbEntity
  8
DRAW3
100
AcDbLine
 10
-14.23467890997136
 20
169.5
 30
0.0
 11
-14.23467890997136
 21
161.6000099999999
 31
0.0
  0
LINE
  5
10E4
330
18
100
AcDbEntity
  8
DRAW2
100
AcDbLine
 10
-14.23464890997138
 20
169.49997
 30
0.0
 11
-13.6096189099714
 21
168.87494
 31
0.0
  0
LINE
  5
1103
330
18
100
AcDbEntity
  8
DRAW2
100
AcDbLine
 10
-485.7224375048228
 20
-17.76536000000001
 30
0.0
 11
-481.2872575048228
 21
-17.76536000000001
 31
0.0
  0
LINE
  5
1104
330
18
100
AcDbEntity
  8
DRAW2
100
AcDbLine
 10
-485.7224375048228
 20
-21.22947999999999
 30
0.0
 11
-481.2872575048228
 21
-21.22947999999999
 31
0.0
  0
LINE
  5
1105
330
18
100
AcDbEntity
  8
DRAW2
100
AcDbLine
 10
-485.7224375048228
 20
-28.15771000000003
 30
0.0
 11
-481.2872575048228
 21
-28.15771000000003
 31
0.0
  0
LINE
  5
1106
330
18
100
AcDbEntity
  8
DRAW2
100
AcDbLine
 10
-485.7224375048228
 20
-31.62178
 30
0.0
 11
-481.2872575048228
 21
-31.62178
 31
0.0
  0
LINE
  5
1107
330
18
100
AcDbEntity
  8
DRAW2
100
AcDbLine
 10
-481.2872575048228
 20
-33.19359
 30
0.0
 11
-481.2872575048228
 21
-16.1936
 31
0.0
  0
LINE
  5
1108
330
18
100
AcDbEntity
  8
DRAW2
100
AcDbLine
 10
-486.2872575048228
 20
-30.64357000000004
 30
0.0
 11
-486.2872575048228
 21
-18.74358
 31
0.0
  0
LINE
  5
1109
330
18
100
AcDbEntity
  8
DRAW2
100
AcDbLine
 10
-486.2872575048228
 20
-18.74358
 30
0.0
 11
-485.7224975048228
 21
-17.76537999999999
 31
0.0
  0
LINE
  5
110A
330
18
100
AcDbEntity
  8
DRAW2
100
AcDbLine
 10
-486.2873175048228
 20
-30.64360000000002
 30
0.0
 11
-485.7224975048228
 21
-31.62183999999999
 31
0.0
  0
LINE
  5
110F
330
18
100
AcDbEntity
  8
DRAW2
100
AcDbLine
 10
-481.2872575048228
 20
-33.19359
 30
0.0
 11
-478.3372775048228
 21
-33.19359
 31
0.0
  0
LINE
  5
1110
330
18
100
AcDbEntity
  8
DRAW2
100
AcDbLine
 10
-481.2872575048228
 20
-16.1936
 30
0.0
 11
-478.3372775048228
 21
-16.1936
 31
0.0
  0
LINE
  5
113D
330
18
100
AcDbEntity
  8
DRAW2
100
AcDbLine
 10
-458.0372975048228
 20
-86.40001000000003
 30
0.0
 11
-458.0372975048228
 21
-85.12506000000001
 31
0.0
  0
LINE
  5
113E
330
18
100
AcDbEntity
  8
DRAW3
100
AcDbLine
 10
-457.4122375048228
 20
-86.40001000000003
 30
0.0
 11
-457.4122375048228
 21
-84.50006000000001
 31
0.0
  0
LINE
  5
113F
330
18
100
AcDbEntity
  8
DRAW2
100
AcDbLine
 10
-457.4122375048228
 20
-84.50006000000001
 30
0.0
 11
-450.6622975048228
 21
-84.50006000000001
 31
0.0
  0
LINE
  5
1140
330
18
100
AcDbEntity
  8
DRAW2
100
AcDbLine
 10
-457.4122975048228
 20
-84.50012
 30
0.0
 11
-458.0372975048228
 21
-85.12508999999999
 31
0.0
  0
LINE
  5
1141
330
18
100
AcDbEntity
  8
DRAW2
100
AcDbLine
 10
-450.0372975048228
 20
-86.40001000000003
 30
0.0
 11
-450.0372975048228
 21
-85.12506000000001
 31
0.0
  0
LINE
  5
1142
330
18
100
AcDbEntity
  8
DRAW3
100
AcDbLine
 10
-450.6622975048228
 20
-86.40001000000003
 30
0.0
 11
-450.6622975048228
 21
-84.50006000000001
 31
0.0
  0
LINE
  5
1143
330
18
100
AcDbEntity
  8
DRAW2
100
AcDbLine
 10
-450.6622975048228
 20
-84.50012
 30
0.0
 11
-450.0373575048228
 21
-85.12508999999999
 31
0.0
  0
LINE
  5
115A
330
18
100
AcDbEntity
  8
DRAW2
100
AcDbLine
 10
-446.9091775048228
 20
161.0352199999999
 30
0.0
 11
-446.9091775048228
 21
155.0999799999999
 31
0.0
  0
LINE
  5
115B
330
18
100
AcDbEntity
  8
DRAW2
100
AcDbLine
 10
-450.3732275048228
 20
161.0352199999999
 30
0.0
 11
-450.3732275048228
 21
155.0999799999999
 31
0.0
  0
LINE
  5
115C
330
18
100
AcDbEntity
  8
DRAW2
100
AcDbLine
 10
-457.3013875048228
 20
161.0352199999999
 30
0.0
 11
-457.3013875048228
 21
155.0999799999999
 31
0.0
  0
LINE
  5
115D
330
18
100
AcDbEntity
  8
DRAW2
100
AcDbLine
 10
-460.7655075048228
 20
161.0352199999999
 30
0.0
 11
-460.7655075048228
 21
155.0999799999999
 31
0.0
  0
LINE
  5
115F
330
18
100
AcDbEntity
  8
DRAW2
100
AcDbLine
 10
-459.7872275048228
 20
161.5999799999999
 30
0.0
 11
-447.8872675048228
 21
161.5999799999999
 31
0.0
  0
LINE
  5
1160
330
18
100
AcDbEntity
  8
DRAW2
100
AcDbLine
 10
-447.8873275048227
 20
161.6000399999999
 30
0.0
 11
-446.9091175048228
 21
161.0352499999999
 31
0.0
  0
LINE
  5
1161
330
18
100
AcDbEntity
  8
DRAW2
100
AcDbLine
 10
-459.7872975048228
 20
161.5999799999999
 30
0.0
 11
-460.7655075048228
 21
161.0352199999999
 31
0.0
  0
LINE
  5
1168
330
18
100
AcDbEntity
  8
DRAW3
100
AcDbLine
 10
-457.2122175048227
 20
169.5
 30
0.0
 11
-457.2122175048228
 21
161.5999799999999
 31
0.0
  0
LINE
  5
1169
330
18
100
AcDbEntity
  8
DRAW2
100
AcDbLine
 10
-457.8372775048229
 20
168.87494
 30
0.0
 11
-457.8372775048229
 21
161.5999799999999
 31
0.0
  0
LINE
  5
116A
330
18
100
AcDbEntity
  8
DRAW2
100
AcDbLine
 10
-457.8372775048229
 20
168.87494
 30
0.0
 11
-449.8372775048228
 21
168.87494
 31
0.0
  0
LINE
  5
116B
330
18
100
AcDbEntity
  8
DRAW2
100
AcDbLine
 10
-457.2122175048227
 20
169.5
 30
0.0
 11
-450.4622775048228
 21
169.5
 31
0.0
  0
LINE
  5
116C
330
18
100
AcDbEntity
  8
DRAW2
100
AcDbLine
 10
-457.2121575048227
 20
169.49994
 30
0.0
 11
-457.8371575048228
 21
168.8749099999999
 31
0.0
  0
LINE
  5
116D
330
18
100
AcDbEntity
  8
DRAW3
100
AcDbLine
 10
-450.4622775048228
 20
169.5
 30
0.0
 11
-450.4622775048229
 21
161.5999799999999
 31
0.0
  0
LINE
  5
116E
330
18
100
AcDbEntity
  8
DRAW2
100
AcDbLine
 10
-449.8372775048228
 20
168.87494
 30
0.0
 11
-449.8372775048228
 21
161.5999799999999
 31
0.0
  0
LINE
  5
116F
330
18
100
AcDbEntity
  8
DRAW2
100
AcDbLine
 10
-450.4623375048228
 20
169.5000299999999
 30
0.0
 11
-449.8373375048227
 21
168.8749999999999
 31
0.0
  0
LINE
  5
1171
330
18
100
AcDbEntity
  8
DRAW3
100
AcDbLine
 10
-70.98464890997139
 20
169.5
 30
0.0
 11
-70.98464890997139
 21
161.6000099999999
 31
0.0
  0
LINE
  5
1172
330
18
100
AcDbEntity
  8
DRAW2
100
AcDbLine
 10
-71.6096189099714
 20
168.87494
 30
0.0
 11
-71.6096189099714
 21
161.6000099999999
 31
0.0
  0
LINE
  5
1173
330
18
100
AcDbEntity
  8
DRAW2
100
AcDbLine
 10
-71.6096189099714
 20
168.87494
 30
0.0
 11
-63.60964890997138
 21
168.87494
 31
0.0
  0
LINE
  5
1174
330
18
100
AcDbEntity
  8
DRAW2
100
AcDbLine
 10
-70.98464890997139
 20
169.5
 30
0.0
 11
-64.23467890997136
 21
169.5
 31
0.0
  0
LINE
  5
1175
330
18
100
AcDbEntity
  8
DRAW2
100
AcDbLine
 10
-70.98449890997136
 20
169.4999099999999
 30
0.0
 11
-71.60949890997136
 21
168.8748799999999
 31
0.0
  0
LINE
  5
1176
330
18
100
AcDbEntity
  8
DRAW3
100
AcDbLine
 10
-64.23467890997136
 20
169.5
 30
0.0
 11
-64.23467890997136
 21
161.6000099999999
 31
0.0
  0
LINE
  5
1177
330
18
100
AcDbEntity
  8
DRAW2
100
AcDbLine
 10
-63.60964890997138
 20
168.87494
 30
0.0
 11
-63.60964890997138
 21
161.6000099999999
 31
0.0
  0
LINE
  5
1178
330
18
100
AcDbEntity
  8
DRAW2
100
AcDbLine
 10
-64.23464890997138
 20
169.49994
 30
0.0
 11
-63.6096189099714
 21
168.87494
 31
0.0
  0
LINE
  5
1179
330
18
100
AcDbEntity
  8
DRAW2
100
AcDbLine
 10
-325.3591375048228
 20
161.0352199999999
 30
0.0
 11
-325.3591375048228
 21
155.0999799999999
 31
0.0
  0
LINE
  5
117A
330
18
100
AcDbEntity
  8
DRAW2
100
AcDbLine
 10
-328.8232475048228
 20
161.0352199999999
 30
0.0
 11
-328.8232475048228
 21
155.0999799999999
 31
0.0
  0
LINE
  5
117B
330
18
100
AcDbEntity
  8
DRAW2
100
AcDbLine
 10
-335.7514075048228
 20
161.0352199999999
 30
0.0
 11
-335.7514075048228
 21
155.0999799999999
 31
0.0
  0
LINE
  5
117C
330
18
100
AcDbEntity
  8
DRAW2
100
AcDbLine
 10
-339.2155275048228
 20
161.0352199999999
 30
0.0
 11
-339.2155275048228
 21
155.0999799999999
 31
0.0
  0
LINE
  5
117E
330
18
100
AcDbEntity
  8
DRAW2
100
AcDbLine
 10
-338.2373775048228
 20
161.5999799999999
 30
0.0
 11
-326.3373475048227
 21
161.5999799999999
 31
0.0
  0
LINE
  5
117F
330
18
100
AcDbEntity
  8
DRAW2
100
AcDbLine
 10
-326.3372275048228
 20
161.5999499999999
 30
0.0
 11
-325.3590775048228
 21
161.0352199999999
 31
0.0
  0
LINE
  5
1180
330
18
100
AcDbEntity
  8
DRAW2
100
AcDbLine
 10
-338.2373175048228
 20
161.5999799999999
 30
0.0
 11
-339.2155275048228
 21
161.0351899999999
 31
0.0
  0
LINE
  5
1187
330
18
100
AcDbEntity
  8
DRAW3
100
AcDbLine
 10
-335.6622975048228
 20
169.5
 30
0.0
 11
-335.6622975048228
 21
161.5999799999999
 31
0.0
  0
LINE
  5
1188
330
18
100
AcDbEntity
  8
DRAW2
100
AcDbLine
 10
-336.2873575048228
 20
168.87494
 30
0.0
 11
-336.2873575048228
 21
161.5999799999999
 31
0.0
  0
LINE
  5
1189
330
18
100
AcDbEntity
  8
DRAW2
100
AcDbLine
 10
-336.2872975048228
 20
168.87494
 30
0.0
 11
-328.2872975048228
 21
168.87494
 31
0.0
  0
LINE
  5
118A
330
18
100
AcDbEntity
  8
DRAW2
100
AcDbLine
 10
-335.6622975048228
 20
169.5
 30
0.0
 11
-328.9123575048228
 21
169.5
 31
0.0
  0
LINE
  5
118B
330
18
100
AcDbEntity
  8
DRAW2
100
AcDbLine
 10
-335.6622375048227
 20
169.5
 30
0.0
 11
-336.2872975048228
 21
168.8749999999999
 31
0.0
  0
LINE
  5
118C
330
18
100
AcDbEntity
  8
DRAW3
100
AcDbLine
 10
-328.9123575048228
 20
169.5
 30
0.0
 11
-328.9123575048228
 21
161.5999799999999
 31
0.0
  0
LINE
  5
118D
330
18
100
AcDbEntity
  8
DRAW2
100
AcDbLine
 10
-328.2872975048228
 20
168.87494
 30
0.0
 11
-328.2872975048228
 21
161.5999799999999
 31
0.0
  0
LINE
  5
118E
330
18
100
AcDbEntity
  8
DRAW2
100
AcDbLine
 10
-328.9123575048228
 20
169.5
 30
0.0
 11
-328.2873575048228
 21
168.8749999999999
 31
0.0
  0
LINE
  5
118F
330
18
100
AcDbEntity
  8
DRAW2
100
AcDbLine
 10
-457.0372375048228
 20
-14.26842999999999
 30
0.0
 11
-455.5372375048229
 21
-8.670360000000016
 31
0.0
  0
LINE
  5
1190
330
18
100
AcDbEntity
  8
DRAW2
100
AcDbLine
 10
-454.0372975048228
 20
-14.26842000000002
 30
0.0
 11
-455.5372975048228
 21
-8.670360000000016
 31
0.0
  0
LINE
  5
1191
330
18
100
AcDbEntity
  8
DRAW2
100
AcDbLine
 10
-332.0372675048228
 20
-48.50003
 30
0.0
 11
-332.0372675048228
 21
-14.26842000000002
 31
0.0
  0
LINE
  5
1192
330
18
100
AcDbEntity
  8
DRAW2
100
AcDbLine
 10
-329.0372675048228
 20
-48.50003
 30
0.0
 11
-329.0372675048228
 21
-14.26842000000002
 31
0.0
  0
LINE
  5
1193
330
18
100
AcDbEntity
  8
DRAW2
100
AcDbLine
 10
-332.0373275048228
 20
-14.26842999999999
 30
0.0
 11
-330.5372675048228
 21
-8.670350000000013
 31
0.0
  0
LINE
  5
1194
330
18
100
AcDbEntity
  8
DRAW2
100
AcDbLine
 10
-329.0373275048228
 20
-14.26845
 30
0.0
 11
-330.5373275048228
 21
-8.670330000000006
 31
0.0
  0
LINE
  5
1195
330
18
100
AcDbEntity
  8
DRAW2
100
AcDbLine
 10
-457.0372375048228
 20
106.49997
 30
0.0
 11
-457.0372375048228
 21
72.26837
 31
0.0
  0
LINE
  5
1196
330
18
100
AcDbEntity
  8
DRAW2
100
AcDbLine
 10
-454.0372975048228
 20
106.49997
 30
0.0
 11
-454.0372975048228
 21
72.26837
 31
0.0
  0
LINE
  5
1197
330
18
100
AcDbEntity
  8
DRAW2
100
AcDbLine
 10
-457.0372375048228
 20
72.26837
 30
0.0
 11
-455.5372375048229
 21
66.67034999999998
 31
0.0
  0
LINE
  5
1198
330
18
100
AcDbEntity
  8
DRAW2
100
AcDbLine
 10
-454.0372375048228
 20
72.26837
 30
0.0
 11
-455.5372375048229
 21
66.67032
 31
0.0
  0
LINE
  5
1199
330
18
100
AcDbEntity
  8
DRAW2
100
AcDbLine
 10
-332.0372675048228
 20
106.49997
 30
0.0
 11
-332.0372675048228
 21
72.26837
 31
0.0
  0
LINE
  5
119A
330
18
100
AcDbEntity
  8
DRAW2
100
AcDbLine
 10
-329.0372675048228
 20
106.49997
 30
0.0
 11
-329.0372675048228
 21
72.26837
 31
0.0
  0
LINE
  5
119B
330
18
100
AcDbEntity
  8
DRAW2
100
AcDbLine
 10
-332.0373275048228
 20
72.26837
 30
0.0
 11
-330.5373275048228
 21
66.67034999999998
 31
0.0
  0
LINE
  5
119C
330
18
100
AcDbEntity
  8
DRAW2
100
AcDbLine
 10
-329.0373275048228
 20
72.26839999999999
 30
0.0
 11
-330.5373275048228
 21
66.67032
 31
0.0
  0
LINE
  5
119E
330
18
100
AcDbEntity
  8
DRAW2
100
AcDbLine
 10
-79.60964890997138
 20
-28.15771000000003
 30
0.0
 11
-79.60964890997138
 21
-21.22947999999999
 31
0.0
  0
LINE
  5
119F
330
18
100
AcDbEntity
  8
DRAW2
100
AcDbLine
 10
-79.60964890997138
 20
-21.22947999999999
 30
0.0
 11
-73.60964890997138
 21
-17.76537999999999
 31
0.0
  0
LINE
  5
11A0
330
18
100
AcDbEntity
  8
DRAW2
100
AcDbLine
 10
-73.60964890997138
 20
-17.76540000000002
 30
0.0
 11
-67.60964890997138
 21
-21.22948999999999
 31
0.0
  0
LINE
  5
11A1
330
18
100
AcDbEntity
  8
DRAW2
100
AcDbLine
 10
-67.60964890997138
 20
-21.22947999999999
 30
0.0
 11
-67.60964890997138
 21
-28.15771000000003
 31
0.0
  0
LINE
  5
11A2
330
18
100
AcDbEntity
  8
DRAW2
100
AcDbLine
 10
-67.60964890997138
 20
-28.1577
 30
0.0
 11
-73.60964890997138
 21
-31.62181000000001
 31
0.0
  0
LINE
  5
11A3
330
18
100
AcDbEntity
  8
DRAW2
100
AcDbLine
 10
-73.60964890997138
 20
-31.62179
 30
0.0
 11
-79.60964890997138
 21
-28.1577
 31
0.0
  0
LINE
  5
11A4
330
18
100
AcDbEntity
  8
DRAW2
100
AcDbLine
 10
32.39036109002864
 20
61.0
 30
0.0
 11
39.39034109002859
 21
61.0
 31
0.0
  0
LINE
  5
11A5
330
18
100
AcDbEntity
  8
DRAW2
100
AcDbLine
 10
39.39028109002863
 20
60.99999999999994
 30
0.0
 11
39.89026109002868
 21
60.49999999999994
 31
0.0
  0
LINE
  5
11A6
330
18
100
AcDbEntity
  8
DRAW2
100
AcDbLine
 10
39.39034109002859
 20
60.99999999999994
 30
0.0
 11
39.39034109002859
 21
52.99999999999994
 31
0.0
  0
LINE
  5
11A7
330
18
100
AcDbEntity
  8
DRAW2
100
AcDbLine
 10
39.89035109002862
 20
60.49999999999994
 30
0.0
 11
39.89035109002862
 21
53.49999999999994
 31
0.0
  0
LINE
  5
11A8
330
18
100
AcDbEntity
  8
DRAW2
100
AcDbLine
 10
39.89028109002862
 20
53.50011999999992
 30
0.0
 11
39.3902910900286
 21
53.00011999999992
 31
0.0
  0
LINE
  5
11A9
330
18
100
AcDbEntity
  8
DRAW2
100
AcDbLine
 10
32.39036109002864
 20
52.99997000000002
 30
0.0
 11
39.39034109002859
 21
53.00018538507685
 31
0.0
  0
LINE
  5
11AA
330
18
100
AcDbEntity
  8
DRAW2
100
AcDbLine
 10
31.39033109002866
 20
41.00002999999998
 30
0.0
 11
32.39036109002864
 21
41.00002999999998
 31
0.0
  0
LINE
  5
11AB
330
18
100
AcDbEntity
  8
DRAW2
100
AcDbLine
 10
32.39036109002864
 20
73.00002999999998
 30
0.0
 11
32.39036109002864
 21
41.00002999999998
 31
0.0
  0
LINE
  5
11AC
330
18
100
AcDbEntity
  8
DRAW2
100
AcDbLine
 10
31.39033109002866
 20
73.00002999999998
 30
0.0
 11
32.39036109002864
 21
73.00002999999998
 31
0.0
  0
LINE
  5
11AD
330
18
100
AcDbEntity
  8
DRAW2
100
AcDbLine
 10
30.08200109002865
 20
-126.22301
 30
0.0
 11
32.14038109002865
 21
-112.50048
 31
0.0
  0
LINE
  5
11AE
330
18
100
AcDbEntity
  8
DRAW2
100
AcDbLine
 10
28.59859109002866
 20
-127.50049
 30
0.0
 11
1.182131090028633
 21
-127.50049
 31
0.0
  0
LINE
  5
11AF
330
18
100
AcDbEntity
  8
DRAW2
100
AcDbLine
 10
-0.3012689099713839
 20
-126.22301
 30
0.0
 11
-2.359648909971383
 21
-112.5005
 31
0.0
  0
LINE
  5
11B1
330
18
100
AcDbEntity
  8
DRAW2
100
AcDbLine
 10
-458.0372975048228
 20
-85.12506000000001
 30
0.0
 11
-450.0372975048228
 21
-85.12506000000001
 31
0.0
  0
LINE
  5
11BE
330
18
100
AcDbEntity
  8
DRAW2
100
AcDbLine
 10
10.89035109002861
 20
-85.12506000000001
 30
0.0
 11
18.89033109002866
 21
-85.12506000000001
 31
0.0
  0
LINE
  5
11BF
330
18
100
AcDbEntity
  8
DRAW2
100
AcDbLine
 10
10.89035109002861
 20
-86.40001000000003
 30
0.0
 11
10.89035109002861
 21
-85.12506000000001
 31
0.0
  0
LINE
  5
11C0
330
18
100
AcDbEntity
  8
DRAW3
100
AcDbLine
 10
11.51535109002861
 20
-86.40001000000003
 30
0.0
 11
11.51535109002861
 21
-84.50006000000001
 31
0.0
  0
LINE
  5
11C1
330
18
100
AcDbEntity
  8
DRAW2
100
AcDbLine
 10
11.51535109002861
 20
-84.50006000000001
 30
0.0
 11
18.26535109002861
 21
-84.50006000000001
 31
0.0
  0
LINE
  5
11C2
330
18
100
AcDbEntity
  8
DRAW2
100
AcDbLine
 10
11.51535109002861
 20
-84.50008000000002
 30
0.0
 11
10.89036109002864
 21
-85.12504000000001
 31
0.0
  0
LINE
  5
11C3
330
18
100
AcDbEntity
  8
DRAW2
100
AcDbLine
 10
18.89033109002866
 20
-86.40001000000003
 30
0.0
 11
18.89033109002866
 21
-85.12506000000001
 31
0.0
  0
LINE
  5
11C4
330
18
100
AcDbEntity
  8
DRAW3
100
AcDbLine
 10
18.26535109002861
 20
-86.40001000000003
 30
0.0
 11
18.26535109002861
 21
-84.50006000000001
 31
0.0
  0
LINE
  5
11C5
330
18
100
AcDbEntity
  8
DRAW2
100
AcDbLine
 10
18.26532109002869
 20
-84.50008000000002
 30
0.0
 11
18.89033109002866
 21
-85.12508999999999
 31
0.0
  0
LINE
  5
11C6
330
18
100
AcDbEntity
  8
DRAW2
100
AcDbLine
 10
-335.6623275048228
 20
-84.50006000000001
 30
0.0
 11
-328.9123275048228
 21
-84.50006000000001
 31
0.0
  0
LINE
  5
11C7
330
18
100
AcDbEntity
  8
DRAW2
100
AcDbLine
 10
-336.2873275048228
 20
-85.12506000000001
 30
0.0
 11
-328.2873275048228
 21
-85.12506000000001
 31
0.0
  0
LINE
  5
11C8
330
18
100
AcDbEntity
  8
DRAW2
100
AcDbLine
 10
-335.6623275048228
 20
-84.50008000000002
 30
0.0
 11
-336.2873275048228
 21
-85.12504000000001
 31
0.0
  0
LINE
  5
11C9
330
18
100
AcDbEntity
  8
DRAW2
100
AcDbLine
 10
-336.2873275048228
 20
-86.40001000000003
 30
0.0
 11
-336.2873275048228
 21
-85.12506000000001
 31
0.0
  0
LINE
  5
11CA
330
18
100
AcDbEntity
  8
DRAW2
100
AcDbLine
 10
-328.9123875048228
 20
-84.50008000000002
 30
0.0
 11
-328.2873275048228
 21
-85.12514000000001
 31
0.0
  0
LINE
  5
11CB
330
18
100
AcDbEntity
  8
DRAW3
100
AcDbLine
 10
-335.6623275048228
 20
-86.40001000000003
 30
0.0
 11
-335.6623275048228
 21
-84.50006000000001
 31
0.0
  0
LINE
  5
11CC
330
18
100
AcDbEntity
  8
DRAW2
100
AcDbLine
 10
-328.2873275048228
 20
-86.40001000000003
 30
0.0
 11
-328.2873275048228
 21
-85.12506000000001
 31
0.0
  0
LINE
  5
11CD
330
18
100
AcDbEntity
  8
DRAW3
100
AcDbLine
 10
-328.9123275048228
 20
-86.40001000000003
 30
0.0
 11
-328.9123275048228
 21
-84.50006000000001
 31
0.0
  0
LINE
  5
11CE
330
18
100
AcDbEntity
  8
DRAW2
100
AcDbLine
 10
-104.1096789099713
 20
-85.12506000000001
 30
0.0
 11
-96.10964890997138
 21
-85.12506000000001
 31
0.0
  0
LINE
  5
11CF
330
18
100
AcDbEntity
  8
DRAW2
100
AcDbLine
 10
-104.1096789099713
 20
-86.40001000000003
 30
0.0
 11
-104.1096789099713
 21
-85.12506000000001
 31
0.0
  0
LINE
  5
11D0
330
18
100
AcDbEntity
  8
DRAW3
100
AcDbLine
 10
-103.4846489099713
 20
-86.40001000000003
 30
0.0
 11
-103.4846489099713
 21
-84.50006000000001
 31
0.0
  0
LINE
  5
11D1
330
18
100
AcDbEntity
  8
DRAW2
100
AcDbLine
 10
-103.4846489099713
 20
-84.50006000000001
 30
0.0
 11
-96.73464890997138
 21
-84.50006000000001
 31
0.0
  0
LINE
  5
11D2
330
18
100
AcDbEntity
  8
DRAW2
100
AcDbLine
 10
-103.4846789099713
 20
-84.50008000000002
 30
0.0
 11
-104.1096489099713
 21
-85.12504000000001
 31
0.0
  0
LINE
  5
11D3
330
18
100
AcDbEntity
  8
DRAW2
100
AcDbLine
 10
-96.10964890997138
 20
-86.40001000000003
 30
0.0
 11
-96.10964890997138
 21
-85.12506000000001
 31
0.0
  0
LINE
  5
11D4
330
18
100
AcDbEntity
  8
DRAW3
100
AcDbLine
 10
-96.73464890997138
 20
-86.40001000000003
 30
0.0
 11
-96.73464890997138
 21
-84.50006000000001
 31
0.0
  0
LINE
  5
11D5
330
18
100
AcDbEntity
  8
DRAW2
100
AcDbLine
 10
-96.73470890997135
 20
-84.50008000000002
 30
0.0
 11
-96.10967890997137
 21
-85.12508999999999
 31
0.0
  0
ARC
  5
11D6
330
18
100
AcDbEntity
  8
DRAW2
100
AcDbCircle
 10
-42.60964890997138
 20
29.0
 30
0.0
 40
71.0
100
AcDbArc
 50
119.1626999999999
 51
240.83731
  0
ARC
  5
11D7
330
18
100
AcDbEntity
  8
DRAW2
100
AcDbCircle
 10
-42.60964890997138
 20
29.0
 30
0.0
 40
71.0
100
AcDbArc
 50
299.16271
 51
60.83729399999999
  0
ARC
  5
11D9
330
18
100
AcDbEntity
  8
DRAW2
100
AcDbCircle
 10
-42.60964890997138
 20
29.0
 30
0.0
 40
66.0
100
AcDbArc
 50
10.979669
 51
49.020333
  0
ARC
  5
11DA
330
18
100
AcDbEntity
  8
DRAW2
100
AcDbCircle
 10
-11.60964890997138
 20
82.69357000000002
 30
0.0
 40
9.0
100
AcDbArc
 50
178.5367699999999
 51
329.26839
  0
ARC
  5
11DB
330
18
100
AcDbEntity
  8
DRAW2
100
AcDbCircle
 10
-23.60573890997136
 20
83.0
 30
0.0
 40
3.0000002
100
AcDbArc
 50
358.53677
 51
90.00000300000001
  0
ARC
  5
11DC
330
18
100
AcDbEntity
  8
DRAW2
100
AcDbCircle
 10
-1.294798909971348
 20
76.56133999999997
 30
0.0
 40
3.0000002
100
AcDbArc
 50
49.020333
 51
149.26837
  0
ARC
  5
11DD
330
18
100
AcDbEntity
  8
DRAW2
100
AcDbCircle
 10
19.39035109002861
 20
29.0
 30
0.0
 40
9.0
100
AcDbArc
 50
90.73161799999999
 51
269.2683799999999
  0
ARC
  5
11DE
330
18
100
AcDbEntity
  8
DRAW2
100
AcDbCircle
 10
19.23712109002866
 20
40.99898999999999
 30
0.0
 40
3.0000002
100
AcDbArc
 50
270.73162
 51
10.979669
  0
ARC
  5
11DF
330
18
100
AcDbEntity
  8
DRAW2
100
AcDbCircle
 10
-42.60964890997138
 20
29.0
 30
0.0
 40
66.0
100
AcDbArc
 50
310.9796699999999
 51
349.02033
  0
ARC
  5
11E0
330
18
100
AcDbEntity
  8
DRAW2
100
AcDbCircle
 10
19.23712109002866
 20
17.00094999999999
 30
0.0
 40
3.0000002
100
AcDbArc
 50
349.02033
 51
89.26838000000001
  0
CIRCLE
  5
11E1
330
18
100
AcDbEntity
  8
DRAW2
100
AcDbCircle
 10
-42.60964890997138
 20
29.0
 30
0.0
 40
10.0
  0
ARC
  5
11E2
330
18
100
AcDbEntity
  8
DRAW2
100
AcDbCircle
 10
-42.60964890997138
 20
29.0
 30
0.0
 40
28.0
100
AcDbArc
 50
4.170585241417599
 51
55.82930204032343
  0
ARC
  5
11E3
330
18
100
AcDbEntity
  8
DRAW2
100
AcDbCircle
 10
-42.60964890997138
 20
29.0
 30
0.0
 40
30.0
100
AcDbArc
 50
3.759741579278607
 51
56.24015533932603
  0
ARC
  5
1205
330
18
100
AcDbEntity
  8
DRAW2
100
AcDbCircle
 10
-13.64846890997137
 20
30.49997000000002
 30
0.0
 40
1.0
100
AcDbArc
 50
199.4712206344895
 51
340.5287793655103
  0
ARC
  5
1206
330
18
100
AcDbEntity
  8
DRAW2
100
AcDbCircle
 10
-29.42812890997135
 20
54.83108999999996
 30
0.0
 40
1.0
100
AcDbArc
 50
259.4727633427678
 51
40.52696171338186
  0
ARC
  5
120F
330
18
100
AcDbEntity
  8
DRAW2
100
AcDbCircle
 10
-26.83001890997138
 20
53.33108999999996
 30
0.0
 40
1.0
100
AcDbArc
 50
79.47084324727133
 51
220.5291240888016
  0
ARC
  5
1216
330
18
100
AcDbEntity
  8
DRAW2
100
AcDbCircle
 10
-42.60964890997138
 20
29.0
 30
0.0
 40
28.0
100
AcDbArc
 50
124.1707285449456
 51
175.8294147585823
  0
ARC
  5
1217
330
18
100
AcDbEntity
  8
DRAW2
100
AcDbCircle
 10
-42.60964890997138
 20
29.0
 30
0.0
 40
30.0
100
AcDbArc
 50
123.7598609644797
 51
176.2402584207213
  0
ARC
  5
121F
330
18
100
AcDbEntity
  8
DRAW2
100
AcDbCircle
 10
-71.57082890997134
 20
30.49997000000002
 30
0.0
 40
1.0
100
AcDbArc
 50
199.4712206344898
 51
340.5287793655103
  0
ARC
  5
1232
330
18
100
AcDbEntity
  8
DRAW2
100
AcDbCircle
 10
-58.38927890997132
 20
53.33108999999996
 30
0.0
 40
1.0
100
AcDbArc
 50
319.4702786946364
 51
100.5295089063911
  0
ARC
  5
1241
330
18
100
AcDbEntity
  8
DRAW2
100
AcDbCircle
 10
-42.60964890997138
 20
29.0
 30
0.0
 40
28.0
100
AcDbArc
 50
64.17059727258465
 51
115.8294025148894
  0
ARC
  5
1242
330
18
100
AcDbEntity
  8
DRAW2
100
AcDbCircle
 10
-42.60964890997138
 20
29.0
 30
0.0
 40
30.0
100
AcDbArc
 50
63.75973958297485
 51
116.2402321779826
  0
ARC
  5
1243
330
18
100
AcDbEntity
  8
DRAW2
100
AcDbCircle
 10
-55.79119890997134
 20
54.83108999999996
 30
0.0
 40
1.0
100
AcDbArc
 50
139.4713779723463
 51
280.5282892547582
  0
ARC
  5
1246
330
18
100
AcDbEntity
  8
DRAW2
100
AcDbCircle
 10
-104.6096489099713
 20
29.0
 30
0.0
 40
9.0
100
AcDbArc
 50
270.73162
 51
89.26838000000001
  0
ARC
  5
1247
330
18
100
AcDbEntity
  8
DRAW2
100
AcDbCircle
 10
-104.4564189099713
 20
40.99898999999999
 30
0.0
 40
3.0000002
100
AcDbArc
 50
169.02033
 51
269.2683799999999
  0
ARC
  5
1248
330
18
100
AcDbEntity
  8
DRAW2
100
AcDbCircle
 10
-42.60964890997138
 20
29.0
 30
0.0
 40
66.0
100
AcDbArc
 50
130.97967
 51
169.02033
  0
ARC
  5
1249
330
18
100
AcDbEntity
  8
DRAW2
100
AcDbCircle
 10
-83.92452890997134
 20
76.56133999999997
 30
0.0
 40
3.0000002
100
AcDbArc
 50
30.73162
 51
130.97967
  0
ARC
  5
124A
330
18
100
AcDbEntity
  8
DRAW2
100
AcDbCircle
 10
-73.60967890997136
 20
82.69357000000002
 30
0.0
 40
9.0
100
AcDbArc
 50
210.7316299999999
 51
1.4632305
  0
ARC
  5
124B
330
18
100
AcDbEntity
  8
DRAW2
100
AcDbCircle
 10
-61.61358890997132
 20
83.0
 30
0.0
 40
3.0000002
100
AcDbArc
 50
90.00000300000001
 51
181.4632399999999
  0
ARC
  5
124C
330
18
100
AcDbEntity
  8
DRAW2
100
AcDbCircle
 10
-104.4564189099713
 20
17.00094999999999
 30
0.0
 40
3.0000002
100
AcDbArc
 50
90.73161799999999
 51
190.9796699999999
  0
ARC
  5
124E
330
18
100
AcDbEntity
  8
DRAW2
100
AcDbCircle
 10
-42.60964890997138
 20
29.0
 30
0.0
 40
66.0
100
AcDbArc
 50
190.9796699999999
 51
229.0203299999999
  0
ARC
  5
1250
330
18
100
AcDbEntity
  8
DRAW2
100
AcDbCircle
 10
-42.60964890997138
 20
29.0
 30
0.0
 40
30.0
100
AcDbArc
 50
303.7597881825727
 51
356.2402019426625
  0
ARC
  5
1256
330
18
100
AcDbEntity
  8
DRAW2
100
AcDbCircle
 10
-42.60964890997138
 20
29.0
 30
0.0
 40
28.0
100
AcDbArc
 50
184.1706479118615
 51
235.8294189849637
  0
ARC
  5
1257
330
18
100
AcDbEntity
  8
DRAW2
100
AcDbCircle
 10
-42.60964890997138
 20
29.0
 30
0.0
 40
30.0
100
AcDbArc
 50
183.7597980573375
 51
236.2402161859792
  0
ARC
  5
1268
330
18
100
AcDbEntity
  8
DRAW2
100
AcDbCircle
 10
-58.38927890997132
 20
4.668849999999963
 30
0.0
 40
1.0
100
AcDbArc
 50
259.4709361164059
 51
40.52807149688344
  0
ARC
  5
126B
330
18
100
AcDbEntity
  8
DRAW2
100
AcDbCircle
 10
-42.60964890997138
 20
29.0
 30
0.0
 40
28.0
100
AcDbArc
 50
244.170660311318
 51
295.8293169054391
  0
ARC
  5
126C
330
18
100
AcDbEntity
  8
DRAW2
100
AcDbCircle
 10
-42.60964890997138
 20
29.0
 30
0.0
 40
30.0
100
AcDbArc
 50
243.7598450067738
 51
296.2401549246598
  0
ARC
  5
126D
330
18
100
AcDbEntity
  8
DRAW2
100
AcDbCircle
 10
-55.79119890997134
 20
3.168849999999963
 30
0.0
 40
1.0
100
AcDbArc
 50
79.47171074504876
 51
220.5290669044601
  0
ARC
  5
1270
330
18
100
AcDbEntity
  8
DRAW2
100
AcDbCircle
 10
-83.92452890997134
 20
-18.56140000000002
 30
0.0
 40
3.0000002
100
AcDbArc
 50
229.0203299999999
 51
329.2683799999999
  0
ARC
  5
1272
330
18
100
AcDbEntity
  8
DRAW2
100
AcDbCircle
 10
-42.60964890997138
 20
29.0
 30
0.0
 40
28.0
100
AcDbArc
 50
304.1706352892343
 51
355.8293520881383
  0
ARC
  5
1282
330
18
100
AcDbEntity
  8
DRAW2
100
AcDbCircle
 10
-29.42812890997135
 20
3.168849999999963
 30
0.0
 40
1.0
100
AcDbArc
 50
319.4719856878259
 51
100.5276815370039
  0
ARC
  5
1287
330
18
100
AcDbEntity
  8
DRAW2
100
AcDbCircle
 10
-26.83001890997138
 20
4.668849999999963
 30
0.0
 40
1.0
100
AcDbArc
 50
139.4708759111983
 51
280.5291552617079
  0
ARC
  5
128C
330
18
100
AcDbEntity
  8
DRAW2
100
AcDbCircle
 10
-73.60967890997136
 20
-24.6936
 30
0.0
 40
9.0
100
AcDbArc
 50
358.53677
 51
149.26837
  0
ARC
  5
128D
330
18
100
AcDbEntity
  8
DRAW2
100
AcDbCircle
 10
-61.61358890997132
 20
-25.00003000000001
 30
0.0
 40
3.0000002
100
AcDbArc
 50
178.5367699999999
 51
270.0
  0
ARC
  5
1293
330
18
100
AcDbEntity
  8
DRAW2
100
AcDbCircle
 10
-13.64846890997137
 20
27.5
 30
0.0
 40
1.0
100
AcDbArc
 50
19.4712206344896
 51
160.5287793655104
  0
ARC
  5
1298
330
18
100
AcDbEntity
  8
DRAW2
100
AcDbCircle
 10
-42.60964890997138
 20
29.0
 30
0.0
 40
66.0
100
AcDbArc
 50
310.9796699999999
 51
349.02033
  0
ARC
  5
1299
330
18
100
AcDbEntity
  8
DRAW2
100
AcDbCircle
 10
-11.60964890997138
 20
-24.6936
 30
0.0
 40
9.0
100
AcDbArc
 50
30.73162
 51
181.4632399999999
  0
ARC
  5
129A
330
18
100
AcDbEntity
  8
DRAW2
100
AcDbCircle
 10
-23.60573890997136
 20
-25.00003000000001
 30
0.0
 40
3.0000002
100
AcDbArc
 50
270.0
 51
1.4632305
  0
ARC
  5
129B
330
18
100
AcDbEntity
  8
DRAW2
100
AcDbCircle
 10
-1.294798909971348
 20
-18.56140000000002
 30
0.0
 40
3.0000002
100
AcDbArc
 50
210.7316299999999
 51
310.9796699999999
  0
ARC
  5
12A8
330
18
100
AcDbEntity
  8
DRAW2
100
AcDbCircle
 10
19.23712109002866
 20
17.00094999999999
 30
0.0
 40
3.0000002
100
AcDbArc
 50
349.02033
 51
89.26838000000001
  0
ARC
  5
12B1
330
18
100
AcDbEntity
  8
DRAW2
100
AcDbCircle
 10
-71.57082890997134
 20
27.5
 30
0.0
 40
1.0
100
AcDbArc
 50
19.4712206344896
 51
160.5287793655101
  0
ARC
  5
12BA
330
18
100
AcDbEntity
  8
DRAW2
100
AcDbCircle
 10
-55.10964890997138
 20
69.5
 30
0.0
 40
0.5
100
AcDbArc
 50
0.0
 51
90.00000300000001
  0
ARC
  5
12BB
330
18
100
AcDbEntity
  8
DRAW2
100
AcDbCircle
 10
-30.10964890997138
 20
69.5
 30
0.0
 40
0.5
100
AcDbArc
 50
90.00000300000001
 51
180.00001
  0
ARC
  5
12BC
330
18
100
AcDbEntity
  8
DRAW2
100
AcDbCircle
 10
-55.10964890997138
 20
-11.50001000000003
 30
0.0
 40
0.5
100
AcDbArc
 50
270.0
 51
0.0
  0
ARC
  5
12BD
330
18
100
AcDbEntity
  8
DRAW2
100
AcDbCircle
 10
-30.10964890997138
 20
-11.50001000000003
 30
0.0
 40
0.5
100
AcDbArc
 50
179.9999899999999
 51
270.0
  0
ARC
  5
12C3
330
18
100
AcDbEntity
  8
DRAW2
100
AcDbCircle
 10
-42.60964890997138
 20
115.5
 30
0.0
 40
1.0
100
AcDbArc
 50
208.46113
 51
331.53887
  0
CIRCLE
  5
12C4
330
18
100
AcDbEntity
  8
DRAW2
100
AcDbCircle
 10
-42.60964890997138
 20
131.49997
 30
0.0
 40
9.300001099999999
  0
CIRCLE
  5
12C5
330
18
100
AcDbEntity
  8
DRAW3
100
AcDbCircle
 10
-42.60964890997138
 20
131.49997
 30
0.0
 40
10.5
  0
CIRCLE
  5
12C6
330
18
100
AcDbEntity
  8
DRAW2
100
AcDbCircle
 10
-42.60964890997138
 20
-73.50001000000003
 30
0.0
 40
16.5
  0
ARC
  5
12C7
330
18
100
AcDbEntity
  8
DRAW2
100
AcDbCircle
 10
-9.609678909971364
 20
-92.50003000000001
 30
0.0
 40
1.0
100
AcDbArc
 50
270.0
 51
0.0
  0
ARC
  5
12C8
330
18
100
AcDbEntity
  8
DRAW2
100
AcDbCircle
 10
-75.60967890997137
 20
-92.50003000000001
 30
0.0
 40
1.0
100
AcDbArc
 50
179.9999899999999
 51
270.0
  0
ARC
  5
12C9
330
18
100
AcDbEntity
  8
DRAW2
100
AcDbCircle
 10
-42.60964890997138
 20
-57.50001000000003
 30
0.0
 40
1.0
100
AcDbArc
 50
28.461134
 51
151.53887
  0
ARC
  5
12CA
330
18
100
AcDbEntity
  8
DRAW2
100
AcDbCircle
 10
-42.60964890997138
 20
-89.50001000000003
 30
0.0
 40
1.0
100
AcDbArc
 50
208.46113
 51
331.53887
  0
CIRCLE
  5
12CB
330
18
100
AcDbEntity
  8
DRAW2
100
AcDbCircle
 10
-42.60964890997138
 20
-73.50001000000003
 30
0.0
 40
9.300001099999999
  0
CIRCLE
  5
12CC
330
18
100
AcDbEntity
  8
DRAW3
100
AcDbCircle
 10
-42.60964890997138
 20
-73.50001000000003
 30
0.0
 40
10.5
  0
ARC
  5
12CD
330
18
100
AcDbEntity
  8
DRAW2
100
AcDbCircle
 10
-42.60964890997138
 20
-553.50006
 30
0.0
 40
458.0
100
AcDbArc
 50
79.080634
 51
100.9193599999999
  0
ARC
  5
12CE
330
18
100
AcDbEntity
  8
DRAW2
100
AcDbCircle
 10
-128.6096789099713
 20
-107.7198
 30
0.0
 40
4.0
100
AcDbArc
 50
100.9193599999999
 51
180.00001
  0
ARC
  5
12CF
330
18
100
AcDbEntity
  8
DRAW2
100
AcDbCircle
 10
-313.2873275048228
 20
-107.7198
 30
0.0
 40
4.0
100
AcDbArc
 50
0.0
 51
90.00000300000001
  0
ARC
  5
12D0
330
18
100
AcDbEntity
  8
DRAW2
100
AcDbCircle
 10
-119.6097089099713
 20
-98.97609
 30
0.0
 40
3.0000002
100
AcDbArc
 50
279.6150799999999
 51
0.0
  0
ARC
  5
12D1
330
18
100
AcDbEntity
  8
DRAW2
100
AcDbCircle
 10
34.39035109002861
 20
-98.97609
 30
0.0
 40
3.0000002
100
AcDbArc
 50
179.9999899999999
 51
260.38492
  0
ARC
  5
12D2
330
18
100
AcDbEntity
  8
DRAW2
100
AcDbCircle
 10
-113.8178989099713
 20
-126.00003
 30
0.0
 40
1.5000001
100
AcDbArc
 50
188.53076
 51
270.0
  0
ARC
  5
12D3
330
18
100
AcDbEntity
  8
DRAW2
100
AcDbCircle
 10
-86.40139890997136
 20
-126.00003
 30
0.0
 40
1.5000001
100
AcDbArc
 50
270.0
 51
351.46923
  0
CIRCLE
  5
12D4
330
18
100
AcDbEntity
  8
DRAW2
100
AcDbCircle
 10
-42.60964890997138
 20
131.49997
 30
0.0
 40
16.5
  0
ARC
  5
12D5
330
18
100
AcDbEntity
  8
DRAW2
100
AcDbCircle
 10
-9.609678909971364
 20
150.5
 30
0.0
 40
1.0
100
AcDbArc
 50
0.0
 51
90.00000300000001
  0
ARC
  5
12D6
330
18
100
AcDbEntity
  8
DRAW2
100
AcDbCircle
 10
-42.60964890997138
 20
147.5
 30
0.0
 40
1.0
100
AcDbArc
 50
28.461134
 51
151.53887
  0
ARC
  5
12D7
330
18
100
AcDbEntity
  8
DRAW2
100
AcDbCircle
 10
-318.5791375048227
 20
-126.00004
 30
0.0
 40
1.5000001
100
AcDbArc
 50
270.0
 51
351.46924
  0
ARC
  5
12D8
330
18
100
AcDbEntity
  8
DRAW2
100
AcDbCircle
 10
-345.9955875048228
 20
-126.00004
 30
0.0
 40
1.5000001
100
AcDbArc
 50
188.53076
 51
270.0
  0
ARC
  5
12D9
330
18
100
AcDbEntity
  8
DRAW2
100
AcDbCircle
 10
29.39033109002867
 20
75.0
 30
0.0
 40
2.0
100
AcDbArc
 50
0.0
 51
90.00000300000001
  0
ARC
  5
12DA
330
18
100
AcDbEntity
  8
DRAW2
100
AcDbCircle
 10
29.39033109002867
 20
38.99997000000002
 30
0.0
 40
2.0
100
AcDbArc
 50
270.0
 51
0.0
  0
ARC
  5
12DB
330
18
100
AcDbEntity
  8
DRAW2
100
AcDbCircle
 10
-111.6096489099713
 20
66.99997000000002
 30
0.0
 40
2.0
100
AcDbArc
 50
90.00000300000001
 51
180.00001
  0
ARC
  5
12DC
330
18
100
AcDbEntity
  8
DRAW2
100
AcDbCircle
 10
-111.6096489099713
 20
47.0
 30
0.0
 40
2.0
100
AcDbArc
 50
179.9999899999999
 51
265.0670199999999
  0
ARC
  5
12E2
330
18
100
AcDbEntity
  8
DRAW2
100
AcDbCircle
 10
20.39033109002866
 20
-11.00003
 30
0.0
 40
2.0
100
AcDbArc
 50
270.0
 51
0.0
  0
ARC
  5
12E3
330
18
100
AcDbEntity
  8
DRAW2
100
AcDbCircle
 10
-353.7873575048227
 20
150.5
 30
0.0
 40
1.0
100
AcDbArc
 50
90.00000300000001
 51
180.00001
  0
ARC
  5
12E4
330
18
100
AcDbEntity
  8
DRAW2
100
AcDbCircle
 10
-309.7872975048228
 20
150.5
 30
0.0
 40
1.0
100
AcDbArc
 50
0.0
 51
90.00000300000001
  0
ARC
  5
12E5
330
18
100
AcDbEntity
  8
DRAW2
100
AcDbCircle
 10
-476.2872375048227
 20
150.5
 30
0.0
 40
1.0
100
AcDbArc
 50
90.00000300000001
 51
180.00001
  0
ARC
  5
12E6
330
18
100
AcDbEntity
  8
DRAW2
100
AcDbCircle
 10
-432.2872975048228
 20
150.5
 30
0.0
 40
1.0
100
AcDbArc
 50
0.0
 51
90.00000300000001
  0
ARC
  5
12E7
330
18
100
AcDbEntity
  8
DRAW2
100
AcDbCircle
 10
-393.0372975048228
 20
-284.50002
 30
0.0
 40
400.0
100
AcDbArc
 50
84.512704
 51
90.00000000000003
  0
ARC
  5
12E8
330
18
100
AcDbEntity
  8
DRAW2
100
AcDbCircle
 10
-268.7872975048228
 20
117.08157
 30
0.0
 40
2.0
100
AcDbArc
 50
267.70939
 51
0.0
  0
ARC
  5
12E9
330
18
100
AcDbEntity
  8
DRAW2
100
AcDbCircle
 10
-268.7872975048228
 20
145.9183699999999
 30
0.0
 40
2.0
100
AcDbArc
 50
0.0
 51
92.290609
  0
ARC
  5
12EA
330
18
100
AcDbEntity
  8
DRAW2
100
AcDbCircle
 10
-393.0372975048228
 20
547.4999400000001
 30
0.0
 40
400.0
100
AcDbArc
 50
264.51271
 51
270.0
  0
ARC
  5
12EC
330
18
100
AcDbEntity
  8
DRAW2
100
AcDbCircle
 10
-393.0372975048228
 20
538.82532
 30
0.0
 40
400.0
100
AcDbArc
 50
264.34033
 51
270.0
  0
ARC
  5
12EE
330
18
100
AcDbEntity
  8
DRAW2
100
AcDbCircle
 10
-393.0372975048228
 20
543.1065700000001
 30
0.0
 40
400.0
100
AcDbArc
 50
264.1891299999999
 51
270.0
  0
ARC
  5
12EF
330
18
100
AcDbEntity
  8
DRAW2
100
AcDbCircle
 10
-393.0372975048228
 20
541.4173599999998
 30
0.0
 40
400.0
100
AcDbArc
 50
264.07544
 51
270.0
  0
ARC
  5
12F0
330
18
100
AcDbEntity
  8
DRAW2
100
AcDbCircle
 10
-431.8272175048228
 20
143.2518299999999
 30
0.0
 40
2.562481399999999
100
AcDbArc
 50
131.8034199999999
 51
173.12108
  0
ARC
  5
12F7
330
18
100
AcDbEntity
  8
DRAW2
100
AcDbCircle
 10
-393.0372975048228
 20
-284.50002
 30
0.0
 40
400.0
100
AcDbArc
 50
90.00000000000003
 51
95.48729499999998
  0
ARC
  5
1302
330
18
100
AcDbEntity
  8
DRAW2
100
AcDbCircle
 10
-393.0372975048228
 20
-280.106647
 30
0.0
 40
400.0
100
AcDbArc
 50
90.00000000000003
 51
95.81086799999999
  0
ARC
  5
1303
330
18
100
AcDbEntity
  8
DRAW2
100
AcDbCircle
 10
-393.0372975048228
 20
-278.417422
 30
0.0
 40
400.0
100
AcDbArc
 50
90.00000000000003
 51
95.92455600000002
  0
ARC
  5
1304
330
18
100
AcDbEntity
  8
DRAW2
100
AcDbCircle
 10
-431.8272175048228
 20
119.74817
 30
0.0
 40
2.562481399999999
100
AcDbArc
 50
186.87892
 51
228.19658
  0
ARC
  5
1305
330
18
100
AcDbEntity
  8
DRAW2
100
AcDbCircle
 10
-393.0372975048228
 20
-275.825339
 30
0.0
 40
400.0
100
AcDbArc
 50
90.00000000000003
 51
95.65966800000001
  0
ARC
  5
1310
330
18
100
AcDbEntity
  8
DRAW2
100
AcDbCircle
 10
-393.0372975048228
 20
543.1065700000001
 30
0.0
 40
400.0
100
AcDbArc
 50
270.0
 51
275.81087
  0
ARC
  5
1311
330
18
100
AcDbEntity
  8
DRAW2
100
AcDbCircle
 10
-393.0372975048228
 20
541.4173599999998
 30
0.0
 40
400.0
100
AcDbArc
 50
270.0
 51
275.92455
  0
ARC
  5
1312
330
18
100
AcDbEntity
  8
DRAW2
100
AcDbCircle
 10
-354.2474475048228
 20
143.2518299999999
 30
0.0
 40
2.562481399999999
100
AcDbArc
 50
6.878919599999999
 51
48.19658799999999
  0
ARC
  5
1313
330
18
100
AcDbEntity
  8
DRAW2
100
AcDbCircle
 10
-393.0372975048228
 20
538.82532
 30
0.0
 40
400.0
100
AcDbArc
 50
270.0
 51
275.65967
  0
ARC
  5
131D
330
18
100
AcDbEntity
  8
DRAW2
100
AcDbCircle
 10
-393.0372975048228
 20
-280.106647
 30
0.0
 40
400.0
100
AcDbArc
 50
84.18913000000001
 51
90.00000000000003
  0
ARC
  5
131E
330
18
100
AcDbEntity
  8
DRAW2
100
AcDbCircle
 10
-393.0372975048228
 20
-278.417422
 30
0.0
 40
400.0
100
AcDbArc
 50
84.07544900000001
 51
90.00000000000003
  0
ARC
  5
131F
330
18
100
AcDbEntity
  8
DRAW2
100
AcDbCircle
 10
-354.2474475048228
 20
119.74817
 30
0.0
 40
2.562481399999999
100
AcDbArc
 50
311.80341
 51
353.12108
  0
ARC
  5
1320
330
18
100
AcDbEntity
  8
DRAW2
100
AcDbCircle
 10
-393.0372975048228
 20
-275.825339
 30
0.0
 40
400.0
100
AcDbArc
 50
84.34033000000001
 51
90.00000000000003
  0
ARC
  5
1333
330
18
100
AcDbEntity
  8
DRAW2
100
AcDbCircle
 10
-393.0372975048228
 20
547.4999400000001
 30
0.0
 40
400.0
100
AcDbArc
 50
270.0
 51
275.4872999999999
  0
ARC
  5
1335
330
18
100
AcDbEntity
  8
DRAW2
100
AcDbCircle
 10
-309.5373275048228
 20
109.4999999999999
 30
0.0
 40
2.0
100
AcDbArc
 50
0.0
 51
90.00000300000001
  0
ARC
  5
1336
330
18
100
AcDbEntity
  8
DRAW2
100
AcDbCircle
 10
-309.5373275048228
 20
-51.50003000000001
 30
0.0
 40
2.0
100
AcDbArc
 50
270.0
 51
0.0
  0
ARC
  5
1337
330
18
100
AcDbEntity
  8
DRAW2
100
AcDbCircle
 10
-355.5372675048228
 20
91.99997000000001
 30
0.0
 40
1.0
100
AcDbArc
 50
270.0
 51
0.0
  0
ARC
  5
1338
330
18
100
AcDbEntity
  8
DRAW2
100
AcDbCircle
 10
-355.5372675048228
 20
-34.00001000000003
 30
0.0
 40
1.0
100
AcDbArc
 50
0.0
 51
90.00000300000001
  0
ARC
  5
1339
330
18
100
AcDbEntity
  8
DRAW2
100
AcDbCircle
 10
-476.3372775048228
 20
-51.50003000000001
 30
0.0
 40
2.0
100
AcDbArc
 50
180.00001
 51
270.0
  0
ARC
  5
133A
330
18
100
AcDbEntity
  8
DRAW2
100
AcDbCircle
 10
-430.2872975048229
 20
91.99997000000003
 30
0.0
 40
0.9999999999999015
100
AcDbArc
 50
180.0000100000009
 51
270.0000000000065
  0
ARC
  5
133B
330
18
100
AcDbEntity
  8
DRAW2
100
AcDbCircle
 10
-430.3372774524629
 20
-34.00001000000003
 30
0.0
 40
1.0
100
AcDbArc
 50
90.00000300000001
 51
180.00001
  0
ARC
  5
133C
330
18
100
AcDbEntity
  8
DRAW2
100
AcDbCircle
 10
-476.3372775048228
 20
109.4999999999999
 30
0.0
 40
2.0
100
AcDbArc
 50
90.00000300000001
 51
180.00001
  0
ARC
  5
133D
330
18
100
AcDbEntity
  8
DRAW2
100
AcDbCircle
 10
-309.5373275048228
 20
-51.50003000000001
 30
0.0
 40
2.0
100
AcDbArc
 50
270.0
 51
0.0
  0
ARC
  5
133E
330
18
100
AcDbEntity
  8
DRAW2
100
AcDbCircle
 10
-476.3372775048228
 20
-51.50003000000001
 30
0.0
 40
2.0
100
AcDbArc
 50
179.9999899999999
 51
270.0
  0
ARC
  5
133F
330
18
100
AcDbEntity
  8
DRAW2
100
AcDbCircle
 10
-353.7873575048228
 20
-92.50003000000004
 30
0.0
 40
0.9999999999999584
100
AcDbArc
 50
179.9999899999981
 51
270.0000000000032
  0
ARC
  5
1340
330
18
100
AcDbEntity
  8
DRAW2
100
AcDbCircle
 10
-309.7872975048228
 20
-92.50003000000001
 30
0.0
 40
1.0
100
AcDbArc
 50
270.0
 51
0.0
  0
ARC
  5
1341
330
18
100
AcDbEntity
  8
DRAW2
100
AcDbCircle
 10
-476.2872375048227
 20
-92.50003000000001
 30
0.0
 40
1.0
100
AcDbArc
 50
179.9999899999999
 51
270.0
  0
ARC
  5
1342
330
18
100
AcDbEntity
  8
DRAW2
100
AcDbCircle
 10
-432.2872975048228
 20
-92.50003000000001
 30
0.0
 40
1.0
100
AcDbArc
 50
270.0
 51
0.0
  0
ARC
  5
1343
330
18
100
AcDbEntity
  8
DRAW2
100
AcDbCircle
 10
-393.0372975048228
 20
342.5
 30
0.0
 40
400.0
100
AcDbArc
 50
270.0000049999999
 51
275.4872999999999
  0
ARC
  5
1344
330
18
100
AcDbEntity
  8
DRAW2
100
AcDbCircle
 10
-268.7872975048228
 20
-59.08162000000001
 30
0.0
 40
2.0
100
AcDbArc
 50
0.0
 51
92.290609
  0
ARC
  5
1345
330
18
100
AcDbEntity
  8
DRAW2
100
AcDbCircle
 10
-268.7872975048228
 20
-87.91843000000003
 30
0.0
 40
2.0
100
AcDbArc
 50
267.70939
 51
0.0
  0
ARC
  5
1346
330
18
100
AcDbEntity
  8
DRAW2
100
AcDbCircle
 10
-393.0372975048228
 20
-489.5000399999998
 30
0.0
 40
400.0
100
AcDbArc
 50
89.99999500000001
 51
95.48729499999998
  0
ARC
  5
1348
330
18
100
AcDbEntity
  8
DRAW2
100
AcDbCircle
 10
-393.0372975048228
 20
-480.8253500000001
 30
0.0
 40
400.0
100
AcDbArc
 50
89.99999500000001
 51
95.65966800000001
  0
ARC
  5
134A
330
18
100
AcDbEntity
  8
DRAW2
100
AcDbCircle
 10
-393.0372975048228
 20
-485.1066599999999
 30
0.0
 40
400.0
100
AcDbArc
 50
89.99999500000001
 51
95.81086799999999
  0
ARC
  5
134B
330
18
100
AcDbEntity
  8
DRAW2
100
AcDbCircle
 10
-393.0372975048228
 20
-483.4174
 30
0.0
 40
400.0
100
AcDbArc
 50
89.99999500000001
 51
95.92455600000002
  0
ARC
  5
134C
330
18
100
AcDbEntity
  8
DRAW2
100
AcDbCircle
 10
-431.8272175048228
 20
-85.25185000000002
 30
0.0
 40
2.562481399999999
100
AcDbArc
 50
186.87892
 51
228.19658
  0
ARC
  5
1353
330
18
100
AcDbEntity
  8
DRAW2
100
AcDbCircle
 10
-393.0372975048228
 20
342.5
 30
0.0
 40
400.0
100
AcDbArc
 50
264.51271
 51
270.0000049999999
  0
ARC
  5
135E
330
18
100
AcDbEntity
  8
DRAW2
100
AcDbCircle
 10
-393.0372975048228
 20
338.10657
 30
0.0
 40
400.0
100
AcDbArc
 50
264.1891299999999
 51
270.0000049999999
  0
ARC
  5
135F
330
18
100
AcDbEntity
  8
DRAW2
100
AcDbCircle
 10
-393.0372975048228
 20
336.4173599999999
 30
0.0
 40
400.0
100
AcDbArc
 50
264.07544
 51
270.0000049999999
  0
ARC
  5
1360
330
18
100
AcDbEntity
  8
DRAW2
100
AcDbCircle
 10
-431.8272175048228
 20
-61.74818000000001
 30
0.0
 40
2.562481399999999
100
AcDbArc
 50
131.8034199999999
 51
173.12108
  0
ARC
  5
1361
330
18
100
AcDbEntity
  8
DRAW2
100
AcDbCircle
 10
-393.0372975048228
 20
333.8252599999999
 30
0.0
 40
400.0
100
AcDbArc
 50
264.34033
 51
270.0000049999999
  0
ARC
  5
136C
330
18
100
AcDbEntity
  8
DRAW2
100
AcDbCircle
 10
-393.0372975048228
 20
-485.1066599999999
 30
0.0
 40
400.0
100
AcDbArc
 50
84.18913000000001
 51
89.99999500000001
  0
ARC
  5
136D
330
18
100
AcDbEntity
  8
DRAW2
100
AcDbCircle
 10
-393.0372975048228
 20
-483.4174
 30
0.0
 40
400.0
100
AcDbArc
 50
84.07544900000001
 51
89.99999500000001
  0
ARC
  5
136E
330
18
100
AcDbEntity
  8
DRAW2
100
AcDbCircle
 10
-354.2474475048228
 20
-85.25185000000002
 30
0.0
 40
2.562481399999999
100
AcDbArc
 50
311.80341
 51
353.12108
  0
ARC
  5
136F
330
18
100
AcDbEntity
  8
DRAW2
100
AcDbCircle
 10
-393.0372975048228
 20
-480.8253500000001
 30
0.0
 40
400.0
100
AcDbArc
 50
84.34033000000001
 51
89.99999500000001
  0
ARC
  5
1379
330
18
100
AcDbEntity
  8
DRAW2
100
AcDbCircle
 10
-393.0372975048228
 20
338.10657
 30
0.0
 40
400.0
100
AcDbArc
 50
270.0000049999999
 51
275.81087
  0
ARC
  5
137A
330
18
100
AcDbEntity
  8
DRAW2
100
AcDbCircle
 10
-393.0372975048228
 20
336.4173599999999
 30
0.0
 40
400.0
100
AcDbArc
 50
270.0000049999999
 51
275.92455
  0
ARC
  5
137B
330
18
100
AcDbEntity
  8
DRAW2
100
AcDbCircle
 10
-354.2474475048228
 20
-61.74818000000001
 30
0.0
 40
2.562481399999999
100
AcDbArc
 50
6.878919599999999
 51
48.19658799999999
  0
ARC
  5
137C
330
18
100
AcDbEntity
  8
DRAW2
100
AcDbCircle
 10
-393.0372975048228
 20
333.8252599999999
 30
0.0
 40
400.0
100
AcDbArc
 50
270.0000049999999
 51
275.65967
  0
ARC
  5
138F
330
18
100
AcDbEntity
  8
DRAW2
100
AcDbCircle
 10
-393.0372975048228
 20
-489.5000399999998
 30
0.0
 40
400.0
100
AcDbArc
 50
84.512704
 51
89.99999500000001
  0
ARC
  5
1391
330
18
100
AcDbEntity
  8
DRAW2
100
AcDbCircle
 10
43.39036109002864
 20
-107.7198
 30
0.0
 40
4.0
100
AcDbArc
 50
0.0
 51
79.080634
  0
ARC
  5
1392
330
18
100
AcDbEntity
  8
DRAW2
100
AcDbCircle
 10
-351.2873275048228
 20
-107.7198
 30
0.0
 40
4.0
100
AcDbArc
 50
90.00000300000001
 51
180.00001
  0
ARC
  5
1393
330
18
100
AcDbEntity
  8
DRAW2
100
AcDbCircle
 10
-344.2873275048228
 20
-100.7198
 30
0.0
 40
3.0000002
100
AcDbArc
 50
270.0
 51
0.0
  0
ARC
  5
1394
330
18
100
AcDbEntity
  8
DRAW2
100
AcDbCircle
 10
-320.2873275048228
 20
-100.7198
 30
0.0
 40
3.0000002
100
AcDbArc
 50
179.9999899999999
 51
270.0
  0
ARC
  5
1395
330
18
100
AcDbEntity
  8
DRAW2
100
AcDbCircle
 10
-353.2873275048228
 20
-98.50001000000004
 30
0.0
 40
2.0
100
AcDbArc
 50
90.00000300000001
 51
180.00001
  0
ARC
  5
1396
330
18
100
AcDbEntity
  8
DRAW2
100
AcDbCircle
 10
-311.2873875048228
 20
-98.50001000000004
 30
0.0
 40
2.0
100
AcDbArc
 50
0.0
 51
90.00000300000001
  0
ARC
  5
1397
330
18
100
AcDbEntity
  8
DRAW2
100
AcDbCircle
 10
-435.0372975048228
 20
-107.7198
 30
0.0
 40
4.0
100
AcDbArc
 50
0.0
 51
90.00000300000001
  0
ARC
  5
1398
330
18
100
AcDbEntity
  8
DRAW2
100
AcDbCircle
 10
-440.3291075048228
 20
-126.00004
 30
0.0
 40
1.5000001
100
AcDbArc
 50
270.0
 51
351.46924
  0
ARC
  5
1399
330
18
100
AcDbEntity
  8
DRAW2
100
AcDbCircle
 10
-467.7456175048227
 20
-126.00004
 30
0.0
 40
1.5000001
100
AcDbArc
 50
188.53076
 51
270.0
  0
ARC
  5
139A
330
18
100
AcDbEntity
  8
DRAW2
100
AcDbCircle
 10
-460.0503675048228
 20
-92.43101000000001
 30
0.0
 40
6.031330099999999
100
AcDbArc
 50
64.99984399999999
 51
89.40087199999998
  0
ARC
  5
139B
330
18
100
AcDbEntity
  8
DRAW2
100
AcDbCircle
 10
-454.0372975048228
 20
-97.30629000000002
 30
0.0
 40
10.90625399999999
100
AcDbArc
 50
71.48062799999999
 51
108.51937
  0
ARC
  5
139C
330
18
100
AcDbEntity
  8
DRAW2
100
AcDbCircle
 10
-448.0241775048227
 20
-92.43101000000001
 30
0.0
 40
6.031330099999999
100
AcDbArc
 50
90.59911899999997
 51
115.00015
  0
ARC
  5
139D
330
18
100
AcDbEntity
  8
DRAW2
100
AcDbCircle
 10
-473.0372375048228
 20
-107.7198
 30
0.0
 40
4.0
100
AcDbArc
 50
90.00000300000001
 51
180.00001
  0
ARC
  5
139E
330
18
100
AcDbEntity
  8
DRAW2
100
AcDbCircle
 10
-466.0372975048228
 20
-100.7198
 30
0.0
 40
3.0000002
100
AcDbArc
 50
270.0
 51
0.0
  0
ARC
  5
139F
330
18
100
AcDbEntity
  8
DRAW2
100
AcDbCircle
 10
-442.0372375048227
 20
-100.7198
 30
0.0
 40
3.0000002
100
AcDbArc
 50
179.9999899999999
 51
270.0
  0
ARC
  5
13A0
330
18
100
AcDbEntity
  8
DRAW2
100
AcDbCircle
 10
-475.0372975048228
 20
-98.50001000000004
 30
0.0
 40
2.0
100
AcDbArc
 50
90.00000300000001
 51
180.00001
  0
ARC
  5
13A1
330
18
100
AcDbEntity
  8
DRAW2
100
AcDbCircle
 10
-433.0372975048228
 20
-98.50001000000004
 30
0.0
 40
2.0
100
AcDbArc
 50
0.0
 51
90.00000300000001
  0
CIRCLE
  5
13A2
330
18
100
AcDbEntity
  8
DRAW2
100
AcDbCircle
 10
-104.6096489099713
 20
29.0
 30
0.0
 40
6.000000499999999
  0
CIRCLE
  5
13A3
330
18
100
AcDbEntity
  8
DRAW2
100
AcDbCircle
 10
-104.6096489099713
 20
29.0
 30
0.0
 40
8.500000999999999
  0
CIRCLE
  5
13A4
330
18
100
AcDbEntity
  8
DRAW2
100
AcDbCircle
 10
-104.6096489099713
 20
29.0
 30
0.0
 40
7.8000002
  0
CIRCLE
  5
13A5
330
18
100
AcDbEntity
  8
DRAW2
100
AcDbCircle
 10
-73.60967890997136
 20
82.69357000000002
 30
0.0
 40
6.000000499999999
  0
CIRCLE
  5
13A6
330
18
100
AcDbEntity
  8
DRAW2
100
AcDbCircle
 10
-73.60967890997136
 20
82.69357000000002
 30
0.0
 40
8.500000999999999
  0
CIRCLE
  5
13A7
330
18
100
AcDbEntity
  8
DRAW2
100
AcDbCircle
 10
-73.60967890997136
 20
82.69357000000002
 30
0.0
 40
7.8000002
  0
CIRCLE
  5
13A8
330
18
100
AcDbEntity
  8
DRAW2
100
AcDbCircle
 10
-11.60964890997138
 20
82.69357000000002
 30
0.0
 40
6.000000499999999
  0
CIRCLE
  5
13A9
330
18
100
AcDbEntity
  8
DRAW2
100
AcDbCircle
 10
-11.60964890997138
 20
82.69357000000002
 30
0.0
 40
8.500000999999999
  0
CIRCLE
  5
13AA
330
18
100
AcDbEntity
  8
DRAW2
100
AcDbCircle
 10
-11.60964890997138
 20
82.69357000000002
 30
0.0
 40
7.8000002
  0
CIRCLE
  5
13AB
330
18
100
AcDbEntity
  8
DRAW2
100
AcDbCircle
 10
19.39035109002861
 20
29.0
 30
0.0
 40
6.000000499999999
  0
CIRCLE
  5
13AC
330
18
100
AcDbEntity
  8
DRAW2
100
AcDbCircle
 10
19.39035109002861
 20
29.0
 30
0.0
 40
8.500000999999999
  0
CIRCLE
  5
13AD
330
18
100
AcDbEntity
  8
DRAW2
100
AcDbCircle
 10
19.39035109002861
 20
29.0
 30
0.0
 40
7.8000002
  0
CIRCLE
  5
13AE
330
18
100
AcDbEntity
  8
DRAW2
100
AcDbCircle
 10
-11.60964890997138
 20
-24.6936
 30
0.0
 40
6.000000499999999
  0
CIRCLE
  5
13AF
330
18
100
AcDbEntity
  8
DRAW2
100
AcDbCircle
 10
-11.60964890997138
 20
-24.6936
 30
0.0
 40
8.500000999999999
  0
CIRCLE
  5
13B0
330
18
100
AcDbEntity
  8
DRAW2
100
AcDbCircle
 10
-11.60964890997138
 20
-24.6936
 30
0.0
 40
7.8000002
  0
ARC
  5
13B1
330
18
100
AcDbEntity
  8
DRAW2
100
AcDbCircle
 10
-338.3003975048227
 20
-92.43101000000001
 30
0.0
 40
6.031330099999999
100
AcDbArc
 50
64.99984399999999
 51
89.40087199999998
  0
ARC
  5
13B2
330
18
100
AcDbEntity
  8
DRAW2
100
AcDbCircle
 10
-332.2873275048228
 20
-97.30629000000002
 30
0.0
 40
10.90625399999999
100
AcDbArc
 50
71.48062799999999
 51
108.51937
  0
ARC
  5
13B3
330
18
100
AcDbEntity
  8
DRAW2
100
AcDbCircle
 10
-326.2742675048227
 20
-92.43101000000001
 30
0.0
 40
6.031330099999999
100
AcDbArc
 50
90.59911899999997
 51
115.00015
  0
ARC
  5
13B7
330
18
100
AcDbEntity
  8
DRAW2
100
AcDbCircle
 10
-428.2373675048228
 20
89.0
 30
0.0
 40
2.0
100
AcDbArc
 50
90.00000300000001
 51
180.00001
  0
ARC
  5
13C6
330
18
100
AcDbEntity
  8
DRAW2
100
AcDbCircle
 10
-359.9372575048228
 20
89.0
 30
0.0
 40
2.0
100
AcDbArc
 50
0.0
 51
90.00000300000001
  0
ARC
  5
13C7
330
18
100
AcDbEntity
  8
DRAW2
100
AcDbCircle
 10
-428.2373675048228
 20
-31.00001000000003
 30
0.0
 40
2.0
100
AcDbArc
 50
179.9999899999999
 51
270.0
  0
ARC
  5
13C8
330
18
100
AcDbEntity
  8
DRAW2
100
AcDbCircle
 10
-359.9372575048228
 20
-31.00001000000003
 30
0.0
 40
2.0
100
AcDbArc
 50
270.0
 51
0.0
  0
ARC
  5
13CC
330
18
100
AcDbEntity
  8
DRAW2
100
AcDbCircle
 10
-480.2563175048229
 20
-30.70666000000002
 30
0.0
 40
6.031330099999999
100
AcDbArc
 50
154.99985
 51
179.40087
  0
ARC
  5
13CD
330
18
100
AcDbEntity
  8
DRAW2
100
AcDbCircle
 10
-480.2563175048229
 20
-18.68053
 30
0.0
 40
6.031330099999999
100
AcDbArc
 50
180.59913
 51
205.00015
  0
ARC
  5
13CE
330
18
100
AcDbEntity
  8
DRAW2
100
AcDbCircle
 10
-475.3809475048227
 20
-24.6936
 30
0.0
 40
10.90625399999999
100
AcDbArc
 50
161.4806299999999
 51
198.51938
  0
CIRCLE
  5
13D8
330
18
100
AcDbEntity
  8
DRAW2
100
AcDbCircle
 10
-73.60967890997136
 20
82.69357000000002
 30
0.0
 40
4.0
  0
CIRCLE
  5
13D9
330
18
100
AcDbEntity
  8
DRAW3
100
AcDbCircle
 10
-73.60967890997136
 20
82.69357000000002
 30
0.0
 40
3.375
  0
CIRCLE
  5
13DA
330
18
100
AcDbEntity
  8
DRAW2
100
AcDbCircle
 10
-104.6096489099713
 20
29.0
 30
0.0
 40
4.0
  0
CIRCLE
  5
13DB
330
18
100
AcDbEntity
  8
DRAW3
100
AcDbCircle
 10
-104.6096489099713
 20
29.0
 30
0.0
 40
3.375
  0
CIRCLE
  5
13DC
330
18
100
AcDbEntity
  8
DRAW2
100
AcDbCircle
 10
-11.60964890997138
 20
-24.6936
 30
0.0
 40
4.0
  0
CIRCLE
  5
13DD
330
18
100
AcDbEntity
  8
DRAW3
100
AcDbCircle
 10
-11.60964890997138
 20
-24.6936
 30
0.0
 40
3.375
  0
CIRCLE
  5
13DE
330
18
100
AcDbEntity
  8
DRAW2
100
AcDbCircle
 10
19.39035109002861
 20
29.0
 30
0.0
 40
4.0
  0
CIRCLE
  5
13DF
330
18
100
AcDbEntity
  8
DRAW3
100
AcDbCircle
 10
19.39035109002861
 20
29.0
 30
0.0
 40
3.375
  0
CIRCLE
  5
13E0
330
18
100
AcDbEntity
  8
DRAW2
100
AcDbCircle
 10
-11.60964890997138
 20
82.69357000000002
 30
0.0
 40
4.0
  0
CIRCLE
  5
13E1
330
18
100
AcDbEntity
  8
DRAW3
100
AcDbCircle
 10
-11.60964890997138
 20
82.69357000000002
 30
0.0
 40
3.375
  0
ARC
  5
13E2
330
18
100
AcDbEntity
  8
DRAW2
100
AcDbCircle
 10
-459.8503475048228
 20
155.5689699999999
 30
0.0
 40
6.031330099999999
100
AcDbArc
 50
64.99984399999999
 51
89.40087899999999
  0
ARC
  5
13E3
330
18
100
AcDbEntity
  8
DRAW2
100
AcDbCircle
 10
-453.8372775048229
 20
150.6937299999999
 30
0.0
 40
10.90625399999999
100
AcDbArc
 50
71.48062799999999
 51
108.51937
  0
ARC
  5
13E4
330
18
100
AcDbEntity
  8
DRAW2
100
AcDbCircle
 10
-447.8241575048228
 20
155.5689699999999
 30
0.0
 40
6.031330099999999
100
AcDbArc
 50
90.599126
 51
115.00015
  0
ARC
  5
13E5
330
18
100
AcDbEntity
  8
DRAW2
100
AcDbCircle
 10
-75.60967890997137
 20
150.5
 30
0.0
 40
1.0
100
AcDbArc
 50
90.00000300000001
 51
180.00001
  0
ARC
  5
13E6
330
18
100
AcDbEntity
  8
DRAW2
100
AcDbCircle
 10
-338.3004275048227
 20
155.5689699999999
 30
0.0
 40
6.031330099999999
100
AcDbArc
 50
64.99984399999999
 51
89.40087899999999
  0
ARC
  5
13E7
330
18
100
AcDbEntity
  8
DRAW2
100
AcDbCircle
 10
-332.2872975048228
 20
150.6937299999999
 30
0.0
 40
10.90625399999999
100
AcDbArc
 50
71.48062799999999
 51
108.51937
  0
ARC
  5
13E8
330
18
100
AcDbEntity
  8
DRAW2
100
AcDbCircle
 10
-326.2742375048227
 20
155.5689699999999
 30
0.0
 40
6.031330099999999
100
AcDbArc
 50
90.599126
 51
115.00015
  0
ARC
  5
13E9
330
18
100
AcDbEntity
  8
DRAW2
100
AcDbCircle
 10
-459.0371775048228
 20
-48.50003
 30
0.0
 40
2.0
100
AcDbArc
 50
270.0
 51
0.0
  0
ARC
  5
13EA
330
18
100
AcDbEntity
  8
DRAW2
100
AcDbCircle
 10
-452.0372375048228
 20
-48.50003
 30
0.0
 40
2.0
100
AcDbArc
 50
179.9999899999999
 51
270.0
  0
ARC
  5
13EB
330
18
100
AcDbEntity
  8
DRAW2
100
AcDbCircle
 10
-334.0372675048228
 20
-48.50003
 30
0.0
 40
2.0
100
AcDbArc
 50
270.0
 51
0.0
  0
ARC
  5
13EC
330
18
100
AcDbEntity
  8
DRAW2
100
AcDbCircle
 10
-327.0372675048228
 20
-48.50003
 30
0.0
 40
2.0
100
AcDbArc
 50
179.9999899999999
 51
270.0
  0
ARC
  5
13ED
330
18
100
AcDbEntity
  8
DRAW2
100
AcDbCircle
 10
-459.0371775048228
 20
106.49997
 30
0.0
 40
2.0
100
AcDbArc
 50
0.0
 51
90.00000300000001
  0
ARC
  5
13EE
330
18
100
AcDbEntity
  8
DRAW2
100
AcDbCircle
 10
-452.0372375048228
 20
106.49997
 30
0.0
 40
2.0
100
AcDbArc
 50
90.00000300000001
 51
180.00001
  0
ARC
  5
13EF
330
18
100
AcDbEntity
  8
DRAW2
100
AcDbCircle
 10
-334.0372675048228
 20
106.49997
 30
0.0
 40
2.0
100
AcDbArc
 50
0.0
 51
90.00000300000001
  0
ARC
  5
13F0
330
18
100
AcDbEntity
  8
DRAW2
100
AcDbCircle
 10
-327.0372675048228
 20
106.49997
 30
0.0
 40
2.0
100
AcDbArc
 50
90.00000300000001
 51
180.00001
  0
CIRCLE
  5
13F1
330
18
100
AcDbEntity
  8
DRAW2
100
AcDbCircle
 10
-73.60967890997136
 20
-24.6936
 30
0.0
 40
8.500000999999999
  0
CIRCLE
  5
13F2
330
18
100
AcDbEntity
  8
DRAW2
100
AcDbCircle
 10
-73.60967890997136
 20
-24.6936
 30
0.0
 40
7.8000002
  0
CIRCLE
  5
13F3
330
18
100
AcDbEntity
  8
DRAW2
100
AcDbCircle
 10
-73.60967890997136
 20
-24.6936
 30
0.0
 40
6.000000499999999
  0
CIRCLE
  5
13F4
330
18
100
AcDbEntity
  8
DRAW3
100
AcDbCircle
 10
-73.6096189099714
 20
-24.6936
 30
0.0
 40
3.375
  0
CIRCLE
  5
13F5
330
18
100
AcDbEntity
  8
DRAW2
100
AcDbCircle
 10
-73.6096189099714
 20
-24.6936
 30
0.0
 40
4.0
  0
ARC
  5
13F6
330
18
100
AcDbEntity
  8
DRAW2
100
AcDbCircle
 10
28.59859109002866
 20
-126.0005
 30
0.0
 40
1.5000001
100
AcDbArc
 50
270.0
 51
351.46924
  0
ARC
  5
13F7
330
18
100
AcDbEntity
  8
DRAW2
100
AcDbCircle
 10
1.182131090028633
 20
-126.0005
 30
0.0
 40
1.5000001
100
AcDbArc
 50
188.53076
 51
270.0
  0
CIRCLE
  5
13F8
330
18
100
AcDbEntity
  8
DRAW2
100
AcDbCircle
 10
-42.60964890997138
 20
131.49997
 30
0.0
 40
7.5
  0
CIRCLE
  5
13F9
330
18
100
AcDbEntity
  8
DRAW2
100
AcDbCircle
 10
-42.60964890997138
 20
-73.50001000000003
 30
0.0
 40
7.5
  0
LINE
  5
13FF
330
18
100
AcDbEntity
  8
DRAW2
100
AcDbLine
 10
-67.60964890997138
 20
161.01947
 30
0.0
 11
-67.60964890997138
 21
155.1000099999999
 31
0.0
  0
LINE
  5
1400
330
18
100
AcDbEntity
  8
DRAW2
100
AcDbLine
 10
-74.90963890997136
 20
155.1000099999999
 30
0.0
 11
-60.30965890997134
 21
155.1000099999999
 31
0.0
  0
LINE
  5
1401
330
18
100
AcDbEntity
  8
DRAW2
100
AcDbLine
 10
-74.10964890997139
 20
161.6000099999999
 30
0.0
 11
-61.10964890997138
 21
161.6000099999999
 31
0.0
  0
LINE
  5
1402
330
18
100
AcDbEntity
  8
DRAW2
100
AcDbLine
 10
-61.10964890997138
 20
161.6000099999999
 30
0.0
 11
-61.10964890997138
 21
155.1000099999999
 31
0.0
  0
LINE
  5
1403
330
18
100
AcDbEntity
  8
DRAW2
100
AcDbLine
 10
-74.10964890997139
 20
161.6000099999999
 30
0.0
 11
-74.10964890997139
 21
155.1000099999999
 31
0.0
  0
LINE
  5
1404
330
18
100
AcDbEntity
  8
DRAW2
100
AcDbLine
 10
-75.35964890997139
 20
153.1000099999999
 30
0.0
 11
-59.85964890997138
 21
153.1000099999999
 31
0.0
  0
LINE
  5
1405
330
18
100
AcDbEntity
  8
DRAW2
100
AcDbLine
 10
-75.35964890997139
 20
151.5
 30
0.0
 11
-59.85964890997138
 21
151.5
 31
0.0
  0
LINE
  5
1406
330
18
100
AcDbEntity
  8
DRAW2
100
AcDbLine
 10
-60.30965890997134
 20
155.1000099999999
 30
0.0
 11
-60.30965890997134
 21
153.1000099999999
 31
0.0
  0
LINE
  5
1407
330
18
100
AcDbEntity
  8
DRAW2
100
AcDbLine
 10
-74.90963890997136
 20
155.1000099999999
 30
0.0
 11
-74.90963890997136
 21
153.1000099999999
 31
0.0
  0
LINE
  5
1408
330
18
100
AcDbEntity
  8
DRAW2
100
AcDbLine
 10
-59.85964890997138
 20
153.1000099999999
 30
0.0
 11
-59.85964890997138
 21
151.5
 31
0.0
  0
LINE
  5
1409
330
18
100
AcDbEntity
  8
DRAW2
100
AcDbLine
 10
-75.35964890997139
 20
153.1000099999999
 30
0.0
 11
-75.35964890997139
 21
151.5
 31
0.0
  0
LINE
  5
140A
330
18
100
AcDbEntity
  8
DRAW2
100
AcDbLine
 10
-67.89829890997134
 20
155.0999799999999
 30
0.0
 11
-66.74360890997139
 21
153.0999899999999
 31
0.0
  0
LINE
  5
140B
330
18
100
AcDbEntity
  8
DRAW2
100
AcDbLine
 10
-68.47564890997137
 20
155.0999999999999
 30
0.0
 11
-67.32093890997134
 21
153.0999899999999
 31
0.0
  0
ARC
  5
140C
330
18
100
AcDbEntity
  8
DRAW2
100
AcDbCircle
 10
-70.85964890997138
 20
152.21254
 30
0.0
 40
9.3874664
100
AcDbArc
 50
69.744551
 51
110.2554699999999
  0
ARC
  5
140D
330
18
100
AcDbEntity
  8
DRAW2
100
AcDbCircle
 10
-64.35964890997138
 20
152.21254
 30
0.0
 40
9.3874664
100
AcDbArc
 50
69.744551
 51
110.2554699999999
  0
LINE
  5
1413
330
18
100
AcDbEntity
  8
DRAW2
100
AcDbLine
 10
-17.60964890997138
 20
161.01947
 30
0.0
 11
-17.60964890997138
 21
155.1000099999999
 31
0.0
  0
LINE
  5
1414
330
18
100
AcDbEntity
  8
DRAW2
100
AcDbLine
 10
-24.90963890997136
 20
155.1000099999999
 30
0.0
 11
-10.30965890997134
 21
155.1000099999999
 31
0.0
  0
LINE
  5
1415
330
18
100
AcDbEntity
  8
DRAW2
100
AcDbLine
 10
-24.10964890997138
 20
161.6000099999999
 30
0.0
 11
-11.10964890997138
 21
161.6000099999999
 31
0.0
  0
LINE
  5
1416
330
18
100
AcDbEntity
  8
DRAW2
100
AcDbLine
 10
-11.10964890997138
 20
161.6000099999999
 30
0.0
 11
-11.10964890997138
 21
155.1000099999999
 31
0.0
  0
LINE
  5
1417
330
18
100
AcDbEntity
  8
DRAW2
100
AcDbLine
 10
-24.10964890997138
 20
161.6000099999999
 30
0.0
 11
-24.10964890997138
 21
155.1000099999999
 31
0.0
  0
LINE
  5
1418
330
18
100
AcDbEntity
  8
DRAW2
100
AcDbLine
 10
-25.35964890997138
 20
153.1000099999999
 30
0.0
 11
-9.859648909971383
 21
153.1000099999999
 31
0.0
  0
LINE
  5
1419
330
18
100
AcDbEntity
  8
DRAW2
100
AcDbLine
 10
-25.35964890997138
 20
151.5
 30
0.0
 11
-9.859648909971383
 21
151.5
 31
0.0
  0
LINE
  5
141A
330
18
100
AcDbEntity
  8
DRAW2
100
AcDbLine
 10
-10.30965890997134
 20
155.1000099999999
 30
0.0
 11
-10.30965890997134
 21
153.1000099999999
 31
0.0
  0
LINE
  5
141B
330
18
100
AcDbEntity
  8
DRAW2
100
AcDbLine
 10
-24.90963890997136
 20
155.1000099999999
 30
0.0
 11
-24.90963890997136
 21
153.1000099999999
 31
0.0
  0
LINE
  5
141C
330
18
100
AcDbEntity
  8
DRAW2
100
AcDbLine
 10
-9.859648909971383
 20
153.1000099999999
 30
0.0
 11
-9.859648909971383
 21
151.5
 31
0.0
  0
LINE
  5
141D
330
18
100
AcDbEntity
  8
DRAW2
100
AcDbLine
 10
-25.35964890997138
 20
153.1000099999999
 30
0.0
 11
-25.35964890997138
 21
151.5
 31
0.0
  0
LINE
  5
141E
330
18
100
AcDbEntity
  8
DRAW2
100
AcDbLine
 10
-17.89829890997134
 20
155.0999799999999
 30
0.0
 11
-16.74360890997138
 21
153.0999899999999
 31
0.0
  0
LINE
  5
141F
330
18
100
AcDbEntity
  8
DRAW2
100
AcDbLine
 10
-18.47564890997136
 20
155.0999999999999
 30
0.0
 11
-17.32093890997134
 21
153.0999899999999
 31
0.0
  0
ARC
  5
1420
330
18
100
AcDbEntity
  8
DRAW2
100
AcDbCircle
 10
-20.85964890997138
 20
152.21254
 30
0.0
 40
9.3874664
100
AcDbArc
 50
69.744551
 51
110.2554699999999
  0
ARC
  5
1421
330
18
100
AcDbEntity
  8
DRAW2
100
AcDbCircle
 10
-14.35964890997138
 20
152.21254
 30
0.0
 40
9.3874664
100
AcDbArc
 50
69.744551
 51
110.2554699999999
  0
LINE
  5
1427
330
18
100
AcDbEntity
  8
DRAW2
100
AcDbLine
 10
-100.1096489099713
 20
-86.98054000000002
 30
0.0
 11
-100.1096489099713
 21
-92.90001000000003
 31
0.0
  0
LINE
  5
1428
330
18
100
AcDbEntity
  8
DRAW2
100
AcDbLine
 10
-107.4096389099713
 20
-92.90001000000003
 30
0.0
 11
-92.80965890997135
 21
-92.90001000000003
 31
0.0
  0
LINE
  5
1429
330
18
100
AcDbEntity
  8
DRAW2
100
AcDbLine
 10
-106.6096489099713
 20
-86.40001000000003
 30
0.0
 11
-93.60964890997138
 21
-86.40001000000003
 31
0.0
  0
LINE
  5
142A
330
18
100
AcDbEntity
  8
DRAW2
100
AcDbLine
 10
-93.60964890997138
 20
-86.40001000000003
 30
0.0
 11
-93.60964890997138
 21
-92.90001000000003
 31
0.0
  0
LINE
  5
142B
330
18
100
AcDbEntity
  8
DRAW2
100
AcDbLine
 10
-106.6096489099713
 20
-86.40001000000003
 30
0.0
 11
-106.6096489099713
 21
-92.90001000000003
 31
0.0
  0
LINE
  5
142C
330
18
100
AcDbEntity
  8
DRAW2
100
AcDbLine
 10
-107.8596489099713
 20
-94.90001000000004
 30
0.0
 11
-92.35964890997138
 21
-94.90001000000004
 31
0.0
  0
LINE
  5
142D
330
18
100
AcDbEntity
  8
DRAW2
100
AcDbLine
 10
-107.8596489099713
 20
-96.50001000000003
 30
0.0
 11
-92.35964890997138
 21
-96.50001000000003
 31
0.0
  0
LINE
  5
142E
330
18
100
AcDbEntity
  8
DRAW2
100
AcDbLine
 10
-92.80965890997135
 20
-92.90001000000003
 30
0.0
 11
-92.80965890997135
 21
-94.90001000000004
 31
0.0
  0
LINE
  5
142F
330
18
100
AcDbEntity
  8
DRAW2
100
AcDbLine
 10
-107.4096389099713
 20
-92.90001000000003
 30
0.0
 11
-107.4096389099713
 21
-94.90001000000004
 31
0.0
  0
LINE
  5
1430
330
18
100
AcDbEntity
  8
DRAW2
100
AcDbLine
 10
-92.35964890997138
 20
-94.90001000000004
 30
0.0
 11
-92.35964890997138
 21
-96.50001000000003
 31
0.0
  0
LINE
  5
1431
330
18
100
AcDbEntity
  8
DRAW2
100
AcDbLine
 10
-107.8596489099713
 20
-94.90001000000004
 30
0.0
 11
-107.8596489099713
 21
-96.50001000000003
 31
0.0
  0
LINE
  5
1432
330
18
100
AcDbEntity
  8
DRAW2
100
AcDbLine
 10
-100.3982989099713
 20
-92.90004000000001
 30
0.0
 11
-99.24360890997139
 21
-94.90003000000001
 31
0.0
  0
LINE
  5
1433
330
18
100
AcDbEntity
  8
DRAW2
100
AcDbLine
 10
-100.9756489099713
 20
-92.90002000000001
 30
0.0
 11
-99.82093890997134
 21
-94.90003000000001
 31
0.0
  0
ARC
  5
1434
330
18
100
AcDbEntity
  8
DRAW2
100
AcDbCircle
 10
-103.3596489099713
 20
-95.78747000000001
 30
0.0
 40
9.3874664
100
AcDbArc
 50
69.744551
 51
110.2554699999999
  0
ARC
  5
1435
330
18
100
AcDbEntity
  8
DRAW2
100
AcDbCircle
 10
-96.85964890997139
 20
-95.78747000000001
 30
0.0
 40
9.3874664
100
AcDbArc
 50
69.744551
 51
110.2554699999999
  0
LINE
  5
143B
330
18
100
AcDbEntity
  8
DRAW2
100
AcDbLine
 10
14.89035109002861
 20
-86.98054000000002
 30
0.0
 11
14.89035109002861
 21
-92.90001000000003
 31
0.0
  0
LINE
  5
143C
330
18
100
AcDbEntity
  8
DRAW2
100
AcDbLine
 10
7.590361090028636
 20
-92.90001000000003
 30
0.0
 11
22.19034109002859
 21
-92.90001000000003
 31
0.0
  0
LINE
  5
143D
330
18
100
AcDbEntity
  8
DRAW2
100
AcDbLine
 10
8.390351090028616
 20
-86.40001000000003
 30
0.0
 11
21.39035109002861
 21
-86.40001000000003
 31
0.0
  0
LINE
  5
143E
330
18
100
AcDbEntity
  8
DRAW2
100
AcDbLine
 10
21.39035109002861
 20
-86.40001000000003
 30
0.0
 11
21.39035109002861
 21
-92.90001000000003
 31
0.0
  0
LINE
  5
143F
330
18
100
AcDbEntity
  8
DRAW2
100
AcDbLine
 10
8.390351090028616
 20
-86.40001000000003
 30
0.0
 11
8.390351090028616
 21
-92.90001000000003
 31
0.0
  0
LINE
  5
1440
330
18
100
AcDbEntity
  8
DRAW2
100
AcDbLine
 10
7.140351090028616
 20
-94.90001000000004
 30
0.0
 11
22.64035109002861
 21
-94.90001000000004
 31
0.0
  0
LINE
  5
1441
330
18
100
AcDbEntity
  8
DRAW2
100
AcDbLine
 10
7.140351090028616
 20
-96.50001000000003
 30
0.0
 11
22.64035109002861
 21
-96.50001000000003
 31
0.0
  0
LINE
  5
1442
330
18
100
AcDbEntity
  8
DRAW2
100
AcDbLine
 10
22.19034109002859
 20
-92.90001000000003
 30
0.0
 11
22.19034109002859
 21
-94.90001000000004
 31
0.0
  0
LINE
  5
1443
330
18
100
AcDbEntity
  8
DRAW2
100
AcDbLine
 10
7.590361090028636
 20
-92.90001000000003
 30
0.0
 11
7.590361090028636
 21
-94.90001000000004
 31
0.0
  0
LINE
  5
1444
330
18
100
AcDbEntity
  8
DRAW2
100
AcDbLine
 10
22.64035109002861
 20
-94.90001000000004
 30
0.0
 11
22.64035109002861
 21
-96.50001000000003
 31
0.0
  0
LINE
  5
1445
330
18
100
AcDbEntity
  8
DRAW2
100
AcDbLine
 10
7.140351090028616
 20
-94.90001000000004
 30
0.0
 11
7.140351090028616
 21
-96.50001000000003
 31
0.0
  0
LINE
  5
1446
330
18
100
AcDbEntity
  8
DRAW2
100
AcDbLine
 10
14.60170109002865
 20
-92.90004000000001
 30
0.0
 11
15.75639109002861
 21
-94.90003000000001
 31
0.0
  0
LINE
  5
1447
330
18
100
AcDbEntity
  8
DRAW2
100
AcDbLine
 10
14.02435109002863
 20
-92.90002000000001
 30
0.0
 11
15.17906109002865
 21
-94.90003000000001
 31
0.0
  0
ARC
  5
1448
330
18
100
AcDbEntity
  8
DRAW2
100
AcDbCircle
 10
11.64035109002861
 20
-95.78747000000001
 30
0.0
 40
9.3874664
100
AcDbArc
 50
69.744551
 51
110.2554699999999
  0
ARC
  5
1449
330
18
100
AcDbEntity
  8
DRAW2
100
AcDbCircle
 10
18.14035109002861
 20
-95.78747000000001
 30
0.0
 40
9.3874664
100
AcDbArc
 50
69.744551
 51
110.2554699999999
  0
ARC
  5
145F
330
18
100
AcDbEntity
  8
DRAW2
100
AcDbCircle
 10
-59.5589053513633
 20
54.35690647701204
 30
0.0
 40
0.5
100
AcDbArc
 50
303.7598609644816
 51
29.99996659033781
  0
ARC
  5
1460
330
18
100
AcDbEntity
  8
DRAW2
100
AcDbCircle
 10
-58.66339176700825
 20
54.80583138126212
 30
0.0
 40
0.5
100
AcDbArc
 50
209.9999665903361
 51
280.5295089063903
  0
ARC
  5
1461
330
18
100
AcDbEntity
  8
DRAW2
100
AcDbCircle
 10
-56.93132106975724
 20
55.80583174054726
 30
0.0
 40
0.5
100
AcDbArc
 50
319.4713779723438
 51
30.00001516737957
  0
ARC
  5
1462
330
18
100
AcDbEntity
  8
DRAW2
100
AcDbCircle
 10
-56.09479033234425
 20
56.35691797002363
 30
0.0
 40
0.5
100
AcDbArc
 50
210.0000151673804
 51
296.2402321779828
  0
ARC
  5
1463
330
18
100
AcDbEntity
  8
DRAW2
100
AcDbCircle
 10
-54.59120803940897
 20
53.75262088805527
 30
0.0
 40
0.5
100
AcDbArc
 50
115.8294025148908
 51
210.0000571550316
  0
ARC
  5
1464
330
18
100
AcDbEntity
  8
DRAW2
100
AcDbCircle
 10
-55.51711744572298
 20
53.35634278404888
 30
0.0
 40
0.5
100
AcDbArc
 50
30.00005715503002
 51
100.5282892547583
  0
ARC
  5
1465
330
18
100
AcDbEntity
  8
DRAW2
100
AcDbCircle
 10
-57.24917545180534
 20
52.35632638523071
 30
0.0
 40
0.5
100
AcDbArc
 50
139.4702786946349
 51
210.0000446720867
  0
ARC
  5
1466
330
18
100
AcDbEntity
  8
DRAW2
100
AcDbCircle
 10
-58.05531988949701
 20
51.75260969630165
 30
0.0
 40
0.5
100
AcDbArc
 50
30.00004467208672
 51
124.1707285449445
  0
ARC
  5
1467
330
18
100
AcDbEntity
  8
DRAW2
100
AcDbCircle
 10
-29.12449400435275
 20
56.35691132367594
 30
0.0
 40
0.5
100
AcDbArc
 50
243.7597395829758
 51
329.999984832626
  0
ARC
  5
1468
330
18
100
AcDbEntity
  8
DRAW2
100
AcDbCircle
 10
-28.28797850464605
 20
55.80579870173432
 30
0.0
 40
0.5
100
AcDbArc
 50
149.9999848326195
 51
220.5269617133832
  0
ARC
  5
1469
330
18
100
AcDbEntity
  8
DRAW2
100
AcDbCircle
 10
-29.70218328116095
 20
53.356337749067
 30
0.0
 40
0.5
100
AcDbArc
 50
79.47276334276769
 51
149.9999915105147
  0
ARC
  5
146A
330
18
100
AcDbEntity
  8
DRAW2
100
AcDbCircle
 10
-30.62808968871945
 20
53.75262084361236
 30
0.0
 40
0.5
100
AcDbArc
 50
329.9999915105122
 51
64.17059727258468
  0
ARC
  5
146B
330
18
100
AcDbEntity
  8
DRAW2
100
AcDbCircle
 10
-27.16399007610158
 20
51.7526179414084
 30
0.0
 40
0.5
100
AcDbArc
 50
55.82930204032292
 51
150.0000031530257
  0
ARC
  5
146C
330
18
100
AcDbEntity
  8
DRAW2
100
AcDbCircle
 10
-27.97013252842202
 20
52.35633826903279
 30
0.0
 40
0.5
100
AcDbArc
 50
330.0000031530257
 51
40.52912408879762
  0
ARC
  5
146D
330
18
100
AcDbEntity
  8
DRAW2
100
AcDbCircle
 10
-26.5559151170554
 20
54.80583306599794
 30
0.0
 40
0.5
100
AcDbArc
 50
259.4708432472725
 51
330.0000024411581
  0
ARC
  5
146E
330
18
100
AcDbEntity
  8
DRAW2
100
AcDbCircle
 10
-25.66039968401702
 20
54.35691130000822
 30
0.0
 40
0.5
100
AcDbArc
 50
150.0000024411524
 51
236.2401553393241
  0
ARC
  5
1477
330
18
100
AcDbEntity
  8
DRAW2
100
AcDbCircle
 10
-73.04400646847915
 20
30.99997000000001
 30
0.0
 40
0.5
100
AcDbArc
 50
270.0
 51
356.2402584207215
  0
ARC
  5
1478
330
18
100
AcDbEntity
  8
DRAW2
100
AcDbCircle
 10
-72.98504247234444
 20
29.99997000000002
 30
0.0
 40
0.5
100
AcDbArc
 50
19.47122063449185
 51
90.0
  0
ARC
  5
1479
330
18
100
AcDbEntity
  8
DRAW2
100
AcDbCircle
 10
-72.98504247234444
 20
28.0
 30
0.0
 40
0.5
100
AcDbArc
 50
270.0
 51
340.5287793655081
  0
ARC
  5
147A
330
18
100
AcDbEntity
  8
DRAW2
100
AcDbCircle
 10
-73.04400449703781
 20
27.0
 30
0.0
 40
0.5
100
AcDbArc
 50
3.75979805733857
 51
90.0
  0
ARC
  5
147B
330
18
100
AcDbEntity
  8
DRAW2
100
AcDbCircle
 10
-70.03682521377635
 20
27.0
 30
0.0
 40
0.5
100
AcDbArc
 50
90.0
 51
184.1706479118643
  0
ARC
  5
147C
330
18
100
AcDbEntity
  8
DRAW2
100
AcDbCircle
 10
-70.15661534759823
 20
28.0
 30
0.0
 40
0.5
100
AcDbArc
 50
199.4712206344929
 51
269.9999999999983
  0
ARC
  5
147D
330
18
100
AcDbEntity
  8
DRAW2
100
AcDbCircle
 10
-70.15661534759823
 20
29.99997000000002
 30
0.0
 40
0.5
100
AcDbArc
 50
90.0
 51
160.528779365507
  0
ARC
  5
147E
330
18
100
AcDbEntity
  8
DRAW2
100
AcDbCircle
 10
-70.03682740137112
 20
30.99997000000001
 30
0.0
 40
0.5
100
AcDbArc
 50
175.8294147585807
 51
270.0
  0
ARC
  5
148F
330
18
100
AcDbEntity
  8
DRAW2
100
AcDbCircle
 10
-59.55887120752459
 20
3.643070700336693
 30
0.0
 40
0.5
100
AcDbArc
 50
330.0000299024202
 51
56.24021618597621
  0
ARC
  5
1490
330
18
100
AcDbEntity
  8
DRAW2
100
AcDbCircle
 10
-58.66338031251695
 20
3.194106489716716
 30
0.0
 40
0.5
100
AcDbArc
 50
79.47093611640659
 51
150.000029902425
  0
ARC
  5
1491
330
18
100
AcDbEntity
  8
DRAW2
100
AcDbCircle
 10
-57.24914738435939
 20
5.643580785553467
 30
0.0
 40
0.5
100
AcDbArc
 50
150.0000031530273
 51
220.5280714968874
  0
ARC
  5
1492
330
18
100
AcDbEntity
  8
DRAW2
100
AcDbCircle
 10
-58.05526130414546
 20
6.247350532983318
 30
0.0
 40
0.5
100
AcDbArc
 50
235.8294189849623
 51
330.0000031530265
  0
ARC
  5
1493
330
18
100
AcDbEntity
  8
DRAW2
100
AcDbCircle
 10
-54.59118089755452
 20
4.247365973890339
 30
0.0
 40
0.5
100
AcDbArc
 50
149.9999072195425
 51
244.170660311318
  0
ARC
  5
1494
330
18
100
AcDbEntity
  8
DRAW2
100
AcDbCircle
 10
-55.51711744571798
 20
4.643597215950137
 30
0.0
 40
0.5
100
AcDbArc
 50
259.4717107450499
 51
329.9999072195384
  0
ARC
  5
1495
330
18
100
AcDbEntity
  8
DRAW2
100
AcDbCircle
 10
-56.09475347905817
 20
1.643063863787801
 30
0.0
 40
0.5
100
AcDbArc
 50
63.75984500677376
 51
150.0000025307524
  0
ARC
  5
1496
330
18
100
AcDbEntity
  8
DRAW2
100
AcDbCircle
 10
-56.93131350127726
 20
2.19409940692941
 30
0.0
 40
0.5
100
AcDbArc
 50
330.00000253075
 51
40.52906690445962
  0
ARC
  5
1497
330
18
100
AcDbEntity
  8
DRAW2
100
AcDbCircle
 10
-30.62812676509099
 20
4.24736120952474
 30
0.0
 40
0.5
100
AcDbArc
 50
295.8293169054409
 51
30.00005715503002
  0
ARC
  5
1498
330
18
100
AcDbEntity
  8
DRAW2
100
AcDbCircle
 10
-29.12454437362282
 20
1.643063847650068
 30
0.0
 40
0.5
100
AcDbArc
 50
29.99996207302962
 51
116.2401549246606
  0
ARC
  5
1499
330
18
100
AcDbEntity
  8
DRAW2
100
AcDbCircle
 10
-28.28799641151869
 20
2.194120352368315
 30
0.0
 40
0.5
100
AcDbArc
 50
139.4719856878284
 51
209.9999620730231
  0
ARC
  5
149A
330
18
100
AcDbEntity
  8
DRAW2
100
AcDbCircle
 10
-29.70219473203883
 20
4.643600122961288
 30
0.0
 40
0.5
100
AcDbArc
 50
210.000057155026
 51
280.5276815370047
  0
ARC
  5
149B
330
18
100
AcDbEntity
  8
DRAW2
100
AcDbCircle
 10
-27.97013252842197
 20
5.643601730967134
 30
0.0
 40
0.5
100
AcDbArc
 50
319.4708759112013
 51
29.99999684696702
  0
ARC
  5
149C
330
18
100
AcDbEntity
  8
DRAW2
100
AcDbCircle
 10
-26.55591515543295
 20
3.194106926868926
 30
0.0
 40
0.5
100
AcDbArc
 50
30.00003331823251
 51
100.5291552617086
  0
ARC
  5
149D
330
18
100
AcDbEntity
  8
DRAW2
100
AcDbCircle
 10
-25.66042467906356
 20
3.643071992640614
 30
0.0
 40
0.5
100
AcDbArc
 50
123.7597881825727
 51
210.0000333182333
  0
ARC
  5
149E
330
18
100
AcDbEntity
  8
DRAW2
100
AcDbCircle
 10
-27.16401496305081
 20
6.247365164057669
 30
0.0
 40
0.5
100
AcDbArc
 50
209.9999968469678
 51
304.1706352892335
  0
ARC
  5
14AF
330
18
100
AcDbEntity
  8
DRAW2
100
AcDbCircle
 10
-15.18247041857165
 20
30.99997000000001
 30
0.0
 40
0.5
100
AcDbArc
 50
270.0
 51
4.170585241419193
  0
ARC
  5
14B0
330
18
100
AcDbEntity
  8
DRAW2
100
AcDbCircle
 10
-15.06268247234447
 20
29.99997000000002
 30
0.0
 40
0.5
100
AcDbArc
 50
19.4712206344924
 51
90.0
  0
ARC
  5
14B1
330
18
100
AcDbEntity
  8
DRAW2
100
AcDbCircle
 10
-12.23425534759826
 20
29.99997000000002
 30
0.0
 40
0.5
100
AcDbArc
 50
90.0
 51
160.528779365507
  0
ARC
  5
14B2
330
18
100
AcDbEntity
  8
DRAW2
100
AcDbCircle
 10
-12.17529135146361
 20
30.99997000000001
 30
0.0
 40
0.5
100
AcDbArc
 50
183.7597415792782
 51
270.0
  0
ARC
  5
14B3
330
18
100
AcDbEntity
  8
DRAW2
100
AcDbCircle
 10
-15.06268247234447
 20
28.0
 30
0.0
 40
0.5
100
AcDbArc
 50
270.0
 51
340.528779365507
  0
ARC
  5
14B4
330
18
100
AcDbEntity
  8
DRAW2
100
AcDbCircle
 10
-12.23425534759826
 20
28.0
 30
0.0
 40
0.5
100
AcDbArc
 50
199.4712206344929
 51
270.0
  0
ARC
  5
14B5
330
18
100
AcDbEntity
  8
DRAW2
100
AcDbCircle
 10
-12.17529332290496
 20
27.0
 30
0.0
 40
0.5
100
AcDbArc
 50
90.0
 51
176.2402019426613
  0
ARC
  5
14B6
330
18
100
AcDbEntity
  8
DRAW2
100
AcDbCircle
 10
-15.18247260616641
 20
26.99999999999994
 30
0.0
 40
0.5
100
AcDbArc
 50
355.8293520881356
 51
90.0
  0
TEXT
  5
15B5
330
18
100
AcDbEntity
  8
0
100
AcDbText
 10
-204.0250029579336
 20
-703.606919272929
 30
0.0
 40
4.8
  1

 51
10.0
  7
DIMFONT
100
AcDbText
  0
TEXT
  5
18AC
330
18
100
AcDbEntity
  8
0
100
AcDbText
 10
-210.5480737651279
 20
-802.4423109040057
 30
0.0
 40
4.8
  1

 51
10.0
  7
DIMFONT
100
AcDbText
  0
TEXT
  5
18AF
330
18
100
AcDbEntity
  8
0
100
AcDbText
 10
-228.8630251615912
 20
-384.4931989505721
 30
0.0
 40
6.4
  1

 51
10.0
  7
DIMFONT
100
AcDbText
  0
ARC
  5
1B44
330
18
100
AcDbEntity
  8
DRAW2
100
AcDbCircle
 10
-480.2563175048229
 20
35.01307
 30
0.0
 40
6.031330099999999
100
AcDbArc
 50
180.59913
 51
205.00015
  0
LINE
  5
1B45
330
18
100
AcDbEntity
  8
DRAW2
100
AcDbLine
 10
-486.2872575048228
 20
23.05002999999996
 30
0.0
 11
-486.2872575048228
 21
34.95001999999999
 31
0.0
  0
LINE
  5
1B46
330
18
100
AcDbEntity
  8
DRAW2
100
AcDbLine
 10
-481.2872575048228
 20
20.50001
 30
0.0
 11
-481.2872575048228
 21
37.5
 31
0.0
  0
LINE
  5
1B48
330
18
100
AcDbEntity
  8
DRAW2
100
AcDbLine
 10
-485.7224375048228
 20
32.46412000000001
 30
0.0
 11
-481.2872575048228
 21
32.46412000000001
 31
0.0
  0
LINE
  5
1B49
330
18
100
AcDbEntity
  8
DRAW2
100
AcDbLine
 10
-485.7224375048228
 20
25.53588999999997
 30
0.0
 11
-481.2872575048228
 21
25.53588999999997
 31
0.0
  0
LINE
  5
1B4A
330
18
100
AcDbEntity
  8
DRAW2
100
AcDbLine
 10
-485.7224375048228
 20
22.07182
 30
0.0
 11
-481.2872575048228
 21
22.07182
 31
0.0
  0
LINE
  5
1B4B
330
18
100
AcDbEntity
  8
DRAW2
100
AcDbLine
 10
-486.2873175048228
 20
23.04999999999998
 30
0.0
 11
-485.7224975048228
 21
22.07176000000001
 31
0.0
  0
ARC
  5
1B4C
330
18
100
AcDbEntity
  8
DRAW2
100
AcDbCircle
 10
-480.2563175048229
 20
22.98693999999997
 30
0.0
 40
6.031330099999999
100
AcDbArc
 50
154.99985
 51
179.40087
  0
ARC
  5
1B4D
330
18
100
AcDbEntity
  8
DRAW2
100
AcDbCircle
 10
-475.3809475048227
 20
29.0
 30
0.0
 40
10.90625399999999
100
AcDbArc
 50
161.4806299999999
 51
198.51938
  0
LINE
  5
1B4E
330
18
100
AcDbEntity
  8
DRAW2
100
AcDbLine
 10
-481.2872575048228
 20
20.50001
 30
0.0
 11
-478.3372775048228
 21
20.50001
 31
0.0
  0
LINE
  5
1B4F
330
18
100
AcDbEntity
  8
DRAW2
100
AcDbLine
 10
-485.7224375048228
 20
35.92823999999998
 30
0.0
 11
-481.2872575048228
 21
35.92823999999998
 31
0.0
  0
LINE
  5
1B50
330
18
100
AcDbEntity
  8
DRAW2
100
AcDbLine
 10
-486.2872575048228
 20
34.95001999999999
 30
0.0
 11
-485.7224975048228
 21
35.92822000000001
 31
0.0
  0
LINE
  5
1B51
330
18
100
AcDbEntity
  8
DRAW2
100
AcDbLine
 10
-481.2872575048228
 20
37.5
 30
0.0
 11
-478.3372775048228
 21
37.5
 31
0.0
  0
LINE
  5
1B52
330
18
100
AcDbEntity
  8
DRAW2
100
AcDbLine
 10
-485.7224375048228
 20
89.62180999999999
 30
0.0
 11
-481.2872575048228
 21
89.62180999999999
 31
0.0
  0
LINE
  5
1B53
330
18
100
AcDbEntity
  8
DRAW2
100
AcDbLine
 10
-485.7224375048228
 20
75.76539000000003
 30
0.0
 11
-481.2872575048228
 21
75.76539000000003
 31
0.0
  0
LINE
  5
1B54
330
18
100
AcDbEntity
  8
DRAW2
100
AcDbLine
 10
-485.7224375048228
 20
79.22946000000002
 30
0.0
 11
-481.2872575048228
 21
79.22946000000002
 31
0.0
  0
LINE
  5
1B55
330
18
100
AcDbEntity
  8
DRAW2
100
AcDbLine
 10
-485.7224375048228
 20
86.15769
 30
0.0
 11
-481.2872575048228
 21
86.15769
 31
0.0
  0
ARC
  5
1B57
330
18
100
AcDbEntity
  8
DRAW2
100
AcDbCircle
 10
-475.3809475048227
 20
82.69357000000002
 30
0.0
 40
10.90625399999999
100
AcDbArc
 50
161.4806299999999
 51
198.51938
  0
LINE
  5
1B58
330
18
100
AcDbEntity
  8
DRAW2
100
AcDbLine
 10
-486.2872575048228
 20
76.74360000000001
 30
0.0
 11
-486.2872575048228
 21
88.64359000000002
 31
0.0
  0
ARC
  5
1B59
330
18
100
AcDbEntity
  8
DRAW2
100
AcDbCircle
 10
-480.2563175048229
 20
76.68051000000002
 30
0.0
 40
6.031330099999999
100
AcDbArc
 50
154.99985
 51
179.40087
  0
LINE
  5
1B5A
330
18
100
AcDbEntity
  8
DRAW2
100
AcDbLine
 10
-486.2873175048228
 20
76.74356999999997
 30
0.0
 11
-485.7224975048228
 21
75.76533000000006
 31
0.0
  0
LINE
  5
1B5B
330
18
100
AcDbEntity
  8
DRAW2
100
AcDbLine
 10
-486.2872575048228
 20
88.64359000000002
 30
0.0
 11
-485.7224975048228
 21
89.62179000000004
 31
0.0
  0
ARC
  5
1B5C
330
18
100
AcDbEntity
  8
DRAW2
100
AcDbCircle
 10
-480.2563175048229
 20
88.70663999999999
 30
0.0
 40
6.031330099999999
100
AcDbArc
 50
180.59913
 51
205.00015
  0
LINE
  5
1B5D
330
18
100
AcDbEntity
  8
DRAW2
100
AcDbLine
 10
-481.2872575048228
 20
74.19357999999999
 30
0.0
 11
-481.2872575048228
 21
91.19357000000002
 31
0.0
  0
LINE
  5
1B5E
330
18
100
AcDbEntity
  8
DRAW2
100
AcDbLine
 10
-481.2872575048229
 20
74.19358000000001
 30
0.0
 11
-478.3372775048228
 21
74.19357999999999
 31
0.0
  0
LINE
  5
1B5F
330
18
100
AcDbEntity
  8
DRAW2
100
AcDbLine
 10
-481.2872575048229
 20
91.19357
 30
0.0
 11
-478.3372775048228
 21
91.19357000000002
 31
0.0
  0
LINE
  5
1B85
330
18
100
AcDbEntity
  8
DRAW2
100
AcDbLine
 10
-409.0490451963127
 20
62.88219598639281
 30
0.0
 11
-403.9255698133329
 21
65.84023587794263
 31
0.0
  0
LINE
  5
1B86
330
18
100
AcDbEntity
  8
DRAW2
100
AcDbLine
 10
-400.5490451963127
 20
65.84023587794263
 30
0.0
 11
-395.4255698133329
 21
62.88219598639281
 31
0.0
  0
LINE
  5
1B87
330
18
100
AcDbEntity
  8
DRAW2
100
AcDbLine
 10
-393.7373075048228
 20
59.95803989154982
 30
0.0
 11
-393.7373075048228
 21
54.04196010845021
 31
0.0
  0
LINE
  5
1B88
330
18
100
AcDbEntity
  8
DRAW2
100
AcDbLine
 10
-395.4255698133329
 20
51.11780401360718
 30
0.0
 11
-400.5490451963127
 21
48.15976412205737
 31
0.0
  0
LINE
  5
1B89
330
18
100
AcDbEntity
  8
DRAW2
100
AcDbLine
 10
-403.9255698133329
 20
48.15976412205737
 30
0.0
 11
-409.0490451963127
 21
51.11780401360715
 31
0.0
  0
LINE
  5
1B8A
330
18
100
AcDbEntity
  8
DRAW2
100
AcDbLine
 10
-410.7373075048228
 20
54.04196010845018
 30
0.0
 11
-410.7373075048228
 21
59.95803989154982
 31
0.0
  0
ARC
  5
1B8B
330
18
100
AcDbEntity
  8
DRAW2
100
AcDbCircle
 10
-402.2373075048228
 20
57.0
 30
0.0
 40
9.0
100
AcDbArc
 50
319.1881364537209
 51
340.8118635462792
  0
ARC
  5
1B8C
330
18
100
AcDbEntity
  8
DRAW2
100
AcDbCircle
 10
-402.2373075048228
 20
57.0
 30
0.0
 40
9.0
100
AcDbArc
 50
19.18813645372088
 51
40.8118635462791
  0
ARC
  5
1B8D
330
18
100
AcDbEntity
  8
DRAW2
100
AcDbCircle
 10
-402.2373075048228
 20
57.0
 30
0.0
 40
9.0
100
AcDbArc
 50
79.18813645372093
 51
100.811863546279
  0
ARC
  5
1B8E
330
18
100
AcDbEntity
  8
DRAW2
100
AcDbCircle
 10
-402.2373075048228
 20
57.0
 30
0.0
 40
9.0
100
AcDbArc
 50
139.1881364537209
 51
160.8118635462791
  0
ARC
  5
1B8F
330
18
100
AcDbEntity
  8
DRAW2
100
AcDbCircle
 10
-402.2373075048228
 20
57.0
 30
0.0
 40
9.0
100
AcDbArc
 50
199.1881364537209
 51
220.8118635462791
  0
ARC
  5
1B90
330
18
100
AcDbEntity
  8
DRAW2
100
AcDbCircle
 10
-402.2373075048228
 20
57.0
 30
0.0
 40
9.0
100
AcDbArc
 50
259.1881364537209
 51
280.811863546279
  0
LINE
  5
1B91
330
18
100
AcDbEntity
  8
DRAW2
100
AcDbLine
 10
-115.8871266211072
 20
63.74310867847299
 30
0.0
 11
-113.6096789099713
 21
63.67193843750001
 31
0.0
  0
LINE
  5
1B92
330
18
100
AcDbEntity
  8
DRAW3
100
AcDbLine
 10
-114.3196489099714
 20
62.83812499999999
 30
0.0
 11
-113.6096789099713
 21
62.81593843749999
 31
0.0
  0
LINE
  5
1B93
330
18
100
AcDbEntity
  8
DRAW2
100
AcDbLine
 10
-114.3196489099714
 20
50.30587500000001
 30
0.0
 11
-114.3196489099714
 21
63.69412499999999
 31
0.0
  0
LINE
  5
1B94
330
18
100
AcDbEntity
  8
DRAW3
100
AcDbLine
 10
-115.8871266211072
 20
63.74310867847299
 30
0.0
 11
-114.3196489099714
 21
62.83812499999999
 31
0.0
  0
LINE
  5
1B95
330
18
100
AcDbEntity
  8
DRAW3
100
AcDbLine
 10
-114.3196489099714
 20
51.16187500000001
 30
0.0
 11
-113.6096789099713
 21
51.1840615625
 31
0.0
  0
LINE
  5
1B96
330
18
100
AcDbEntity
  8
DRAW2
100
AcDbLine
 10
-115.8871266211072
 20
50.25689132152701
 30
0.0
 11
-113.6096789099713
 21
50.32806156250001
 31
0.0
  0
LINE
  5
1B97
330
18
100
AcDbEntity
  8
DRAW3
100
AcDbLine
 10
-115.8871266211072
 20
50.25689132152701
 30
0.0
 11
-114.3196489099714
 21
51.16187500000001
 31
0.0
  0
LINE
  5
1B98
330
18
100
AcDbEntity
  8
DRAW2
100
AcDbLine
 10
-145.6096489099713
 20
65.25
 30
0.0
 11
-145.6096489099713
 21
48.75
 31
0.0
  0
CIRCLE
  5
1B99
330
18
100
AcDbEntity
  8
DRAW2
100
AcDbCircle
 10
-402.2373075048228
 20
57.0
 30
0.0
 40
8.25
  0
LINE
  5
1B9A
330
18
100
AcDbEntity
  8
DRAW2
100
AcDbLine
 10
-145.6096489099713
 20
65.25
 30
0.0
 11
-138.6096489099713
 21
65.25
 31
0.0
  0
LINE
  5
1B9B
330
18
100
AcDbEntity
  8
DRAW2
100
AcDbLine
 10
-138.4087467039356
 20
66.0
 30
0.0
 11
-138.6096489099713
 21
65.25
 31
0.0
  0
LINE
  5
1B9C
330
18
100
AcDbEntity
  8
DRAW2
100
AcDbLine
 10
-138.4087467039356
 20
66.0
 30
0.0
 11
-135.3105511160071
 21
66.0
 31
0.0
  0
LINE
  5
1B9D
330
18
100
AcDbEntity
  8
DRAW2
100
AcDbLine
 10
-135.1096489099713
 20
48.5
 30
0.0
 11
-135.1096489099713
 21
65.50000000000006
 31
0.0
  0
LINE
  5
1B9E
330
18
100
AcDbEntity
  8
DRAW2
100
AcDbLine
 10
-145.6096489099713
 20
48.75
 30
0.0
 11
-138.6096489099713
 21
48.75
 31
0.0
  0
LINE
  5
1B9F
330
18
100
AcDbEntity
  8
DRAW2
100
AcDbLine
 10
-115.8871266211072
 20
63.74310867847299
 30
0.0
 11
-117.3166215989752
 21
66.25
 31
0.0
  0
LINE
  5
1BA0
330
18
100
AcDbEntity
  8
DRAW2
100
AcDbLine
 10
-134.3596489099713
 20
66.25
 30
0.0
 11
-135.1096489099713
 21
65.5
 31
0.0
  0
LINE
  5
1BA1
330
18
100
AcDbEntity
  8
DRAW2
100
AcDbLine
 10
-119.6096489099713
 20
69.0
 30
0.0
 11
-119.6096489099713
 21
67.75
 31
0.0
  0
LINE
  5
1BA2
330
18
100
AcDbEntity
  8
DRAW2
100
AcDbLine
 10
-117.3166215989752
 20
66.25
 30
0.0
 11
-118.1096489099713
 21
66.25
 31
0.0
  0
ARC
  5
1BA3
330
18
100
AcDbEntity
  8
DRAW2
100
AcDbCircle
 10
-118.1096489099713
 20
67.75
 30
0.0
 40
1.5
100
AcDbArc
 50
180.0
 51
270.0
  0
ARC
  5
1BA4
330
18
100
AcDbEntity
  8
DRAW2
100
AcDbCircle
 10
-132.1096489099713
 20
67.75
 30
0.0
 40
1.5
100
AcDbArc
 50
270.0
 51
0.0
  0
LINE
  5
1BA5
330
18
100
AcDbEntity
  8
DRAW2
100
AcDbLine
 10
-121.1096489099713
 20
86.0
 30
0.0
 11
-129.1096489099713
 21
86.0
 31
0.0
  0
ARC
  5
1BA6
330
18
100
AcDbEntity
  8
DRAW2
100
AcDbCircle
 10
-395.2373075048228
 20
64.50555349946512
 30
0.0
 40
1.5
100
AcDbArc
 50
180.0
 51
240.0
  0
ARC
  5
1BA7
330
18
100
AcDbEntity
  8
DRAW2
100
AcDbCircle
 10
-409.2373075048228
 20
64.50555349946512
 30
0.0
 40
1.5
100
AcDbArc
 50
299.9999999999999
 51
0.0
  0
LINE
  5
1BA8
330
18
100
AcDbEntity
  8
DRAW2
100
AcDbLine
 10
-407.7373075048228
 20
69.0
 30
0.0
 11
-407.7373075048228
 21
64.50555349946512
 31
0.0
  0
LINE
  5
1BA9
330
18
100
AcDbEntity
  8
DRAW2
100
AcDbLine
 10
-396.7373075048228
 20
69.0
 30
0.0
 11
-396.7373075048228
 21
64.50555349946512
 31
0.0
  0
LINE
  5
1BAA
330
18
100
AcDbEntity
  8
DRAW2
100
AcDbLine
 10
-118.1096489099713
 20
75.0
 30
0.0
 11
-132.1096489099713
 21
75.0
 31
0.0
  0
LINE
  5
1BAB
330
18
100
AcDbEntity
  8
DRAW2
100
AcDbLine
 10
-117.1096489099713
 20
74.0
 30
0.0
 11
-117.1096489099713
 21
70.0
 31
0.0
  0
LINE
  5
1BAC
330
18
100
AcDbEntity
  8
DRAW2
100
AcDbLine
 10
-133.1096489099713
 20
74.0
 30
0.0
 11
-133.1096489099713
 21
70.0
 31
0.0
  0
ARC
  5
1BAD
330
18
100
AcDbEntity
  8
DRAW2
100
AcDbCircle
 10
-118.1096489099713
 20
70.0
 30
0.0
 40
1.0
100
AcDbArc
 50
270.0
 51
0.0
  0
ARC
  5
1BAE
330
18
100
AcDbEntity
  8
DRAW2
100
AcDbCircle
 10
-132.1096489099713
 20
70.0
 30
0.0
 40
1.0
100
AcDbArc
 50
180.0
 51
270.0
  0
ARC
  5
1BAF
330
18
100
AcDbEntity
  8
DRAW2
100
AcDbCircle
 10
-118.1096489099713
 20
74.0
 30
0.0
 40
1.0
100
AcDbArc
 50
0.0
 51
90.0
  0
LINE
  5
1BB0
330
18
100
AcDbEntity
  8
DRAW2
100
AcDbLine
 10
-119.1096489099713
 20
83.49999999999999
 30
0.0
 11
-119.1096489099713
 21
75.0
 31
0.0
  0
ARC
  5
1BB1
330
18
100
AcDbEntity
  8
DRAW2
100
AcDbCircle
 10
-120.1096489099713
 20
83.49999999999999
 30
0.0
 40
1.0
100
AcDbArc
 50
0.0
 51
90.0
  0
LINE
  5
1BB2
330
18
100
AcDbEntity
  8
DRAW2
100
AcDbLine
 10
-120.1096489099713
 20
85.0
 30
0.0
 11
-120.1096489099713
 21
84.50000000000001
 31
0.0
  0
LINE
  5
1BB3
330
18
100
AcDbEntity
  8
DRAW2
100
AcDbLine
 10
-130.1096489099713
 20
85.0
 30
0.0
 11
-130.1096489099713
 21
84.50000000000001
 31
0.0
  0
ARC
  5
1BB4
330
18
100
AcDbEntity
  8
DRAW2
100
AcDbCircle
 10
-129.1096489099713
 20
85.0
 30
0.0
 40
1.0
100
AcDbArc
 50
90.0
 51
180.0
  0
ARC
  5
1BB5
330
18
100
AcDbEntity
  8
DRAW2
100
AcDbCircle
 10
-121.1096489099713
 20
85.0
 30
0.0
 40
1.0
100
AcDbArc
 50
0.0
 51
90.0
  0
LINE
  5
1BB6
330
18
100
AcDbEntity
  8
DRAW2
100
AcDbLine
 10
-118.1096489099713
 20
69.0
 30
0.0
 11
-132.1096489099713
 21
69.0
 31
0.0
  0
LINE
  5
1BB7
330
18
100
AcDbEntity
  8
DRAW2
100
AcDbLine
 10
-149.6096489099713
 20
83.49999999999999
 30
0.0
 11
-149.6096489099713
 21
76.83457635340904
 31
0.0
  0
ARC
  5
1BB8
330
18
100
AcDbEntity
  8
DRAW2
100
AcDbCircle
 10
-148.6096489099713
 20
83.49999999999999
 30
0.0
 40
1.0
100
AcDbArc
 50
90.0
 51
180.0
  0
LINE
  5
1BB9
330
18
100
AcDbEntity
  8
DRAW2
100
AcDbLine
 10
-148.7885343481713
 20
75.85070644330909
 30
0.0
 11
-133.1096489099713
 21
73.0
 31
0.0
  0
ARC
  5
1BBA
330
18
100
AcDbEntity
  8
DRAW2
100
AcDbCircle
 10
-148.6096489099713
 20
76.83457635340904
 30
0.0
 40
1.0
100
AcDbArc
 50
180.0
 51
259.695153531234
  0
LINE
  5
1BBB
330
18
100
AcDbEntity
  8
DRAW2
100
AcDbLine
 10
-117.3166215989752
 20
47.75
 30
0.0
 11
-134.3596489099713
 21
47.75
 31
0.0
  0
LINE
  5
1BBC
330
18
100
AcDbEntity
  8
DRAW2
100
AcDbLine
 10
-115.8871266211072
 20
50.25689132152701
 30
0.0
 11
-117.3166215989752
 21
47.75
 31
0.0
  0
LINE
  5
1BBD
330
18
100
AcDbEntity
  8
DRAW2
100
AcDbLine
 10
-134.3596489099713
 20
47.75
 30
0.0
 11
-135.1096489099713
 21
48.5
 31
0.0
  0
LINE
  5
1BBE
330
18
100
AcDbEntity
  8
DRAW2
100
AcDbLine
 10
-120.1096489099713
 20
84.50000000000001
 30
0.0
 11
-148.6096489099713
 21
84.50000000000001
 31
0.0
  0
LINE
  5
1BBF
330
18
100
AcDbEntity
  8
DRAW2
100
AcDbLine
 10
-130.6096489099713
 20
69.0
 30
0.0
 11
-130.6096489099713
 21
67.75
 31
0.0
  0
ARC
  5
1BC0
330
18
100
AcDbEntity
  8
DRAW2
100
AcDbCircle
 10
-132.1096489099713
 20
74.0
 30
0.0
 40
1.0
100
AcDbArc
 50
90.0
 51
180.0
  0
ARC
  5
1BC1
330
18
100
AcDbEntity
  8
DRAW2
100
AcDbCircle
 10
-130.1096489099713
 20
83.49999999999999
 30
0.0
 40
1.0
100
AcDbArc
 50
90.0
 51
180.0
  0
LINE
  5
1BC2
330
18
100
AcDbEntity
  8
DRAW2
100
AcDbLine
 10
-131.1096489099713
 20
83.49999999999999
 30
0.0
 11
-131.1096489099713
 21
75.0
 31
0.0
  0
CIRCLE
  5
1BC3
330
18
100
AcDbEntity
  8
DRAW2
100
AcDbCircle
 10
-402.2373075048228
 20
57.0
 30
0.0
 40
3.0
  0
CIRCLE
  5
1BC4
330
18
100
AcDbEntity
  8
DRAW2
100
AcDbCircle
 10
-402.2373075048228
 20
57.0
 30
0.0
 40
5.694887103024192
  0
CIRCLE
  5
1BC5
330
18
100
AcDbEntity
  8
DRAW3
100
AcDbCircle
 10
-402.2373075048228
 20
57.0
 30
0.0
 40
6.578500006249999
  0
LINE
  5
1BC6
330
18
100
AcDbEntity
  8
DRAW2
100
AcDbLine
 10
-138.6096489099713
 20
65.25
 30
0.0
 11
-138.6096489099713
 21
48.75
 31
0.0
  0
ARC
  5
1BC7
330
18
100
AcDbEntity
  8
DRAW2
100
AcDbCircle
 10
-125.1096489099713
 20
70.73873561864115
 30
0.0
 40
7.099207522960409
100
AcDbArc
 50
224.7428329428409
 51
315.257167057159
  0
LINE
  5
1BC8
330
18
100
AcDbEntity
  8
DRAW2
100
AcDbLine
 10
-132.1096489099713
 20
66.25
 30
0.0
 11
-134.3596489099713
 21
66.25
 31
0.0
  0
ARC
  5
1BC9
330
18
100
AcDbEntity
  8
DRAW2
100
AcDbCircle
 10
-130.1281625720527
 20
64.35734986717012
 30
0.0
 40
8.412313860415331
100
AcDbArc
 50
169.8470989734814
 51
190.1529010265183
  0
ARC
  5
1BCA
330
18
100
AcDbEntity
  8
DRAW2
100
AcDbCircle
 10
-105.2624459327353
 20
57.0
 30
0.0
 40
33.27802961136473
100
AcDbArc
 50
174.9003235056027
 51
185.0996764943972
  0
LINE
  5
1BCB
330
18
100
AcDbEntity
  8
DRAW2
100
AcDbLine
 10
-138.4087467039356
 20
59.95803989154982
 30
0.0
 11
-135.3105511160071
 21
59.95803989154982
 31
0.0
  0
LINE
  5
1BCC
330
18
100
AcDbEntity
  8
DRAW2
100
AcDbLine
 10
-138.4087467039356
 20
62.88219598639284
 30
0.0
 11
-135.3105511160071
 21
62.88219598639284
 31
0.0
  0
LINE
  5
1BCD
330
18
100
AcDbEntity
  8
DRAW2
100
AcDbLine
 10
-138.4087467039356
 20
59.95803989154982
 30
0.0
 11
-138.4087467039356
 21
62.88219598639284
 31
0.0
  0
LINE
  5
1BCE
330
18
100
AcDbEntity
  8
DRAW2
100
AcDbLine
 10
-138.4087467039356
 20
65.84023587794263
 30
0.0
 11
-135.3105511160071
 21
65.84023587794263
 31
0.0
  0
LINE
  5
1BCF
330
18
100
AcDbEntity
  8
DRAW2
100
AcDbLine
 10
-138.4087467039356
 20
65.84023587794263
 30
0.0
 11
-138.4087467039356
 21
66.0
 31
0.0
  0
LINE
  5
1BD0
330
18
100
AcDbEntity
  8
DRAW2
100
AcDbLine
 10
-135.3105511160071
 20
65.84023587794263
 30
0.0
 11
-135.3105511160071
 21
66.0
 31
0.0
  0
LINE
  5
1BD1
330
18
100
AcDbEntity
  8
DRAW2
100
AcDbLine
 10
-135.3105511160071
 20
66.0
 30
0.0
 11
-135.1096489099713
 21
65.25
 31
0.0
  0
ARC
  5
1BD2
330
18
100
AcDbEntity
  8
DRAW2
100
AcDbCircle
 10
-143.5911352478898
 20
64.35734986717008
 30
0.0
 40
8.412313860415105
100
AcDbArc
 50
349.8470989734816
 51
10.15290102651898
  0
LINE
  5
1BD3
330
18
100
AcDbEntity
  8
DRAW2
100
AcDbLine
 10
-135.3105511160071
 20
59.95803989154982
 30
0.0
 11
-135.3105511160071
 21
62.88219598639284
 31
0.0
  0
LINE
  5
1BD4
330
18
100
AcDbEntity
  8
DRAW2
100
AcDbLine
 10
-138.4087467039356
 20
48.0
 30
0.0
 11
-135.3105511160071
 21
48.0
 31
0.0
  0
LINE
  5
1BD5
330
18
100
AcDbEntity
  8
DRAW2
100
AcDbLine
 10
-138.4087467039356
 20
48.15976412205737
 30
0.0
 11
-135.309173819245
 21
48.15976412205737
 31
0.0
  0
LINE
  5
1BD6
330
18
100
AcDbEntity
  8
DRAW2
100
AcDbLine
 10
-135.3105511160071
 20
48.0
 30
0.0
 11
-135.1096489099713
 21
48.75
 31
0.0
  0
LINE
  5
1BD7
330
18
100
AcDbEntity
  8
DRAW2
100
AcDbLine
 10
-135.3105511160071
 20
48.15976412205737
 30
0.0
 11
-135.3105511160071
 21
48.0
 31
0.0
  0
LINE
  5
1BD8
330
18
100
AcDbEntity
  8
DRAW2
100
AcDbLine
 10
-138.4087467039356
 20
48.15976412205737
 30
0.0
 11
-138.4087467039356
 21
48.0
 31
0.0
  0
LINE
  5
1BD9
330
18
100
AcDbEntity
  8
DRAW2
100
AcDbLine
 10
-138.4087467039356
 20
48.0
 30
0.0
 11
-138.6096489099713
 21
48.75
 31
0.0
  0
ARC
  5
1BDA
330
18
100
AcDbEntity
  8
DRAW2
100
AcDbCircle
 10
-130.1281625720527
 20
49.64265013282989
 30
0.0
 40
8.412313860415329
100
AcDbArc
 50
169.8470989734817
 51
190.1529010265185
  0
LINE
  5
1BDB
330
18
100
AcDbEntity
  8
DRAW2
100
AcDbLine
 10
-138.4087467039356
 20
54.04196010845018
 30
0.0
 11
-138.4087467039356
 21
51.11780401360715
 31
0.0
  0
LINE
  5
1BDC
330
18
100
AcDbEntity
  8
DRAW2
100
AcDbLine
 10
-138.4087467039356
 20
51.11780401360715
 30
0.0
 11
-135.3105511160071
 21
51.11780401360715
 31
0.0
  0
ARC
  5
1BDD
330
18
100
AcDbEntity
  8
DRAW2
100
AcDbCircle
 10
-143.6347694296917
 20
49.63878406783229
 30
0.0
 40
8.455947153849152
100
AcDbArc
 50
349.9266465340015
 51
10.12656948217038
  0
LINE
  5
1BDE
330
18
100
AcDbEntity
  8
DRAW2
100
AcDbLine
 10
-135.3105511160071
 20
54.04196010845018
 30
0.0
 11
-135.3105511160071
 21
51.11780401360715
 31
0.0
  0
LINE
  5
1BDF
330
18
100
AcDbEntity
  8
DRAW2
100
AcDbLine
 10
-138.4087467039356
 20
54.04196010845018
 30
0.0
 11
-135.3105511160071
 21
54.04196010845018
 31
0.0
  0
ARC
  5
1BE0
330
18
100
AcDbEntity
  8
DRAW2
100
AcDbCircle
 10
-168.4568518872073
 20
57.0
 30
0.0
 40
33.27802961136473
100
AcDbArc
 50
354.9003235056027
 51
5.099676494397205
  0
LINE
  5
1BE1
330
18
100
AcDbEntity
  8
DRAW2
100
AcDbLine
 10
-115.8871266211072
 20
63.74310867847299
 30
0.0
 11
-115.8871266211072
 21
50.25689132152701
 31
0.0
  0
ARC
  5
1BE2
330
18
100
AcDbEntity
  8
DRAW2
100
AcDbCircle
 10
-121.1665620381866
 20
64.34665259937887
 30
0.0
 40
4.266557709360186
100
AcDbArc
 50
334.4690811414809
 51
25.53091885852309
  0
LINE
  5
1BE3
330
18
100
AcDbEntity
  8
DRAW2
100
AcDbLine
 10
-117.3166215989752
 20
66.18553087208352
 30
0.0
 11
-119.0018602496466
 21
66.18553087208352
 31
0.0
  0
LINE
  5
1BE4
330
18
100
AcDbEntity
  8
DRAW2
100
AcDbLine
 10
-117.3166215989752
 20
62.53690099225193
 30
0.0
 11
-134.4062712188611
 21
62.53690099225193
 31
0.0
  0
LINE
  5
1BE5
330
18
100
AcDbEntity
  8
DRAW2
100
AcDbLine
 10
-117.3166215989752
 20
60.64862987983161
 30
0.0
 11
-134.4062712188611
 21
60.64862987983161
 31
0.0
  0
LINE
  5
1BE6
330
18
100
AcDbEntity
  8
DRAW2
100
AcDbLine
 10
-117.3166215989752
 20
60.64862987983161
 30
0.0
 11
-117.3166215989752
 21
62.53690099225193
 31
0.0
  0
LINE
  5
1BE7
330
18
100
AcDbEntity
  8
DRAW2
100
AcDbLine
 10
-117.3166215989752
 20
66.18553087208352
 30
0.0
 11
-117.3166215989752
 21
66.25
 31
0.0
  0
LINE
  5
1BE8
330
18
100
AcDbEntity
  8
DRAW2
100
AcDbLine
 10
-117.3166215989752
 20
53.35137012016838
 30
0.0
 11
-117.3166215989752
 21
51.46309900774807
 31
0.0
  0
ARC
  5
1BE9
330
18
100
AcDbEntity
  8
DRAW2
100
AcDbCircle
 10
-121.1665620381866
 20
49.65334740062113
 30
0.0
 40
4.266557709360186
100
AcDbArc
 50
334.4690811414819
 51
25.53091885851397
  0
LINE
  5
1BEA
330
18
100
AcDbEntity
  8
DRAW2
100
AcDbLine
 10
-117.3166215989752
 20
51.46309900774807
 30
0.0
 11
-134.4062712188611
 21
51.46309900774807
 31
0.0
  0
LINE
  5
1BEB
330
18
100
AcDbEntity
  8
DRAW2
100
AcDbLine
 10
-117.3166215989752
 20
47.81446912791648
 30
0.0
 11
-117.3166215989752
 21
47.75
 31
0.0
  0
ARC
  5
1BEC
330
18
100
AcDbEntity
  8
DRAW2
100
AcDbCircle
 10
-133.1422789199728
 20
57.0
 30
0.0
 40
16.24081062144512
100
AcDbArc
 50
347.0172251576913
 51
12.98277484230864
  0
LINE
  5
1BED
330
18
100
AcDbEntity
  8
DRAW2
100
AcDbLine
 10
-117.3166215989752
 20
53.35137012016838
 30
0.0
 11
-134.4062712188611
 21
53.35137012016838
 31
0.0
  0
ARC
  5
1BEE
330
18
100
AcDbEntity
  8
DRAW2
100
AcDbCircle
 10
-119.0018602496466
 20
64.68553087208355
 30
0.0
 40
1.5
100
AcDbArc
 50
90.0
 51
135.257167057159
  0
LINE
  5
1BEF
330
18
100
AcDbEntity
  8
DRAW2
100
AcDbLine
 10
-135.1096489099713
 20
48.5
 30
0.0
 11
-134.3596489099713
 21
47.75
 31
0.0
  0
ARC
  5
1BF0
330
18
100
AcDbEntity
  8
DRAW2
100
AcDbCircle
 10
-125.2946943337476
 20
57.0
 30
0.0
 40
9.814954576223676
100
AcDbArc
 50
158.1769149490564
 51
201.8230850509434
  0
ARC
  5
1BF1
330
18
100
AcDbEntity
  8
DRAW2
100
AcDbCircle
 10
-132.4563869316221
 20
49.66340188072482
 30
0.0
 40
2.653480447004879
100
AcDbArc
 50
137.293720824622
 51
224.1704540829942
  0
LINE
  5
1BF2
330
18
100
AcDbEntity
  8
DRAW2
100
AcDbLine
 10
-134.3596489099713
 20
47.75
 30
0.0
 11
-134.3596489099713
 21
47.81446912791645
 31
0.0
  0
LINE
  5
1BF3
330
18
100
AcDbEntity
  8
DRAW2
100
AcDbLine
 10
-134.4062712188611
 20
51.46309900774807
 30
0.0
 11
-134.4062712188611
 21
53.35137012016838
 31
0.0
  0
ARC
  5
1BF4
330
18
100
AcDbEntity
  8
DRAW2
100
AcDbCircle
 10
-132.4563869316221
 20
64.33659811927515
 30
0.0
 40
2.653480447004879
100
AcDbArc
 50
135.8295459170057
 51
222.7062791753779
  0
LINE
  5
1BF5
330
18
100
AcDbEntity
  8
DRAW2
100
AcDbLine
 10
-134.4062712188611
 20
62.53690099225193
 30
0.0
 11
-134.4062712188611
 21
60.64862987983161
 31
0.0
  0
LINE
  5
1BF6
330
18
100
AcDbEntity
  8
DRAW2
100
AcDbLine
 10
-134.3596489099713
 20
66.25
 30
0.0
 11
-134.3596489099713
 21
66.18553087208352
 31
0.0
  0
LINE
  5
1BF7
330
18
100
AcDbEntity
  8
DRAW2
100
AcDbLine
 10
-131.2174375702961
 20
66.18553087208352
 30
0.0
 11
-134.3596489099713
 21
66.18553087208352
 31
0.0
  0
ARC
  5
1BF8
330
18
100
AcDbEntity
  8
DRAW2
100
AcDbCircle
 10
-131.2174375702961
 20
64.68553087208352
 30
0.0
 40
1.5
100
AcDbArc
 50
44.74283294284098
 51
90.0
  0
LINE
  5
1BF9
330
18
100
AcDbEntity
  8
DRAW2
100
AcDbLine
 10
-117.3166215989752
 20
47.81446912791645
 30
0.0
 11
-134.3596489099713
 21
47.81446912791645
 31
0.0
  0
LINE
  5
1BFA
330
18
100
AcDbEntity
  8
DRAW2
100
AcDbLine
 10
-395.2373075048228
 20
69.0
 30
0.0
 11
-409.2373075048228
 21
69.0
 31
0.0
  0
LINE
  5
1BFB
330
18
100
AcDbEntity
  8
DRAW2
100
AcDbLine
 10
-395.2373075048228
 20
75.0
 30
0.0
 11
-398.2373075048228
 21
75.0
 31
0.0
  0
LINE
  5
1BFC
330
18
100
AcDbEntity
  8
DRAW2
100
AcDbLine
 10
-398.2373075048228
 20
86.0
 30
0.0
 11
-406.2373075048228
 21
86.0
 31
0.0
  0
LINE
  5
1BFD
330
18
100
AcDbEntity
  8
DRAW2
100
AcDbLine
 10
-396.2373075048228
 20
83.49999999999999
 30
0.0
 11
-396.2373075048228
 21
75.0
 31
0.0
  0
ARC
  5
1BFE
330
18
100
AcDbEntity
  8
DRAW2
100
AcDbCircle
 10
-395.2373075048228
 20
70.0
 30
0.0
 40
1.0
100
AcDbArc
 50
270.0
 51
0.0
  0
ARC
  5
1BFF
330
18
100
AcDbEntity
  8
DRAW2
100
AcDbCircle
 10
-395.2373075048228
 20
74.0
 30
0.0
 40
1.0
100
AcDbArc
 50
0.0
 51
90.0
  0
LINE
  5
1C00
330
18
100
AcDbEntity
  8
DRAW2
100
AcDbLine
 10
-394.2373075048228
 20
74.0
 30
0.0
 11
-394.2373075048228
 21
70.0
 31
0.0
  0
ARC
  5
1C01
330
18
100
AcDbEntity
  8
DRAW2
100
AcDbCircle
 10
-398.2373075048228
 20
85.0
 30
0.0
 40
1.0
100
AcDbArc
 50
0.0
 51
90.0
  0
LINE
  5
1C02
330
18
100
AcDbEntity
  8
DRAW2
100
AcDbLine
 10
-397.2373075048228
 20
85.0
 30
0.0
 11
-397.2373075048228
 21
84.50000000000001
 31
0.0
  0
ARC
  5
1C03
330
18
100
AcDbEntity
  8
DRAW2
100
AcDbCircle
 10
-397.2373075048228
 20
83.49999999999999
 30
0.0
 40
1.0
100
AcDbArc
 50
0.0
 51
90.0
  0
LINE
  5
1C04
330
18
100
AcDbEntity
  8
DRAW2
100
AcDbLine
 10
-408.2373075048228
 20
83.49999999999999
 30
0.0
 11
-408.2373075048228
 21
75.0
 31
0.0
  0
LINE
  5
1C05
330
18
100
AcDbEntity
  8
DRAW2
100
AcDbLine
 10
-410.2373075048229
 20
74.0
 30
0.0
 11
-410.2373075048229
 21
70.0
 31
0.0
  0
ARC
  5
1C06
330
18
100
AcDbEntity
  8
DRAW2
100
AcDbCircle
 10
-409.2373075048228
 20
70.0
 30
0.0
 40
1.0
100
AcDbArc
 50
180.0
 51
270.0
  0
ARC
  5
1C07
330
18
100
AcDbEntity
  8
DRAW2
100
AcDbCircle
 10
-409.2373075048228
 20
74.0
 30
0.0
 40
1.0
100
AcDbArc
 50
90.0
 51
180.0
  0
ARC
  5
1C08
330
18
100
AcDbEntity
  8
DRAW2
100
AcDbCircle
 10
-407.2373075048228
 20
83.49999999999999
 30
0.0
 40
1.0
100
AcDbArc
 50
90.0
 51
180.0
  0
ARC
  5
1C09
330
18
100
AcDbEntity
  8
DRAW2
100
AcDbCircle
 10
-406.2373075048228
 20
85.0
 30
0.0
 40
1.0
100
AcDbArc
 50
90.0
 51
180.0
  0
LINE
  5
1C0A
330
18
100
AcDbEntity
  8
DRAW2
100
AcDbLine
 10
-407.2373075048228
 20
85.0
 30
0.0
 11
-407.2373075048228
 21
84.50000000000001
 31
0.0
  0
LINE
  5
1C0B
330
18
100
AcDbEntity
  8
DRAW2
100
AcDbLine
 10
-397.2373075048228
 20
84.50000000000001
 30
0.0
 11
-407.2373075048228
 21
84.50000000000001
 31
0.0
  0
LINE
  5
1C0C
330
18
100
AcDbEntity
  8
DRAW2
100
AcDbLine
 10
-398.2373075048228
 20
73.5
 30
0.0
 11
-398.2373075048228
 21
84.0
 31
0.0
  0
LINE
  5
1C0D
330
18
100
AcDbEntity
  8
DRAW2
100
AcDbLine
 10
-406.2373075048228
 20
73.5
 30
0.0
 11
-406.2373075048228
 21
84.0
 31
0.0
  0
LINE
  5
1C0E
330
18
100
AcDbEntity
  8
DRAW2
100
AcDbLine
 10
-399.2373075048228
 20
76.5
 30
0.0
 11
-399.2373075048228
 21
84.0
 31
0.0
  0
LINE
  5
1C0F
330
18
100
AcDbEntity
  8
DRAW2
100
AcDbLine
 10
-405.2373075048228
 20
76.5
 30
0.0
 11
-405.2373075048228
 21
84.0
 31
0.0
  0
LINE
  5
1C10
330
18
100
AcDbEntity
  8
DRAW2
100
AcDbLine
 10
-398.7373075048228
 20
73.0
 30
0.0
 11
-399.2914000582123
 21
73.0
 31
0.0
  0
LINE
  5
1C11
330
18
100
AcDbEntity
  8
DRAW2
100
AcDbLine
 10
-399.7373075048228
 20
76.0
 30
0.0
 11
-404.7373075048228
 21
76.0
 31
0.0
  0
LINE
  5
1C12
330
18
100
AcDbEntity
  8
DRAW2
100
AcDbLine
 10
-399.2373075048228
 20
76.0
 30
0.0
 11
-398.4039741714895
 21
73.5
 31
0.0
  0
LINE
  5
1C13
330
18
100
AcDbEntity
  8
DRAW2
100
AcDbLine
 10
-405.2373075048228
 20
76.0
 30
0.0
 11
-406.0706408381562
 21
73.5
 31
0.0
  0
ARC
  5
1C14
330
18
100
AcDbEntity
  8
DRAW2
100
AcDbCircle
 10
-398.7373075048228
 20
84.0
 30
0.0
 40
0.5
100
AcDbArc
 50
0.0
 51
90.0
  0
ARC
  5
1C15
330
18
100
AcDbEntity
  8
DRAW2
100
AcDbCircle
 10
-399.7373075048228
 20
84.0
 30
0.0
 40
0.5
100
AcDbArc
 50
0.0
 51
90.0
  0
ARC
  5
1C16
330
18
100
AcDbEntity
  8
DRAW2
100
AcDbCircle
 10
-404.7373075048228
 20
84.0
 30
0.0
 40
0.5
100
AcDbArc
 50
90.0
 51
180.0
  0
ARC
  5
1C17
330
18
100
AcDbEntity
  8
DRAW2
100
AcDbCircle
 10
-405.7373075048229
 20
84.0
 30
0.0
 40
0.5
100
AcDbArc
 50
90.0
 51
180.0
  0
LINE
  5
1C18
330
18
100
AcDbEntity
  8
DRAW2
100
AcDbLine
 10
-406.2373075048228
 20
75.0
 30
0.0
 11
-409.2373075048228
 21
75.0
 31
0.0
  0
ARC
  5
1C19
330
18
100
AcDbEntity
  8
DRAW2
100
AcDbCircle
 10
-404.7373075048228
 20
76.5
 30
0.0
 40
0.5
100
AcDbArc
 50
180.0
 51
270.0
  0
ARC
  5
1C1A
330
18
100
AcDbEntity
  8
DRAW2
100
AcDbCircle
 10
-405.7373075048229
 20
73.5
 30
0.0
 40
0.5
100
AcDbArc
 50
180.0
 51
270.0
  0
ARC
  5
1C1B
330
18
100
AcDbEntity
  8
DRAW2
100
AcDbCircle
 10
-398.7373075048228
 20
73.5
 30
0.0
 40
0.5
100
AcDbArc
 50
270.0
 51
0.0
  0
ARC
  5
1C1C
330
18
100
AcDbEntity
  8
DRAW2
100
AcDbCircle
 10
-399.7373075048228
 20
76.5
 30
0.0
 40
0.5
100
AcDbArc
 50
270.0
 51
0.0
  0
LINE
  5
1C1D
330
18
100
AcDbEntity
  8
DRAW2
100
AcDbLine
 10
-400.0562258980029
 20
75.29447751937204
 30
0.0
 11
-399.2914000582123
 21
73.0
 31
0.0
  0
LINE
  5
1C1E
330
18
100
AcDbEntity
  8
DRAW2
100
AcDbLine
 10
-404.4183891116427
 20
75.29447751937204
 30
0.0
 11
-405.1832149514334
 21
73.0
 31
0.0
  0
LINE
  5
1C1F
330
18
100
AcDbEntity
  8
DRAW2
100
AcDbLine
 10
-400.5305675470283
 20
75.63636363636362
 30
0.0
 11
-403.9440474626174
 21
75.63636363636362
 31
0.0
  0
ARC
  5
1C20
330
18
100
AcDbEntity
  8
DRAW2
100
AcDbCircle
 10
-403.9440474626174
 20
75.13636363636362
 30
0.0
 40
0.5
100
AcDbArc
 50
90.0
 51
161.565051177078
  0
ARC
  5
1C21
330
18
100
AcDbEntity
  8
DRAW2
100
AcDbCircle
 10
-400.5305675470283
 20
75.13636363636362
 30
0.0
 40
0.5
100
AcDbArc
 50
18.4349488229221
 51
90.0
  0
LINE
  5
1C22
330
18
100
AcDbEntity
  8
DRAW2
100
AcDbLine
 10
-405.1832149514334
 20
73.0
 30
0.0
 11
-405.7373075048229
 21
73.0
 31
0.0
  0
LINE
  5
4782
330
18
100
AcDbEntity
  8
DRAW2
100
AcDbLine
 10
-303.9370953256547
 20
-17.18804
 30
0.0
 11
-303.9370953256547
 21
-32.19914999999997
 31
0.0
  0
LINE
  5
4783
330
18
100
AcDbEntity
  8
DRAW2
100
AcDbLine
 10
-298.0176553256546
 20
-17.18802999999996
 30
0.0
 11
-297.4371153256546
 21
-18.19355999999999
 31
0.0
  0
LINE
  5
4784
330
18
100
AcDbEntity
  8
DRAW2
100
AcDbLine
 10
-305.9370953256547
 20
-16.9436
 30
0.0
 11
-305.9370953256547
 21
-32.4436
 31
0.0
  0
LINE
  5
4785
330
18
100
AcDbEntity
  8
DRAW2
100
AcDbLine
 10
-297.4371053256546
 20
-31.1936
 30
0.0
 11
-298.0176653256546
 21
-32.19916999999998
 31
0.0
  0
LINE
  5
4786
330
18
100
AcDbEntity
  8
DRAW2
100
AcDbLine
 10
-298.0176453256547
 20
-32.19914999999997
 30
0.0
 11
-303.9370953256547
 21
-32.19914999999997
 31
0.0
  0
LINE
  5
4787
330
18
100
AcDbEntity
  8
DRAW2
100
AcDbLine
 10
-305.9370953256547
 20
-32.4436
 30
0.0
 11
-307.5371053256546
 21
-32.4436
 31
0.0
  0
LINE
  5
4788
330
18
100
AcDbEntity
  8
DRAW2
100
AcDbLine
 10
-298.0176253256546
 20
-20.94081999999997
 30
0.0
 11
-303.9370953256547
 21
-20.94081999999997
 31
0.0
  0
LINE
  5
4789
330
18
100
AcDbEntity
  8
DRAW2
100
AcDbLine
 10
-298.0176353256546
 20
-28.44637999999998
 30
0.0
 11
-303.9370953256547
 21
-28.44637999999998
 31
0.0
  0
LINE
  5
478A
330
18
100
AcDbEntity
  8
DRAW2
100
AcDbLine
 10
-303.9371253256547
 20
-24.40496000000001
 30
0.0
 11
-305.9371153256546
 21
-25.55964999999997
 31
0.0
  0
LINE
  5
478B
330
18
100
AcDbEntity
  8
DRAW2
100
AcDbLine
 10
-303.9370653256546
 20
-23.82759999999996
 30
0.0
 11
-305.9370753256546
 21
-24.98230999999998
 31
0.0
  0
LINE
  5
478C
330
18
100
AcDbEntity
  8
DRAW2
100
AcDbLine
 10
-303.9370953256547
 20
-31.99358999999998
 30
0.0
 11
-305.9370953256547
 21
-31.99358999999998
 31
0.0
  0
LINE
  5
478D
330
18
100
AcDbEntity
  8
DRAW2
100
AcDbLine
 10
-294.5372253256547
 20
-21.31862999999998
 30
0.0
 11
-294.5372253256547
 21
-28.0686
 31
0.0
  0
LINE
  5
478E
330
18
100
AcDbEntity
  8
DRAW2
100
AcDbLine
 10
-295.1621953256547
 20
-20.6936
 30
0.0
 11
-297.4371253256547
 21
-20.6936
 31
0.0
  0
LINE
  5
478F
330
18
100
AcDbEntity
  8
DRAW2
100
AcDbLine
 10
-295.1621953256547
 20
-28.69362999999998
 30
0.0
 11
-297.4371253256547
 21
-28.69362999999998
 31
0.0
  0
ARC
  5
4790
330
18
100
AcDbEntity
  8
DRAW2
100
AcDbCircle
 10
-309.8569553256546
 20
-24.6936
 30
0.0
 40
12.419868
100
AcDbArc
 50
342.4126499999983
 51
17.58735499999995
  0
LINE
  5
4791
330
18
100
AcDbEntity
  8
DRAW2
100
AcDbLine
 10
-297.4370953256547
 20
-18.19356999999996
 30
0.0
 11
-297.4370953256547
 21
-31.1936
 31
0.0
  0
ARC
  5
4792
330
18
100
AcDbEntity
  8
DRAW2
100
AcDbCircle
 10
-300.7596953256547
 20
-30.32276000000001
 30
0.0
 40
3.322595799999999
100
AcDbArc
 50
334.3831999999995
 51
34.38389599999836
  0
ARC
  5
4793
330
18
100
AcDbEntity
  8
DRAW2
100
AcDbCircle
 10
-300.7597553256546
 20
-19.06442999999995
 30
0.0
 40
3.3226678
100
AcDbArc
 50
325.61684
 51
25.61446599999965
  0
LINE
  5
4794
330
18
100
AcDbEntity
  8
DRAW2
100
AcDbLine
 10
-295.1622253256547
 20
-20.6936
 30
0.0
 11
-295.1622253256547
 21
-28.6936
 31
0.0
  0
LINE
  5
4795
330
18
100
AcDbEntity
  8
DRAW3
100
AcDbLine
 10
-294.5371953256547
 20
-21.31862999999998
 30
0.0
 11
-297.4371253256547
 21
-21.31862999999998
 31
0.0
  0
LINE
  5
4796
330
18
100
AcDbEntity
  8
DRAW3
100
AcDbLine
 10
-294.5371953256547
 20
-28.0686
 30
0.0
 11
-297.4371253256547
 21
-28.0686
 31
0.0
  0
LINE
  5
4797
330
18
100
AcDbEntity
  8
DRAW2
100
AcDbLine
 10
-294.5371953256547
 20
-28.06866000000002
 30
0.0
 11
-295.1621953256547
 21
-28.69369
 31
0.0
  0
LINE
  5
4798
330
18
100
AcDbEntity
  8
DRAW2
100
AcDbLine
 10
-294.5372253256547
 20
-21.31862999999998
 30
0.0
 11
-295.1622253256547
 21
-20.69362999999998
 31
0.0
  0
LINE
  5
4799
330
18
100
AcDbEntity
  8
DRAW2
100
AcDbLine
 10
-298.0176253256546
 20
-17.18804999999997
 30
0.0
 11
-303.9370953256547
 21
-17.18804
 31
0.0
  0
LINE
  5
479A
330
18
100
AcDbEntity
  8
DRAW2
100
AcDbLine
 10
-303.9370953256547
 20
-17.39360999999996
 30
0.0
 11
-305.9370953256547
 21
-17.39360999999996
 31
0.0
  0
LINE
  5
479B
330
18
100
AcDbEntity
  8
DRAW2
100
AcDbLine
 10
-305.9370953256547
 20
-16.9436
 30
0.0
 11
-307.5370953256547
 21
-16.9436
 31
0.0
  0
LINE
  5
479C
330
18
100
AcDbEntity
  8
DRAW2
100
AcDbLine
 10
-295.16220388697
 20
33.0
 30
0.0
 11
-295.16220388697
 21
25.0
 31
0.0
  0
LINE
  5
479D
330
18
100
AcDbEntity
  8
DRAW2
100
AcDbLine
 10
-297.43707388697
 20
35.50003000000003
 30
0.0
 11
-297.43707388697
 21
22.5
 31
0.0
  0
ARC
  5
479E
330
18
100
AcDbEntity
  8
DRAW2
100
AcDbCircle
 10
-309.85693388697
 20
29.0
 30
0.0
 40
12.419868
100
AcDbArc
 50
342.4126499999983
 51
17.58735499999995
  0
LINE
  5
479F
330
18
100
AcDbEntity
  8
DRAW2
100
AcDbLine
 10
-294.53720388697
 20
32.37497000000002
 30
0.0
 11
-294.53720388697
 21
25.625
 31
0.0
  0
LINE
  5
47A0
330
18
100
AcDbEntity
  8
DRAW2
100
AcDbLine
 10
-305.93707388697
 20
36.75
 30
0.0
 11
-305.93707388697
 21
21.25
 31
0.0
  0
LINE
  5
47A1
330
18
100
AcDbEntity
  8
DRAW2
100
AcDbLine
 10
-303.93707388697
 20
36.50556
 30
0.0
 11
-303.93707388697
 21
21.49445000000003
 31
0.0
  0
LINE
  5
47A2
330
18
100
AcDbEntity
  8
DRAW2
100
AcDbLine
 10
-298.01761388697
 20
25.24722000000002
 30
0.0
 11
-303.93707388697
 21
25.24722000000002
 31
0.0
  0
LINE
  5
47A3
330
18
100
AcDbEntity
  8
DRAW2
100
AcDbLine
 10
-298.01762388697
 20
21.49445000000003
 30
0.0
 11
-303.93707388697
 21
21.49445000000003
 31
0.0
  0
LINE
  5
47A4
330
18
100
AcDbEntity
  8
DRAW2
100
AcDbLine
 10
-303.93707388697
 20
21.70001000000002
 30
0.0
 11
-305.93707388697
 21
21.70001000000002
 31
0.0
  0
LINE
  5
47A5
330
18
100
AcDbEntity
  8
DRAW2
100
AcDbLine
 10
-305.93707388697
 20
21.25
 30
0.0
 11
-307.53708388697
 21
21.25
 31
0.0
  0
LINE
  5
47A6
330
18
100
AcDbEntity
  8
DRAW2
100
AcDbLine
 10
-294.5371738869701
 20
25.62493999999998
 30
0.0
 11
-295.16217388697
 21
24.99991
 31
0.0
  0
LINE
  5
47A7
330
18
100
AcDbEntity
  8
DRAW3
100
AcDbLine
 10
-294.5371738869701
 20
25.625
 30
0.0
 11
-297.43710388697
 21
25.625
 31
0.0
  0
ARC
  5
47A8
330
18
100
AcDbEntity
  8
DRAW2
100
AcDbCircle
 10
-300.75967388697
 20
23.37083999999998
 30
0.0
 40
3.322595799999999
100
AcDbArc
 50
334.3831999999995
 51
34.38389599999836
  0
LINE
  5
47A9
330
18
100
AcDbEntity
  8
DRAW2
100
AcDbLine
 10
-295.16217388697
 20
24.99997000000002
 30
0.0
 11
-297.43710388697
 21
24.99997000000002
 31
0.0
  0
LINE
  5
47AA
330
18
100
AcDbEntity
  8
DRAW2
100
AcDbLine
 10
-297.43708388697
 20
22.5
 30
0.0
 11
-298.01764388697
 21
21.49443000000002
 31
0.0
  0
LINE
  5
47AB
330
18
100
AcDbEntity
  8
DRAW2
100
AcDbLine
 10
-298.01760388697
 20
36.50555000000002
 30
0.0
 11
-303.93707388697
 21
36.50556
 31
0.0
  0
LINE
  5
47AC
330
18
100
AcDbEntity
  8
DRAW2
100
AcDbLine
 10
-298.01760388697
 20
32.75278000000003
 30
0.0
 11
-303.93707388697
 21
32.75278000000003
 31
0.0
  0
LINE
  5
47AD
330
18
100
AcDbEntity
  8
DRAW2
100
AcDbLine
 10
-305.93707388697
 20
36.75
 30
0.0
 11
-307.53707388697
 21
36.75
 31
0.0
  0
LINE
  5
47AE
330
18
100
AcDbEntity
  8
DRAW2
100
AcDbLine
 10
-303.93707388697
 20
36.29999000000003
 30
0.0
 11
-305.93707388697
 21
36.29999000000003
 31
0.0
  0
LINE
  5
47AF
330
18
100
AcDbEntity
  8
DRAW2
100
AcDbLine
 10
-303.93704388697
 20
29.86600000000004
 30
0.0
 11
-305.93705388697
 21
28.71129000000001
 31
0.0
  0
LINE
  5
47B0
330
18
100
AcDbEntity
  8
DRAW2
100
AcDbLine
 10
-303.93710388697
 20
29.28863999999999
 30
0.0
 11
-305.93709388697
 21
28.13395000000003
 31
0.0
  0
LINE
  5
47B1
330
18
100
AcDbEntity
  8
DRAW2
100
AcDbLine
 10
-294.53720388697
 20
32.37497000000002
 30
0.0
 11
-295.16220388697
 21
32.99997000000002
 31
0.0
  0
LINE
  5
47B2
330
18
100
AcDbEntity
  8
DRAW3
100
AcDbLine
 10
-294.5371738869701
 20
32.37497000000002
 30
0.0
 11
-297.43710388697
 21
32.37497000000002
 31
0.0
  0
ARC
  5
47B3
330
18
100
AcDbEntity
  8
DRAW2
100
AcDbCircle
 10
-300.75973388697
 20
34.62917000000004
 30
0.0
 40
3.3226678
100
AcDbArc
 50
325.61684
 51
25.61446599999965
  0
LINE
  5
47B4
330
18
100
AcDbEntity
  8
DRAW2
100
AcDbLine
 10
-295.16217388697
 20
33.0
 30
0.0
 11
-297.43710388697
 21
33.0
 31
0.0
  0
LINE
  5
47B5
330
18
100
AcDbEntity
  8
DRAW2
100
AcDbLine
 10
-298.01763388697
 20
36.50557000000003
 30
0.0
 11
-297.43709388697
 21
35.50004000000001
 31
0.0
  0
LINE
  5
47B6
330
18
100
AcDbEntity
  8
DRAW2
100
AcDbLine
 10
-295.1621824482974
 20
86.69357000000003
 30
0.0
 11
-295.1621824482974
 21
78.69357000000002
 31
0.0
  0
LINE
  5
47B7
330
18
100
AcDbEntity
  8
DRAW2
100
AcDbLine
 10
-297.4370524482974
 20
89.19360000000006
 30
0.0
 11
-297.4370524482974
 21
76.19357000000002
 31
0.0
  0
ARC
  5
47B8
330
18
100
AcDbEntity
  8
DRAW2
100
AcDbCircle
 10
-309.8569124482973
 20
82.69357000000002
 30
0.0
 40
12.419868
100
AcDbArc
 50
342.4126499999983
 51
17.58735499999995
  0
LINE
  5
47B9
330
18
100
AcDbEntity
  8
DRAW2
100
AcDbLine
 10
-294.5371824482974
 20
86.06854000000003
 30
0.0
 11
-294.5371824482974
 21
79.31857000000002
 31
0.0
  0
LINE
  5
47BA
330
18
100
AcDbEntity
  8
DRAW2
100
AcDbLine
 10
-305.9370524482974
 20
90.44357000000003
 30
0.0
 11
-305.9370524482974
 21
74.94357000000002
 31
0.0
  0
LINE
  5
47BB
330
18
100
AcDbEntity
  8
DRAW2
100
AcDbLine
 10
-303.9370524482974
 20
90.19913000000002
 30
0.0
 11
-303.9370524482974
 21
75.18802000000005
 31
0.0
  0
LINE
  5
47BC
330
18
100
AcDbEntity
  8
DRAW2
100
AcDbLine
 10
-298.0175924482973
 20
78.94079000000004
 30
0.0
 11
-303.9370524482974
 21
78.94079000000004
 31
0.0
  0
LINE
  5
47BD
330
18
100
AcDbEntity
  8
DRAW2
100
AcDbLine
 10
-298.0176024482974
 20
75.18802000000005
 30
0.0
 11
-303.9370524482974
 21
75.18802000000005
 31
0.0
  0
LINE
  5
47BE
330
18
100
AcDbEntity
  8
DRAW2
100
AcDbLine
 10
-303.9370524482974
 20
75.39358000000004
 30
0.0
 11
-305.9370524482974
 21
75.39358000000004
 31
0.0
  0
LINE
  5
47BF
330
18
100
AcDbEntity
  8
DRAW2
100
AcDbLine
 10
-305.9370524482974
 20
74.94357000000002
 30
0.0
 11
-307.5370624482973
 21
74.94357000000002
 31
0.0
  0
LINE
  5
47C0
330
18
100
AcDbEntity
  8
DRAW2
100
AcDbLine
 10
-294.5371524482974
 20
79.31851
 30
0.0
 11
-295.1621524482974
 21
78.69348000000002
 31
0.0
  0
LINE
  5
47C1
330
18
100
AcDbEntity
  8
DRAW3
100
AcDbLine
 10
-294.5371524482974
 20
79.31857000000002
 30
0.0
 11
-297.4370824482974
 21
79.31857000000002
 31
0.0
  0
ARC
  5
47C2
330
18
100
AcDbEntity
  8
DRAW2
100
AcDbCircle
 10
-300.7596524482973
 20
77.06441000000001
 30
0.0
 40
3.322595799999999
100
AcDbArc
 50
334.3831999999995
 51
34.38389599999836
  0
LINE
  5
47C3
330
18
100
AcDbEntity
  8
DRAW2
100
AcDbLine
 10
-295.1621524482974
 20
78.69354000000004
 30
0.0
 11
-297.4370824482974
 21
78.69354000000004
 31
0.0
  0
LINE
  5
47C4
330
18
100
AcDbEntity
  8
DRAW2
100
AcDbLine
 10
-297.4370624482973
 20
76.19357000000002
 30
0.0
 11
-298.0176224482973
 21
75.18800000000005
 31
0.0
  0
LINE
  5
47C5
330
18
100
AcDbEntity
  8
DRAW2
100
AcDbLine
 10
-298.0175824482973
 20
90.19912000000005
 30
0.0
 11
-303.9370524482974
 21
90.19913000000002
 31
0.0
  0
LINE
  5
47C6
330
18
100
AcDbEntity
  8
DRAW2
100
AcDbLine
 10
-298.0175824482973
 20
86.44635000000006
 30
0.0
 11
-303.9370524482974
 21
86.44635000000006
 31
0.0
  0
LINE
  5
47C7
330
18
100
AcDbEntity
  8
DRAW2
100
AcDbLine
 10
-305.9370524482974
 20
90.44357000000003
 30
0.0
 11
-307.5370524482973
 21
90.44357000000003
 31
0.0
  0
LINE
  5
47C8
330
18
100
AcDbEntity
  8
DRAW2
100
AcDbLine
 10
-303.9370524482974
 20
89.99356000000005
 30
0.0
 11
-305.9370524482974
 21
89.99356000000005
 31
0.0
  0
LINE
  5
47C9
330
18
100
AcDbEntity
  8
DRAW2
100
AcDbLine
 10
-303.9370224482973
 20
83.55957000000007
 30
0.0
 11
-305.9370324482973
 21
82.40486000000004
 31
0.0
  0
LINE
  5
47CA
330
18
100
AcDbEntity
  8
DRAW2
100
AcDbLine
 10
-303.9370824482974
 20
82.98221000000001
 30
0.0
 11
-305.9370724482973
 21
81.82752000000006
 31
0.0
  0
LINE
  5
47CB
330
18
100
AcDbEntity
  8
DRAW2
100
AcDbLine
 10
-294.5371824482974
 20
86.06854000000003
 30
0.0
 11
-295.1621824482974
 21
86.69354000000003
 31
0.0
  0
LINE
  5
47CC
330
18
100
AcDbEntity
  8
DRAW3
100
AcDbLine
 10
-294.5371524482974
 20
86.06854000000003
 30
0.0
 11
-297.4370824482974
 21
86.06854000000003
 31
0.0
  0
ARC
  5
47CD
330
18
100
AcDbEntity
  8
DRAW2
100
AcDbCircle
 10
-300.7597124482973
 20
88.32274000000007
 30
0.0
 40
3.3226678
100
AcDbArc
 50
325.61684
 51
25.61446599999965
  0
LINE
  5
47CE
330
18
100
AcDbEntity
  8
DRAW2
100
AcDbLine
 10
-295.1621524482974
 20
86.69357000000003
 30
0.0
 11
-297.4370824482974
 21
86.69357000000003
 31
0.0
  0
LINE
  5
47CF
330
18
100
AcDbEntity
  8
DRAW2
100
AcDbLine
 10
-298.0176124482973
 20
90.19914000000005
 30
0.0
 11
-297.4370724482973
 21
89.19361000000003
 31
0.0
  0
LINE
  5
4E2D
330
18
100
AcDbEntity
  8
DRAW2
100
AcDbLine
 10
-354.7872975048228
 20
113.6669518849116
 30
0.0
 11
-354.7872975048228
 21
111.4999999999999
 31
0.0
  0
LINE
  5
4E2E
330
18
100
AcDbEntity
  8
DRAW2
100
AcDbLine
 10
-354.7872975048228
 20
118.0603248849116
 30
0.0
 11
-354.7872975048228
 21
113.6669518849116
 31
0.0
  0
LINE
  5
4E3A
330
18
100
AcDbEntity
  8
DRAW2
100
AcDbLine
 10
-377.2372475048228
 20
90.99997000000001
 30
0.0
 11
-377.2372475048228
 21
-33.00001000000003
 31
0.0
  0
LINE
  5
4E3B
330
18
100
AcDbEntity
  8
DRAW2
100
AcDbLine
 10
-379.2373675048228
 20
90.99997000000001
 30
0.0
 11
-379.2373675048228
 21
-33.00001000000003
 31
0.0
  0
LINE
  5
4EBF
330
18
100
AcDbEntity
  8
DRAW2
100
AcDbLine
 10
-340.0373275048228
 20
-94.90001000000004
 30
0.0
 11
-324.5373275048228
 21
-94.90001000000004
 31
0.0
  0
LINE
  5
4EC0
330
18
100
AcDbEntity
  8
DRAW2
100
AcDbLine
 10
-339.5873175048228
 20
-92.90001000000003
 30
0.0
 11
-324.9873375048228
 21
-92.90001000000003
 31
0.0
  0
LINE
  5
4EC1
330
18
100
AcDbEntity
  8
DRAW2
100
AcDbLine
 10
-340.0373275048228
 20
-94.90001000000004
 30
0.0
 11
-340.0373275048228
 21
-96.50001000000003
 31
0.0
  0
LINE
  5
4EC2
330
18
100
AcDbEntity
  8
DRAW2
100
AcDbLine
 10
-339.5873175048228
 20
-92.90001000000003
 30
0.0
 11
-339.5873175048228
 21
-94.90001000000004
 31
0.0
  0
LINE
  5
4EC3
330
18
100
AcDbEntity
  8
DRAW2
100
AcDbLine
 10
-333.1533275048228
 20
-92.90002000000001
 30
0.0
 11
-331.9986175048228
 21
-94.90003000000001
 31
0.0
  0
LINE
  5
4EC4
330
18
100
AcDbEntity
  8
DRAW2
100
AcDbLine
 10
-332.5759775048227
 20
-92.90004000000001
 30
0.0
 11
-331.4212875048228
 21
-94.90003000000001
 31
0.0
  0
LINE
  5
4EC5
330
18
100
AcDbEntity
  8
DRAW2
100
AcDbLine
 10
-324.5373275048228
 20
-94.90001000000004
 30
0.0
 11
-324.5373275048228
 21
-96.50001000000003
 31
0.0
  0
LINE
  5
4EC6
330
18
100
AcDbEntity
  8
DRAW2
100
AcDbLine
 10
-324.9873375048228
 20
-92.90001000000003
 30
0.0
 11
-324.9873375048228
 21
-94.90001000000004
 31
0.0
  0
LINE
  5
4EC7
330
18
100
AcDbEntity
  8
DRAW2
100
AcDbLine
 10
-325.3591675048227
 20
-92.50002999999999
 30
0.0
 11
-308.7872975048228
 21
-92.50002999999999
 31
0.0
  0
LINE
  5
4ED6
330
18
100
AcDbEntity
  8
DRAW2
100
AcDbLine
 10
-461.7872975048228
 20
-94.90001000000004
 30
0.0
 11
-446.2872975048228
 21
-94.90001000000004
 31
0.0
  0
LINE
  5
4ED7
330
18
100
AcDbEntity
  8
DRAW2
100
AcDbLine
 10
-461.3372875048228
 20
-92.90001000000003
 30
0.0
 11
-446.7373075048228
 21
-92.90001000000003
 31
0.0
  0
LINE
  5
4ED8
330
18
100
AcDbEntity
  8
DRAW2
100
AcDbLine
 10
-461.7872975048228
 20
-94.90001000000004
 30
0.0
 11
-461.7872975048228
 21
-96.50001000000003
 31
0.0
  0
LINE
  5
4ED9
330
18
100
AcDbEntity
  8
DRAW2
100
AcDbLine
 10
-461.3372875048228
 20
-92.90001000000003
 30
0.0
 11
-461.3372875048228
 21
-94.90001000000004
 31
0.0
  0
LINE
  5
4EDA
330
18
100
AcDbEntity
  8
DRAW2
100
AcDbLine
 10
-454.9032975048228
 20
-92.90002000000001
 30
0.0
 11
-453.7485875048227
 21
-94.90003000000001
 31
0.0
  0
LINE
  5
4EDB
330
18
100
AcDbEntity
  8
DRAW2
100
AcDbLine
 10
-454.3259475048228
 20
-92.90004000000001
 30
0.0
 11
-453.1712575048228
 21
-94.90003000000001
 31
0.0
  0
LINE
  5
4EDC
330
18
100
AcDbEntity
  8
DRAW2
100
AcDbLine
 10
-446.2872975048228
 20
-94.90001000000004
 30
0.0
 11
-446.2872975048228
 21
-96.50001000000003
 31
0.0
  0
LINE
  5
4EDD
330
18
100
AcDbEntity
  8
DRAW2
100
AcDbLine
 10
-446.7373075048228
 20
-92.90001000000003
 30
0.0
 11
-446.7373075048228
 21
-94.90001000000004
 31
0.0
  0
LINE
  5
4EDE
330
18
100
AcDbEntity
  8
DRAW2
100
AcDbLine
 10
-447.1091975048229
 20
-92.50003000000001
 30
0.0
 11
-431.2872975048228
 21
-92.50003000000001
 31
0.0
  0
LINE
  5
4EED
330
18
100
AcDbEntity
  8
DRAW2
100
AcDbLine
 10
-461.7872975048228
 20
151.5
 30
0.0
 11
-446.2872975048228
 21
151.5
 31
0.0
  0
LINE
  5
4EEE
330
18
100
AcDbEntity
  8
DRAW2
100
AcDbLine
 10
-461.7872975048228
 20
153.1000099999999
 30
0.0
 11
-446.2872975048228
 21
153.1000099999999
 31
0.0
  0
LINE
  5
4EEF
330
18
100
AcDbEntity
  8
DRAW2
100
AcDbLine
 10
-461.3372875048228
 20
155.1000099999999
 30
0.0
 11
-446.7373075048228
 21
155.1000099999999
 31
0.0
  0
LINE
  5
4EF0
330
18
100
AcDbEntity
  8
DRAW2
100
AcDbLine
 10
-461.7872975048228
 20
153.1000099999999
 30
0.0
 11
-461.7872975048228
 21
151.5
 31
0.0
  0
LINE
  5
4EF1
330
18
100
AcDbEntity
  8
DRAW2
100
AcDbLine
 10
-461.3372875048228
 20
155.1000099999999
 30
0.0
 11
-461.3372875048228
 21
153.1000099999999
 31
0.0
  0
LINE
  5
4EF2
330
18
100
AcDbEntity
  8
DRAW2
100
AcDbLine
 10
-454.9032975048228
 20
155.0999999999999
 30
0.0
 11
-453.7485875048227
 21
153.0999899999999
 31
0.0
  0
LINE
  5
4EF3
330
18
100
AcDbEntity
  8
DRAW2
100
AcDbLine
 10
-454.3259475048228
 20
155.0999799999999
 30
0.0
 11
-453.1712575048228
 21
153.0999899999999
 31
0.0
  0
LINE
  5
4EF4
330
18
100
AcDbEntity
  8
DRAW2
100
AcDbLine
 10
-446.2872975048228
 20
153.1000099999999
 30
0.0
 11
-446.2872975048228
 21
151.5
 31
0.0
  0
LINE
  5
4EF5
330
18
100
AcDbEntity
  8
DRAW2
100
AcDbLine
 10
-446.7373075048228
 20
155.1000099999999
 30
0.0
 11
-446.7373075048228
 21
153.1000099999999
 31
0.0
  0
LINE
  5
4F03
330
18
100
AcDbEntity
  8
DRAW2
100
AcDbLine
 10
-340.0373275048228
 20
151.5
 30
0.0
 11
-324.5373275048228
 21
151.5
 31
0.0
  0
LINE
  5
4F04
330
18
100
AcDbEntity
  8
DRAW2
100
AcDbLine
 10
-340.0373275048228
 20
153.1000099999999
 30
0.0
 11
-324.5373275048228
 21
153.1000099999999
 31
0.0
  0
LINE
  5
4F05
330
18
100
AcDbEntity
  8
DRAW2
100
AcDbLine
 10
-339.5873175048228
 20
155.1000099999999
 30
0.0
 11
-324.9873375048228
 21
155.1000099999999
 31
0.0
  0
LINE
  5
4F06
330
18
100
AcDbEntity
  8
DRAW2
100
AcDbLine
 10
-340.0373275048228
 20
153.1000099999999
 30
0.0
 11
-340.0373275048228
 21
151.5
 31
0.0
  0
LINE
  5
4F07
330
18
100
AcDbEntity
  8
DRAW2
100
AcDbLine
 10
-339.5873175048228
 20
155.1000099999999
 30
0.0
 11
-339.5873175048228
 21
153.1000099999999
 31
0.0
  0
LINE
  5
4F08
330
18
100
AcDbEntity
  8
DRAW2
100
AcDbLine
 10
-333.1533275048228
 20
155.0999999999999
 30
0.0
 11
-331.9986175048228
 21
153.0999899999999
 31
0.0
  0
LINE
  5
4F09
330
18
100
AcDbEntity
  8
DRAW2
100
AcDbLine
 10
-332.5759775048227
 20
155.0999799999999
 30
0.0
 11
-331.4212875048228
 21
153.0999899999999
 31
0.0
  0
LINE
  5
4F0A
330
18
100
AcDbEntity
  8
DRAW2
100
AcDbLine
 10
-324.5373275048228
 20
153.1000099999999
 30
0.0
 11
-324.5373275048228
 21
151.5
 31
0.0
  0
LINE
  5
4F0B
330
18
100
AcDbEntity
  8
DRAW2
100
AcDbLine
 10
-324.9873375048228
 20
155.1000099999999
 30
0.0
 11
-324.9873375048228
 21
153.1000099999999
 31
0.0
  0
LINE
  5
5126
330
18
100
AcDbEntity
  8
DRAW2
100
AcDbLine
 10
-422.237307504823
 20
430.8848561369579
 30
0.0
 11
-428.3372775048227
 21
430.8848561369578
 31
0.0
  0
LINE
  5
5127
330
18
100
AcDbEntity
  8
DRAW2
100
AcDbLine
 10
-359.9372575048228
 20
288.8848561369579
 30
0.0
 11
-428.2373075048226
 21
288.8848561369578
 31
0.0
  0
LINE
  5
512A
330
18
100
AcDbEntity
  8
DRAW2
100
AcDbLine
 10
-354.9663140731687
 20
352.5182563844143
 30
0.0
 11
-431.1082809364769
 21
352.5182563844143
 31
0.0
  0
LINE
  5
512B
330
18
100
AcDbEntity
  8
DRAW2
100
AcDbLine
 10
-354.9663140731687
 20
367.2514558895014
 30
0.0
 11
-431.1082809364769
 21
367.2514558895014
 31
0.0
  0
ARC
  5
512E
330
18
100
AcDbEntity
  8
DRAW2
100
AcDbCircle
 10
-393.0372975048227
 20
233.8848561369578
 30
0.0
 40
110.0
100
AcDbArc
 50
60.71598557216113
 51
119.2840144278388
  0
ARC
  5
512F
330
18
100
AcDbEntity
  8
DRAW2
100
AcDbCircle
 10
-393.0372975048227
 20
485.884856136958
 30
0.0
 40
110.0
100
AcDbArc
 50
240.7159855721611
 51
299.2840144278389
  0
LINE
  5
5130
330
18
100
AcDbEntity
  8
DRAW2
100
AcDbLine
 10
-431.2872975048228
 20
358.8848561369579
 30
0.0
 11
-354.7655480909749
 21
358.8848561369579
 31
0.0
  0
LINE
  5
5131
330
18
100
AcDbEntity
  8
DRAW2
100
AcDbLine
 10
-431.2872975048228
 20
360.8848861369579
 30
0.0
 11
-354.7655467853728
 21
360.8848861369579
 31
0.0
  0
LINE
  5
5133
330
18
100
AcDbEntity
  8
DRAW2
100
AcDbLine
 10
-430.2373075048229
 20
428.8848561369579
 30
0.0
 11
-430.2373075048229
 21
382.365972564926
 31
0.0
  0
LINE
  5
5134
330
18
100
AcDbEntity
  8
DRAW2
100
AcDbLine
 10
-480.7872975048228
 20
383.1348561369579
 30
0.0
 11
-480.7872975048228
 21
398.6348561369579
 31
0.0
  0
LINE
  5
5135
330
18
100
AcDbEntity
  8
DRAW2
100
AcDbLine
 10
-486.2872975048228
 20
384.3848561369579
 30
0.0
 11
-486.2872975048228
 21
397.3848561369579
 31
0.0
  0
ARC
  5
5136
330
18
100
AcDbEntity
  8
DRAW2
100
AcDbCircle
 10
-476.8998311748228
 20
394.1348561369578
 30
0.0
 40
9.3874664
100
AcDbArc
 50
159.7445510000013
 51
200.2554699999999
  0
LINE
  5
5137
330
18
100
AcDbEntity
  8
DRAW2
100
AcDbLine
 10
-453.8372775048228
 20
393.8735980956304
 30
0.0
 11
-453.8372775048229
 21
420.0674761369577
 31
0.0
  0
LINE
  5
5138
330
18
100
AcDbEntity
  8
DRAW2
100
AcDbLine
 10
-456.8372775048228
 20
393.5160554742226
 30
0.0
 11
-456.8372775048228
 21
420.0674761369577
 31
0.0
  0
LINE
  5
5139
330
18
100
AcDbEntity
  8
DRAW2
100
AcDbLine
 10
-478.3372775048229
 20
430.3848561369578
 30
0.0
 11
-478.3372775048227
 21
289.3848561369579
 31
0.0
  0
LINE
  5
513A
330
18
100
AcDbEntity
  8
DRAW2
100
AcDbLine
 10
-430.3372775048229
 20
382.4019517903964
 30
0.0
 11
-430.3372775048229
 21
430.3848561369578
 31
0.0
  0
ARC
  5
513C
330
18
100
AcDbEntity
  8
DRAW2
100
AcDbCircle
 10
-440.0372975048228
 20
278.884826136958
 30
0.0
 40
9.0
100
AcDbArc
 50
270.0
 51
0.0
  0
ARC
  5
513D
330
18
100
AcDbEntity
  8
DRAW2
100
AcDbCircle
 10
-468.0372375048227
 20
278.8848261369579
 30
0.0
 40
9.0
100
AcDbArc
 50
180.0
 51
270.0
  0
LINE
  5
513E
330
18
100
AcDbEntity
  8
DRAW2
100
AcDbLine
 10
-468.0372375048227
 20
269.8848261369579
 30
0.0
 11
-440.0372975048227
 21
269.884826136958
 31
0.0
  0
LINE
  5
5142
330
18
100
AcDbEntity
  8
DRAW2
100
AcDbLine
 10
-430.2373075048229
 20
337.4037397089897
 30
0.0
 11
-430.2373075048229
 21
290.8848561369578
 31
0.0
  0
LINE
  5
5143
330
18
100
AcDbEntity
  8
DRAW2
100
AcDbLine
 10
-480.7872975048228
 20
321.1348561369577
 30
0.0
 11
-480.7872975048228
 21
336.6348561369576
 31
0.0
  0
LINE
  5
5144
330
18
100
AcDbEntity
  8
DRAW2
100
AcDbLine
 10
-430.3372775048227
 20
337.3677604835193
 30
0.0
 11
-430.3372775048229
 21
289.3848561369579
 31
0.0
  0
LINE
  5
5145
330
18
100
AcDbEntity
  8
DRAW2
100
AcDbLine
 10
-461.2588832184989
 20
334.8848555068315
 30
0.0
 11
-457.5061063184988
 21
341.3848561369579
 31
0.0
  0
LINE
  5
5146
330
18
100
AcDbEntity
  8
DRAW2
100
AcDbLine
 10
-446.2477781184988
 20
334.8848540296423
 30
0.0
 11
-450.0005552184988
 21
341.384854736958
 31
0.0
  0
CIRCLE
  5
5147
330
18
100
AcDbEntity
  8
DRAW2
100
AcDbCircle
 10
-453.7533290184988
 20
334.8848561369579
 30
0.0
 40
7.5
  0
CIRCLE
  5
5148
330
18
100
AcDbEntity
  8
DRAW2
100
AcDbCircle
 10
-453.7533290184988
 20
334.8848561369579
 30
0.0
 40
8.0
  0
CIRCLE
  5
5149
330
18
100
AcDbEntity
  8
DRAW2
100
AcDbCircle
 10
-453.7533290184988
 20
334.8848561369579
 30
0.0
 40
6.500003299999999
  0
CIRCLE
  5
514A
330
18
100
AcDbEntity
  8
DRAW2
100
AcDbCircle
 10
-453.7533290184987
 20
334.8848561369579
 30
0.0
 40
3.3235002
  0
CIRCLE
  5
514B
330
18
100
AcDbEntity
  8
DRAW3
100
AcDbCircle
 10
-453.7533290184987
 20
334.8848561369579
 30
0.0
 40
4.0
  0
LINE
  5
514C
330
18
100
AcDbEntity
  8
DRAW2
100
AcDbLine
 10
-461.7437309686176
 20
329.8448561369578
 30
0.0
 11
-473.342627467854
 21
347.0048561369579
 31
0.0
  0
LINE
  5
514D
330
18
100
AcDbEntity
  8
DRAW2
100
AcDbLine
 10
-446.8308640410278
 20
329.8448561369578
 30
0.0
 11
-435.2319675417914
 21
347.0048561369579
 31
0.0
  0
ARC
  5
514E
330
18
100
AcDbEntity
  8
DRAW2
100
AcDbCircle
 10
-454.0372375048229
 20
294.8848261369581
 30
0.0
 40
9.000000000000115
100
AcDbArc
 50
221.810058661777
 51
318.1899413382228
  0
LINE
  5
514F
330
18
100
AcDbEntity
  8
DRAW2
100
AcDbLine
 10
-430.8372775048228
 20
288.8848561369579
 30
0.0
 11
-477.8372775048226
 21
288.8848561369579
 31
0.0
  0
LINE
  5
5150
330
18
100
AcDbEntity
  8
DRAW2
100
AcDbLine
 10
-457.5060978184988
 20
328.384868536958
 30
0.0
 11
-450.0005436184988
 21
328.384868536958
 31
0.0
  0
ARC
  5
5151
330
18
100
AcDbEntity
  8
DRAW2
100
AcDbCircle
 10
-454.2872975048228
 20
334.8848561369579
 30
0.0
 40
8.99999999999995
100
AcDbArc
 50
214.0557977425679
 51
325.944202257432
  0
LINE
  5
5153
330
18
100
AcDbEntity
  8
DRAW2
100
AcDbLine
 10
-456.8372775048228
 20
326.2536567996932
 30
0.0
 11
-456.8372775048228
 21
299.7022361369579
 31
0.0
  0
LINE
  5
5154
330
18
100
AcDbEntity
  8
DRAW2
100
AcDbLine
 10
-486.2872975048228
 20
291.3848561369578
 30
0.0
 11
-486.2872975048228
 21
304.3848561369578
 31
0.0
  0
ARC
  5
5155
330
18
100
AcDbEntity
  8
DRAW2
100
AcDbCircle
 10
-476.8998311748227
 20
294.6348561369577
 30
0.0
 40
9.3874664
100
AcDbArc
 50
159.7445510000013
 51
200.2554699999999
  0
LINE
  5
5156
330
18
100
AcDbEntity
  8
DRAW2
100
AcDbLine
 10
-480.7872975048228
 20
290.1348561369577
 30
0.0
 11
-480.7872975048228
 21
305.6348561369578
 31
0.0
  0
LINE
  5
5157
330
18
100
AcDbEntity
  8
DRAW2
100
AcDbLine
 10
-486.2872975048228
 20
291.3848561369578
 30
0.0
 11
-480.7872975048228
 21
291.3848561369578
 31
0.0
  0
LINE
  5
5158
330
18
100
AcDbEntity
  8
DRAW2
100
AcDbLine
 10
-480.7872975048228
 20
290.1348561369577
 30
0.0
 11
-478.3372775048227
 21
290.1348561369578
 31
0.0
  0
ARC
  5
5159
330
18
100
AcDbEntity
  8
DRAW2
100
AcDbCircle
 10
-477.8372775048226
 20
289.3848561369579
 30
0.0
 40
0.5
100
AcDbArc
 50
180.0000000000032
 51
270.0
  0
LINE
  5
515A
330
18
100
AcDbEntity
  8
DRAW2
100
AcDbLine
 10
-486.2872975048228
 20
304.3848561369578
 30
0.0
 11
-480.7872975048228
 21
304.3848561369577
 31
0.0
  0
LINE
  5
515B
330
18
100
AcDbEntity
  8
DRAW2
100
AcDbLine
 10
-485.7067617048228
 20
297.8848561369578
 30
0.0
 11
-480.7872975048228
 21
297.8848561369578
 31
0.0
  0
ARC
  5
515C
330
18
100
AcDbEntity
  8
DRAW2
100
AcDbCircle
 10
-476.8998311748227
 20
301.1348561369577
 30
0.0
 40
9.3874664
100
AcDbArc
 50
159.7445510000013
 51
200.2554699999999
  0
LINE
  5
515D
330
18
100
AcDbEntity
  8
DRAW2
100
AcDbLine
 10
-480.7872975048228
 20
305.6348561369578
 30
0.0
 11
-478.3372775048228
 21
305.6348561369578
 31
0.0
  0
LINE
  5
515E
330
18
100
AcDbEntity
  8
DRAW2
100
AcDbLine
 10
-480.7872975048228
 20
321.1348561369577
 30
0.0
 11
-478.3372775048228
 21
321.1348561369577
 31
0.0
  0
LINE
  5
515F
330
18
100
AcDbEntity
  8
DRAW2
100
AcDbLine
 10
-485.7067617048228
 20
328.8848561369576
 30
0.0
 11
-480.7872975048228
 21
328.8848561369576
 31
0.0
  0
LINE
  5
5160
330
18
100
AcDbEntity
  8
DRAW2
100
AcDbLine
 10
-486.2872975048228
 20
322.3848561369576
 30
0.0
 11
-480.7872975048228
 21
322.3848561369577
 31
0.0
  0
LINE
  5
5161
330
18
100
AcDbEntity
  8
DRAW2
100
AcDbLine
 10
-486.2872975048228
 20
335.3848561369577
 30
0.0
 11
-480.7872975048228
 21
335.3848561369576
 31
0.0
  0
LINE
  5
5162
330
18
100
AcDbEntity
  8
DRAW2
100
AcDbLine
 10
-486.2872975048228
 20
322.3848561369576
 30
0.0
 11
-486.2872975048228
 21
335.3848561369577
 31
0.0
  0
ARC
  5
5163
330
18
100
AcDbEntity
  8
DRAW2
100
AcDbCircle
 10
-476.8998311748228
 20
332.1348561369576
 30
0.0
 40
9.3874664
100
AcDbArc
 50
159.7445510000013
 51
200.2554699999999
  0
ARC
  5
5164
330
18
100
AcDbEntity
  8
DRAW2
100
AcDbCircle
 10
-476.8998311748228
 20
325.6348561369576
 30
0.0
 40
9.3874664
100
AcDbArc
 50
159.7445510000013
 51
200.2554699999999
  0
LINE
  5
5165
330
18
100
AcDbEntity
  8
DRAW2
100
AcDbLine
 10
-457.5061106184988
 20
328.3848532369579
 30
0.0
 11
-461.2588875184989
 21
334.8848537143205
 31
0.0
  0
LINE
  5
5166
330
18
100
AcDbEntity
  8
DRAW2
100
AcDbLine
 10
-453.8372775048228
 20
325.8961141782855
 30
0.0
 11
-453.8372775048229
 21
299.7022361369579
 31
0.0
  0
ARC
  5
5168
330
18
100
AcDbEntity
  8
DRAW2
100
AcDbCircle
 10
-428.2373075048226
 20
290.8848561369578
 30
0.0
 40
2.0
100
AcDbArc
 50
180.0
 51
270.0
  0
LINE
  5
5169
330
18
100
AcDbEntity
  8
DRAW2
100
AcDbLine
 10
-450.0005517184988
 20
328.384856136958
 30
0.0
 11
-446.2477748184988
 21
334.8848567670844
 31
0.0
  0
LINE
  5
516A
330
18
100
AcDbEntity
  8
DRAW2
100
AcDbLine
 10
-457.5060916184988
 20
341.3848704369579
 30
0.0
 11
-450.0005374184988
 21
341.3848704369579
 31
0.0
  0
LINE
  5
516B
330
18
100
AcDbEntity
  8
DRAW2
100
AcDbLine
 10
-457.5060916184988
 20
378.3848418369579
 30
0.0
 11
-450.0005374184988
 21
378.3848418369579
 31
0.0
  0
LINE
  5
516C
330
18
100
AcDbEntity
  8
DRAW2
100
AcDbLine
 10
-457.5060978184988
 20
391.3848437369579
 30
0.0
 11
-450.0005436184988
 21
391.3848437369579
 31
0.0
  0
CIRCLE
  5
516D
330
18
100
AcDbEntity
  8
DRAW2
100
AcDbCircle
 10
-453.7533290184987
 20
384.884856136958
 30
0.0
 40
6.500003299999999
  0
CIRCLE
  5
516E
330
18
100
AcDbEntity
  8
DRAW3
100
AcDbCircle
 10
-453.7533290184987
 20
384.884856136958
 30
0.0
 40
4.0
  0
CIRCLE
  5
516F
330
18
100
AcDbEntity
  8
DRAW2
100
AcDbCircle
 10
-453.7533290184987
 20
384.884856136958
 30
0.0
 40
3.3235002
  0
CIRCLE
  5
5170
330
18
100
AcDbEntity
  8
DRAW2
100
AcDbCircle
 10
-453.7533290184987
 20
384.884856136958
 30
0.0
 40
8.0
  0
CIRCLE
  5
5171
330
18
100
AcDbEntity
  8
DRAW2
100
AcDbCircle
 10
-453.7533290184987
 20
384.884856136958
 30
0.0
 40
7.5
  0
LINE
  5
5172
330
18
100
AcDbEntity
  8
DRAW2
100
AcDbLine
 10
-473.2609634658331
 20
358.8848561369579
 30
0.0
 11
-455.2872975048228
 21
358.8848561369579
 31
0.0
  0
LINE
  5
5173
330
18
100
AcDbEntity
  8
DRAW2
100
AcDbLine
 10
-473.2609634658331
 20
360.8848561369579
 30
0.0
 11
-455.2872975048228
 21
360.8848561369579
 31
0.0
  0
LINE
  5
5174
330
18
100
AcDbEntity
  8
DRAW2
100
AcDbLine
 10
-467.6570394619436
 20
346.3848561369579
 30
0.0
 11
-440.9175555477019
 21
346.3848561369578
 31
0.0
  0
LINE
  5
5175
330
18
100
AcDbEntity
  8
DRAW2
100
AcDbLine
 10
-467.6570394619436
 20
373.3848561369579
 30
0.0
 11
-440.9175555477018
 21
373.3848561369578
 31
0.0
  0
ARC
  5
5177
330
18
100
AcDbEntity
  8
DRAW2
100
AcDbCircle
 10
-454.2872975048227
 20
384.8848561369578
 30
0.0
 40
9.00000000000003
100
AcDbArc
 50
34.05579774256793
 51
145.944202257432
  0
ARC
  5
5178
330
18
100
AcDbEntity
  8
DRAW2
100
AcDbCircle
 10
-454.2872975048229
 20
359.8848561369579
 30
0.0
 40
22.99999999999987
100
AcDbArc
 50
145.944202257432
 51
214.0557977425679
  0
ARC
  5
5179
330
18
100
AcDbEntity
  8
DRAW2
100
AcDbCircle
 10
-454.2872975048231
 20
359.8848561369579
 30
0.0
 40
18.99999999999971
100
AcDbArc
 50
134.7222460247868
 51
225.2777539752131
  0
LINE
  5
517A
330
18
100
AcDbEntity
  8
DRAW2
100
AcDbLine
 10
-480.7872975048228
 20
336.6348561369576
 30
0.0
 11
-478.3372775048228
 21
336.6348561369577
 31
0.0
  0
LINE
  5
517B
330
18
100
AcDbEntity
  8
DRAW2
100
AcDbLine
 10
-461.7437309686176
 20
389.9248561369579
 30
0.0
 11
-473.342627467854
 21
372.7648561369579
 31
0.0
  0
LINE
  5
517C
330
18
100
AcDbEntity
  8
DRAW2
100
AcDbLine
 10
-485.7067617048228
 20
390.8848561369579
 30
0.0
 11
-480.7872975048228
 21
390.8848561369579
 31
0.0
  0
LINE
  5
517D
330
18
100
AcDbEntity
  8
DRAW2
100
AcDbLine
 10
-486.2872975048228
 20
384.3848561369579
 30
0.0
 11
-480.7872975048228
 21
384.3848561369579
 31
0.0
  0
ARC
  5
517E
330
18
100
AcDbEntity
  8
DRAW2
100
AcDbCircle
 10
-476.8998311748228
 20
387.6348561369578
 30
0.0
 40
9.3874664
100
AcDbArc
 50
159.7445510000013
 51
200.2554699999999
  0
LINE
  5
517F
330
18
100
AcDbEntity
  8
DRAW2
100
AcDbLine
 10
-480.7872975048228
 20
383.1348561369578
 30
0.0
 11
-478.3372775048229
 21
383.1348561369579
 31
0.0
  0
LINE
  5
5180
330
18
100
AcDbEntity
  8
DRAW2
100
AcDbLine
 10
-461.2588832184989
 20
384.8848567670843
 30
0.0
 11
-457.5061063184988
 21
378.3848561369579
 31
0.0
  0
LINE
  5
5181
330
18
100
AcDbEntity
  8
DRAW2
100
AcDbLine
 10
-457.5061106184988
 20
391.3848590369579
 30
0.0
 11
-461.2588875184989
 21
384.8848585595953
 31
0.0
  0
LINE
  5
5182
330
18
100
AcDbEntity
  8
DRAW2
100
AcDbLine
 10
-455.2872975048228
 20
373.3848561369578
 30
0.0
 11
-455.2872975048228
 21
360.8848561369579
 31
0.0
  0
LINE
  5
5183
330
18
100
AcDbEntity
  8
DRAW2
100
AcDbLine
 10
-453.2872975048228
 20
373.3848561369578
 30
0.0
 11
-453.2872975048228
 21
360.8848561369579
 31
0.0
  0
ARC
  5
5184
330
18
100
AcDbEntity
  8
DRAW2
100
AcDbCircle
 10
-454.2872975048227
 20
359.8848561369579
 30
0.0
 40
19.0
100
AcDbArc
 50
314.7222460247891
 51
45.2777539752108
  0
ARC
  5
5185
330
18
100
AcDbEntity
  8
DRAW2
100
AcDbCircle
 10
-454.2872975048229
 20
359.8848561369579
 30
0.0
 40
23.00000000000014
100
AcDbArc
 50
325.944202257432
 51
34.05579774256793
  0
LINE
  5
5187
330
18
100
AcDbEntity
  8
DRAW2
100
AcDbLine
 10
-453.2872975048228
 20
358.8848561369579
 30
0.0
 11
-435.3136315438125
 21
358.8848561369578
 31
0.0
  0
LINE
  5
5188
330
18
100
AcDbEntity
  8
DRAW2
100
AcDbLine
 10
-453.2872975048228
 20
360.8848561369579
 30
0.0
 11
-435.3136315438125
 21
360.8848561369579
 31
0.0
  0
LINE
  5
5189
330
18
100
AcDbEntity
  8
DRAW2
100
AcDbLine
 10
-455.2872975048228
 20
358.8848561369579
 30
0.0
 11
-455.2872975048228
 21
346.3848561369579
 31
0.0
  0
LINE
  5
518A
330
18
100
AcDbEntity
  8
DRAW2
100
AcDbLine
 10
-453.2872975048228
 20
358.8848561369579
 30
0.0
 11
-453.2872975048228
 21
346.3848561369579
 31
0.0
  0
ARC
  5
518B
330
18
100
AcDbEntity
  8
DRAW2
100
AcDbCircle
 10
-455.2872975048228
 20
359.8848561369579
 30
0.0
 40
1.0
100
AcDbArc
 50
270.0
 51
90.0
  0
ARC
  5
518C
330
18
100
AcDbEntity
  8
DRAW2
100
AcDbCircle
 10
-453.2872975048228
 20
359.8848561369579
 30
0.0
 40
1.0
100
AcDbArc
 50
90.0
 51
270.0
  0
ARC
  5
518D
330
18
100
AcDbEntity
  8
DRAW2
100
AcDbCircle
 10
-431.1082809364769
 20
350.5182563844143
 30
0.0
 40
2.0
100
AcDbArc
 50
90.0
 51
157.996453099385
  0
LINE
  5
518E
330
18
100
AcDbEntity
  8
DRAW2
100
AcDbLine
 10
-446.8308640410278
 20
389.9248561369579
 30
0.0
 11
-435.2319675417914
 21
372.7648561369579
 31
0.0
  0
LINE
  5
518F
330
18
100
AcDbEntity
  8
DRAW2
100
AcDbLine
 10
-446.2477781184988
 20
384.8848582442735
 30
0.0
 11
-450.0005552184988
 21
378.3848575369578
 31
0.0
  0
LINE
  5
5190
330
18
100
AcDbEntity
  8
DRAW2
100
AcDbLine
 10
-450.0005517184988
 20
391.3848561369579
 30
0.0
 11
-446.2477748184988
 21
384.8848555068314
 31
0.0
  0
ARC
  5
5191
330
18
100
AcDbEntity
  8
DRAW2
100
AcDbCircle
 10
-431.1082809364769
 20
369.2514558895015
 30
0.0
 40
2.0
100
AcDbArc
 50
202.0035469006149
 51
270.0
  0
LINE
  5
5193
330
18
100
AcDbEntity
  8
DRAW2
100
AcDbLine
 10
-467.8372175048222
 20
449.8848861369578
 30
0.0
 11
-440.0372975048227
 21
449.8848861369577
 31
0.0
  0
ARC
  5
5194
330
18
100
AcDbEntity
  8
DRAW2
100
AcDbCircle
 10
-453.8372175048225
 20
424.8848861369577
 30
0.0
 40
9.000000000000001
100
AcDbArc
 50
41.81005866177712
 51
138.1899413382228
  0
LINE
  5
5195
330
18
100
AcDbEntity
  8
DRAW2
100
AcDbLine
 10
-430.8372775048228
 20
430.8848561369579
 30
0.0
 11
-477.8372775048226
 21
430.8848561369579
 31
0.0
  0
LINE
  5
5196
330
18
100
AcDbEntity
  8
DRAW2
100
AcDbLine
 10
-480.7872975048229
 20
414.1348561369578
 30
0.0
 11
-480.7872975048229
 21
429.6348561369577
 31
0.0
  0
LINE
  5
5197
330
18
100
AcDbEntity
  8
DRAW2
100
AcDbLine
 10
-486.287297504823
 20
415.3848561369578
 30
0.0
 11
-486.287297504823
 21
428.3848561369577
 31
0.0
  0
ARC
  5
5198
330
18
100
AcDbEntity
  8
DRAW2
100
AcDbCircle
 10
-476.8998311748228
 20
425.1348561369577
 30
0.0
 40
9.3874664
100
AcDbArc
 50
159.7445510000013
 51
200.2554699999999
  0
LINE
  5
5199
330
18
100
AcDbEntity
  8
DRAW2
100
AcDbLine
 10
-486.2872975048228
 20
397.3848561369579
 30
0.0
 11
-480.7872975048228
 21
397.3848561369578
 31
0.0
  0
LINE
  5
519A
330
18
100
AcDbEntity
  8
DRAW2
100
AcDbLine
 10
-480.7872975048228
 20
398.6348561369579
 30
0.0
 11
-478.3372775048229
 21
398.6348561369579
 31
0.0
  0
LINE
  5
519B
330
18
100
AcDbEntity
  8
DRAW2
100
AcDbLine
 10
-485.7067617048229
 20
421.8848561369577
 30
0.0
 11
-480.7872975048229
 21
421.8848561369577
 31
0.0
  0
LINE
  5
519C
330
18
100
AcDbEntity
  8
DRAW2
100
AcDbLine
 10
-486.287297504823
 20
415.3848561369578
 30
0.0
 11
-480.7872975048229
 21
415.3848561369578
 31
0.0
  0
ARC
  5
519D
330
18
100
AcDbEntity
  8
DRAW2
100
AcDbCircle
 10
-476.8998311748228
 20
418.6348561369577
 30
0.0
 40
9.3874664
100
AcDbArc
 50
159.7445510000013
 51
200.2554699999999
  0
LINE
  5
519E
330
18
100
AcDbEntity
  8
DRAW2
100
AcDbLine
 10
-480.787297504823
 20
414.1348561369579
 30
0.0
 11
-478.3372775048229
 21
414.1348561369579
 31
0.0
  0
ARC
  5
519F
330
18
100
AcDbEntity
  8
DRAW2
100
AcDbCircle
 10
-467.837217504822
 20
440.8848861369577
 30
0.0
 40
9.00000000000017
100
AcDbArc
 50
90.0
 51
180.0
  0
LINE
  5
51A0
330
18
100
AcDbEntity
  8
DRAW2
100
AcDbLine
 10
-486.287297504823
 20
428.3848561369577
 30
0.0
 11
-480.7872975048229
 21
428.3848561369577
 31
0.0
  0
LINE
  5
51A1
330
18
100
AcDbEntity
  8
DRAW2
100
AcDbLine
 10
-480.787297504823
 20
429.6348561369577
 30
0.0
 11
-478.3372775048229
 21
429.6348561369578
 31
0.0
  0
ARC
  5
51A2
330
18
100
AcDbEntity
  8
DRAW2
100
AcDbCircle
 10
-477.8372775048226
 20
430.3848561369578
 30
0.0
 40
0.5
100
AcDbArc
 50
90.0
 51
179.9999999999967
  0
ARC
  5
51A3
330
18
100
AcDbEntity
  8
DRAW2
100
AcDbCircle
 10
-440.0372975048228
 20
440.8848861369577
 30
0.0
 40
9.0
100
AcDbArc
 50
0.0
 51
90.0
  0
ARC
  5
51A4
330
18
100
AcDbEntity
  8
DRAW2
100
AcDbCircle
 10
-430.8372775048228
 20
430.3848561369578
 30
0.0
 40
0.5
100
AcDbArc
 50
0.0000000000065138
 51
90.0
  0
ARC
  5
51A5
330
18
100
AcDbEntity
  8
DRAW2
100
AcDbCircle
 10
-428.2373075048226
 20
428.8848561369579
 30
0.0
 40
2.0
100
AcDbArc
 50
90.0
 51
180.0
  0
LINE
  5
51A6
330
18
100
AcDbEntity
  8
DRAW2
100
AcDbLine
 10
-357.9372575048228
 20
381.6352173270396
 30
0.0
 11
-357.9372575048228
 21
428.8848561369577
 31
0.0
  0
LINE
  5
51A7
330
18
100
AcDbEntity
  8
DRAW2
100
AcDbLine
 10
-295.1621824482974
 20
394.884886136958
 30
0.0
 11
-295.1621824482974
 21
386.884886136958
 31
0.0
  0
LINE
  5
51A8
330
18
100
AcDbEntity
  8
DRAW2
100
AcDbLine
 10
-294.5371224482973
 20
394.259826136958
 30
0.0
 11
-295.1621824482974
 21
394.884886136958
 31
0.0
  0
LINE
  5
51A9
330
18
100
AcDbEntity
  8
DRAW2
100
AcDbLine
 10
-305.9373514048228
 20
398.6348561369581
 30
0.0
 11
-305.9373514048228
 21
383.1348561369581
 31
0.0
  0
ARC
  5
51AA
330
18
100
AcDbEntity
  8
DRAW2
100
AcDbCircle
 10
-306.8248178348229
 20
394.1348561369581
 30
0.0
 40
9.3874664
100
AcDbArc
 50
339.7445510000013
 51
20.25546999999996
  0
LINE
  5
51AB
330
18
100
AcDbEntity
  8
DRAW2
100
AcDbLine
 10
-297.4373515048229
 20
397.3848561369581
 30
0.0
 11
-297.4373515048229
 21
384.3848561369581
 31
0.0
  0
LINE
  5
51AC
330
18
100
AcDbEntity
  8
DRAW2
100
AcDbLine
 10
-303.9373514048229
 20
398.1848439369581
 30
0.0
 11
-303.9373514048229
 21
383.5848683369582
 31
0.0
  0
LINE
  5
51AD
330
18
100
AcDbEntity
  8
DRAW2
100
AcDbLine
 10
-331.3372775048228
 20
393.8735980956304
 30
0.0
 11
-331.3372775048228
 21
420.0674761369577
 31
0.0
  0
LINE
  5
51AE
330
18
100
AcDbEntity
  8
DRAW2
100
AcDbLine
 10
-334.3372775048228
 20
393.5160554742227
 30
0.0
 11
-334.3372775048228
 21
420.0674761369577
 31
0.0
  0
LINE
  5
51B0
330
18
100
AcDbEntity
  8
DRAW2
100
AcDbLine
 10
-377.2372475048228
 20
376.9752734961272
 30
0.0
 11
-377.2372475048228
 21
430.8848561369577
 31
0.0
  0
LINE
  5
51B1
330
18
100
AcDbEntity
  8
DRAW2
100
AcDbLine
 10
-379.2373675048228
 20
376.7987574167286
 30
0.0
 11
-379.2373675048228
 21
430.8848561369577
 31
0.0
  0
LINE
  5
51B2
330
18
100
AcDbEntity
  8
DRAW2
100
AcDbLine
 10
-307.5372675048228
 20
382.749326371516
 30
0.0
 11
-307.5372675048228
 21
430.3848561369579
 31
0.0
  0
LINE
  5
51B3
330
18
100
AcDbEntity
  8
DRAW2
100
AcDbLine
 10
-355.5372675048229
 20
382.4742776161938
 30
0.0
 11
-355.5372675048228
 21
430.3848561369577
 31
0.0
  0
ARC
  5
51B8
330
18
100
AcDbEntity
  8
DRAW2
100
AcDbCircle
 10
-270.5372975048228
 20
233.8848561369578
 30
0.0
 40
110.0
100
AcDbArc
 50
92.82208091375153
 51
119.2840144278388
  0
ARC
  5
51B9
330
18
100
AcDbEntity
  8
DRAW2
100
AcDbCircle
 10
-270.5372975048228
 20
485.884856136958
 30
0.0
 40
110.0
100
AcDbArc
 50
240.7159855721611
 51
267.1779190862484
  0
LINE
  5
51BA
330
18
100
AcDbEntity
  8
DRAW2
100
AcDbLine
 10
-308.7872975048228
 20
360.8848861369579
 30
0.0
 11
-285.7872975048227
 21
360.8848861369579
 31
0.0
  0
LINE
  5
51BB
330
18
100
AcDbEntity
  8
DRAW2
100
AcDbLine
 10
-308.7872975048228
 20
358.8848561369579
 30
0.0
 11
-285.7872975048227
 21
358.8848561369578
 31
0.0
  0
LINE
  5
51BC
330
18
100
AcDbEntity
  8
DRAW2
100
AcDbLine
 10
-291.7872975048228
 20
344.3848861369579
 30
0.0
 11
-268.8672575048227
 21
343.4680761369579
 31
0.0
  0
LINE
  5
51BD
330
18
100
AcDbEntity
  8
DRAW2
100
AcDbLine
 10
-268.8672575048227
 20
376.3016961369578
 30
0.0
 11
-291.7873575048228
 21
375.3848861369579
 31
0.0
  0
ARC
  5
51BE
330
18
100
AcDbEntity
  8
DRAW2
100
AcDbCircle
 10
-346.2873575048223
 20
278.8848261369579
 30
0.0
 40
9.0
100
AcDbArc
 50
180.0
 51
270.0
  0
LINE
  5
51C0
330
18
100
AcDbEntity
  8
DRAW2
100
AcDbLine
 10
-411.4873450048226
 20
285.177883447954
 30
0.0
 11
-411.4873450048226
 21
268.1348561369579
 31
0.0
  0
LINE
  5
51C1
330
18
100
AcDbEntity
  8
DRAW2
100
AcDbLine
 10
-411.4228758769061
 20
285.177883447954
 30
0.0
 11
-411.4228758769061
 21
268.1348561369579
 31
0.0
  0
CIRCLE
  5
51C2
330
18
100
AcDbEntity
  8
DRAW2
100
AcDbCircle
 10
-402.2373075048227
 20
277.3848561369579
 30
0.0
 40
8.0
  0
CIRCLE
  5
51C3
330
18
100
AcDbEntity
  8
DRAW2
100
AcDbCircle
 10
-402.2373075048227
 20
277.3848561369579
 30
0.0
 40
5.0
  0
CIRCLE
  5
51C4
330
18
100
AcDbEntity
  8
DRAW2
100
AcDbCircle
 10
-402.2373075048227
 20
277.3848561369579
 30
0.0
 40
6.0
  0
LINE
  5
51C5
330
18
100
AcDbEntity
  8
DRAW2
100
AcDbLine
 10
-392.9872700048227
 20
285.177883447954
 30
0.0
 11
-392.9872700048227
 21
268.1348561369579
 31
0.0
  0
LINE
  5
51C6
330
18
100
AcDbEntity
  8
DRAW2
100
AcDbLine
 10
-393.0517391327392
 20
285.177883447954
 30
0.0
 11
-393.0517391327392
 21
268.1348561369579
 31
0.0
  0
LINE
  5
51C7
330
18
100
AcDbEntity
  8
DRAW2
100
AcDbLine
 10
-410.7373450048227
 20
267.3848561369579
 30
0.0
 11
-405.2373075048223
 21
267.3848561369579
 31
0.0
  0
LINE
  5
51C8
330
18
100
AcDbEntity
  8
DRAW2
100
AcDbLine
 10
-407.7741709970746
 20
268.0882338280681
 30
0.0
 11
-405.8858998846543
 21
268.0882338280681
 31
0.0
  0
LINE
  5
51C9
330
18
100
AcDbEntity
  8
DRAW2
100
AcDbLine
 10
-405.2373075048224
 20
267.1839539309222
 30
0.0
 11
-408.1195409912155
 21
267.1839539309222
 31
0.0
  0
LINE
  5
51CA
330
18
100
AcDbEntity
  8
DRAW2
100
AcDbLine
 10
-405.2373075048225
 20
256.8848561369579
 30
0.0
 11
-410.4873450048226
 21
256.8848561369579
 31
0.0
  0
LINE
  5
51CB
330
18
100
AcDbEntity
  8
DRAW2
100
AcDbLine
 10
-405.2373075048224
 20
263.884856136958
 30
0.0
 11
-410.4873450048226
 21
263.884856136958
 31
0.0
  0
LINE
  5
51CC
330
18
100
AcDbEntity
  8
DRAW2
100
AcDbLine
 10
-405.2373075048224
 20
264.0857583429938
 30
0.0
 11
-408.1195409912155
 21
264.0857583429937
 31
0.0
  0
LINE
  5
51CD
330
18
100
AcDbEntity
  8
DRAW2
100
AcDbLine
 10
-410.4873450048226
 20
256.8848561369579
 30
0.0
 11
-410.4873450048226
 21
263.884856136958
 31
0.0
  0
LINE
  5
51CE
330
18
100
AcDbEntity
  8
DRAW2
100
AcDbLine
 10
-411.4873450048226
 20
268.1348561369579
 30
0.0
 11
-411.4228758769061
 21
268.1348561369579
 31
0.0
  0
LINE
  5
51CF
330
18
100
AcDbEntity
  8
DRAW2
100
AcDbLine
 10
-411.2373450048226
 20
264.0857583429937
 30
0.0
 11
-411.2373450048226
 21
267.1839539309222
 31
0.0
  0
LINE
  5
51D0
330
18
100
AcDbEntity
  8
DRAW2
100
AcDbLine
 10
-407.7742459970746
 20
271.6105759105559
 30
0.0
 11
-407.7742459970746
 21
268.0882338280681
 31
0.0
  0
ARC
  5
51D1
330
18
100
AcDbEntity
  8
DRAW2
100
AcDbCircle
 10
-409.5739431240978
 20
270.0381181153071
 30
0.0
 40
2.653480447004879
100
AcDbArc
 50
225.8295459170058
 51
312.7062791753797
  0
ARC
  5
51D2
330
18
100
AcDbEntity
  8
DRAW2
100
AcDbCircle
 10
-409.5985609369903
 20
258.8597356172375
 30
0.0
 40
8.455947153849152
100
AcDbArc
 50
79.87343051782852
 51
100.0733534659969
  0
LINE
  5
51D3
330
18
100
AcDbEntity
  8
DRAW2
100
AcDbLine
 10
-411.4873450048226
 20
268.1348561369579
 30
0.0
 11
-410.7373450048227
 21
267.3848561369579
 31
0.0
  0
LINE
  5
51D4
330
18
100
AcDbEntity
  8
DRAW2
100
AcDbLine
 10
-411.2373450048226
 20
267.1839539309222
 30
0.0
 11
-410.4873450048226
 21
267.3848561369579
 31
0.0
  0
LINE
  5
51D5
330
18
100
AcDbEntity
  8
DRAW2
100
AcDbLine
 10
-411.0775808827653
 20
267.1839539309222
 30
0.0
 11
-411.2373450048226
 21
267.1839539309222
 31
0.0
  0
LINE
  5
51D6
330
18
100
AcDbEntity
  8
DRAW2
100
AcDbLine
 10
-410.7373450048227
 20
267.3848561369579
 30
0.0
 11
-411.4873450048226
 21
268.1348561369579
 31
0.0
  0
ARC
  5
51D7
330
18
100
AcDbEntity
  8
DRAW2
100
AcDbCircle
 10
-409.5946948719928
 20
272.3663424748766
 30
0.0
 40
8.412313860415329
100
AcDbArc
 50
259.8470989734817
 51
280.1529010265182
  0
LINE
  5
51D8
330
18
100
AcDbEntity
  8
DRAW2
100
AcDbLine
 10
-411.0775808827653
 20
264.0857583429937
 30
0.0
 11
-411.2373450048226
 21
264.0857583429937
 31
0.0
  0
LINE
  5
51D9
330
18
100
AcDbEntity
  8
DRAW2
100
AcDbLine
 10
-411.2373450048226
 20
264.0857583429937
 30
0.0
 11
-410.4873450048226
 21
263.884856136958
 31
0.0
  0
LINE
  5
51DA
330
18
100
AcDbEntity
  8
DRAW2
100
AcDbLine
 10
-411.0775808827653
 20
264.0857583429937
 30
0.0
 11
-411.0775808827653
 21
267.1853312276843
 31
0.0
  0
LINE
  5
51DB
330
18
100
AcDbEntity
  8
DRAW2
100
AcDbLine
 10
-408.1195409912155
 20
264.0857583429937
 30
0.0
 11
-408.1195409912155
 21
267.1839539309222
 31
0.0
  0
LINE
  5
51DC
330
18
100
AcDbEntity
  8
DRAW2
100
AcDbLine
 10
-405.2373075048228
 20
269.9686576498624
 30
0.0
 11
-405.2373075048228
 21
253.8848561369579
 31
0.0
  0
LINE
  5
51DD
330
18
100
AcDbEntity
  8
DRAW2
100
AcDbLine
 10
-393.9872700048227
 20
256.8848561369579
 30
0.0
 11
-393.9872700048227
 21
263.884856136958
 31
0.0
  0
LINE
  5
51DE
330
18
100
AcDbEntity
  8
DRAW2
100
AcDbLine
 10
-399.2373075048229
 20
269.9686576498622
 30
0.0
 11
-399.2373075048228
 21
253.8848561369579
 31
0.0
  0
LINE
  5
51DF
330
18
100
AcDbEntity
  8
DRAW2
100
AcDbLine
 10
-399.2373075048228
 20
256.8848561369579
 30
0.0
 11
-393.9872700048227
 21
256.8848561369579
 31
0.0
  0
ARC
  5
51E0
330
18
100
AcDbEntity
  8
DRAW2
100
AcDbCircle
 10
-404.2373075048228
 20
253.8848561369579
 30
0.0
 40
1.0
100
AcDbArc
 50
180.0
 51
270.0
  0
LINE
  5
51E1
330
18
100
AcDbEntity
  8
DRAW2
100
AcDbLine
 10
-404.2373075048228
 20
252.8848561369579
 30
0.0
 11
-400.2373075048228
 21
252.8848561369579
 31
0.0
  0
ARC
  5
51E2
330
18
100
AcDbEntity
  8
DRAW2
100
AcDbCircle
 10
-400.2373075048228
 20
253.8848561369579
 30
0.0
 40
1.0
100
AcDbArc
 50
270.0
 51
0.0
  0
LINE
  5
51E3
330
18
100
AcDbEntity
  8
DRAW2
100
AcDbLine
 10
-393.7372700048227
 20
267.3848561369579
 30
0.0
 11
-399.237307504823
 21
267.3848561369579
 31
0.0
  0
ARC
  5
51E4
330
18
100
AcDbEntity
  8
DRAW2
100
AcDbCircle
 10
-402.2372700048227
 20
277.1998107131815
 30
0.0
 40
9.814954576223676
100
AcDbArc
 50
287.7974063652339
 51
291.8230850509438
  0
LINE
  5
51E5
330
18
100
AcDbEntity
  8
DRAW2
100
AcDbLine
 10
-399.2373075048229
 20
267.1839539309222
 30
0.0
 11
-396.3550740184298
 21
267.1839539309222
 31
0.0
  0
LINE
  5
51E6
330
18
100
AcDbEntity
  8
DRAW2
100
AcDbLine
 10
-399.2373075048229
 20
263.884856136958
 30
0.0
 11
-393.9872700048227
 21
263.884856136958
 31
0.0
  0
LINE
  5
51E7
330
18
100
AcDbEntity
  8
DRAW2
100
AcDbLine
 10
-399.2373075048229
 20
264.0857583429938
 30
0.0
 11
-396.3550740184298
 21
264.0857583429937
 31
0.0
  0
LINE
  5
51E8
330
18
100
AcDbEntity
  8
DRAW2
100
AcDbLine
 10
-405.8859748846542
 20
270.2653599222421
 30
0.0
 11
-405.8859748846542
 21
268.0882338280681
 31
0.0
  0
ARC
  5
51E9
330
18
100
AcDbEntity
  8
DRAW2
100
AcDbCircle
 10
-402.2373450048226
 20
277.1998107131815
 30
0.0
 40
9.814954576223676
100
AcDbArc
 50
248.1769149490562
 51
252.202593634766
  0
ARC
  5
51EA
330
18
100
AcDbEntity
  8
DRAW2
100
AcDbCircle
 10
-394.9006718855475
 20
270.0381181153071
 30
0.0
 40
2.653480447004879
100
AcDbArc
 50
227.2937208246202
 51
314.1704540829941
  0
ARC
  5
51EB
330
18
100
AcDbEntity
  8
DRAW2
100
AcDbCircle
 10
-394.876054072655
 20
258.8597356172375
 30
0.0
 40
8.455947153849152
100
AcDbArc
 50
79.92664653400303
 51
100.1265694821714
  0
LINE
  5
51EC
330
18
100
AcDbEntity
  8
DRAW2
100
AcDbLine
 10
-398.5886401249911
 20
270.2653599222421
 30
0.0
 11
-398.5886401249911
 21
268.0882338280681
 31
0.0
  0
LINE
  5
51ED
330
18
100
AcDbEntity
  8
DRAW2
100
AcDbLine
 10
-396.7003690125707
 20
271.6105759105559
 30
0.0
 11
-396.7003690125707
 21
268.0882338280681
 31
0.0
  0
LINE
  5
51EE
330
18
100
AcDbEntity
  8
DRAW2
100
AcDbLine
 10
-396.7003690125707
 20
268.0882338280681
 30
0.0
 11
-398.5886401249911
 21
268.0882338280681
 31
0.0
  0
LINE
  5
51EF
330
18
100
AcDbEntity
  8
DRAW2
100
AcDbLine
 10
-392.9872700048227
 20
268.1348561369579
 30
0.0
 11
-393.7372700048227
 21
267.3848561369579
 31
0.0
  0
LINE
  5
51F0
330
18
100
AcDbEntity
  8
DRAW2
100
AcDbLine
 10
-393.2372700048227
 20
267.1839539309222
 30
0.0
 11
-393.9872700048227
 21
267.3848561369579
 31
0.0
  0
LINE
  5
51F1
330
18
100
AcDbEntity
  8
DRAW2
100
AcDbLine
 10
-393.3970341268801
 20
267.1839539309222
 30
0.0
 11
-393.2372700048227
 21
267.1839539309222
 31
0.0
  0
LINE
  5
51F2
330
18
100
AcDbEntity
  8
DRAW2
100
AcDbLine
 10
-393.7372700048227
 20
267.3848561369579
 30
0.0
 11
-392.9872700048227
 21
268.1348561369579
 31
0.0
  0
LINE
  5
51F3
330
18
100
AcDbEntity
  8
DRAW2
100
AcDbLine
 10
-392.9872700048227
 20
268.1348561369579
 30
0.0
 11
-393.0517391327392
 21
268.1348561369579
 31
0.0
  0
ARC
  5
51F4
330
18
100
AcDbEntity
  8
DRAW2
100
AcDbCircle
 10
-394.8799201376526
 20
272.3663424748766
 30
0.0
 40
8.412313860415329
100
AcDbArc
 50
259.8470989734817
 51
280.1529010265182
  0
LINE
  5
51F5
330
18
100
AcDbEntity
  8
DRAW2
100
AcDbLine
 10
-393.3970341268801
 20
264.0857583429937
 30
0.0
 11
-393.2372700048227
 21
264.0857583429937
 31
0.0
  0
LINE
  5
51F6
330
18
100
AcDbEntity
  8
DRAW2
100
AcDbLine
 10
-393.2372700048227
 20
264.0857583429937
 30
0.0
 11
-393.9872700048227
 21
263.884856136958
 31
0.0
  0
LINE
  5
51F7
330
18
100
AcDbEntity
  8
DRAW2
100
AcDbLine
 10
-396.3550740184298
 20
264.0857583429937
 30
0.0
 11
-396.3550740184298
 21
267.1839539309222
 31
0.0
  0
LINE
  5
51F8
330
18
100
AcDbEntity
  8
DRAW2
100
AcDbLine
 10
-393.2372700048227
 20
264.0857583429937
 30
0.0
 11
-393.2372700048227
 21
267.1839539309222
 31
0.0
  0
LINE
  5
51F9
330
18
100
AcDbEntity
  8
DRAW2
100
AcDbLine
 10
-393.3970341268801
 20
264.0857583429937
 30
0.0
 11
-393.3970341268801
 21
267.1853312276843
 31
0.0
  0
LINE
  5
51FA
330
18
100
AcDbEntity
  8
DRAW2
100
AcDbLine
 10
-346.2873575048223
 20
269.884826136958
 30
0.0
 11
-318.2874175048228
 21
269.884826136958
 31
0.0
  0
ARC
  5
51FB
330
18
100
AcDbEntity
  8
DRAW2
100
AcDbCircle
 10
-359.9372575048228
 20
290.8848561369579
 30
0.0
 40
2.0
100
AcDbArc
 50
270.0
 51
0.0
  0
LINE
  5
5204
330
18
100
AcDbEntity
  8
DRAW2
100
AcDbLine
 10
-377.2372475048228
 20
342.7944387777884
 30
0.0
 11
-377.2372475048228
 21
288.8848561369579
 31
0.0
  0
LINE
  5
5205
330
18
100
AcDbEntity
  8
DRAW2
100
AcDbLine
 10
-379.2373675048228
 20
342.9709548571871
 30
0.0
 11
-379.2373675048228
 21
288.8848561369579
 31
0.0
  0
ARC
  5
5206
330
18
100
AcDbEntity
  8
DRAW2
100
AcDbCircle
 10
-402.2373075048228
 20
284.4073130574989
 30
0.0
 40
15.76995377759076
100
AcDbArc
 50
40.45279988428894
 51
139.547200115711
  0
LINE
  5
5207
330
18
100
AcDbEntity
  8
DRAW2
100
AcDbLine
 10
-405.8858998846543
 20
285.177883447954
 30
0.0
 11
-407.7741709970746
 21
285.177883447954
 31
0.0
  0
LINE
  5
5208
330
18
100
AcDbEntity
  8
DRAW2
100
AcDbLine
 10
-395.5431450048227
 20
288.1748561369579
 30
0.0
 11
-408.9313950048227
 21
288.1748561369579
 31
0.0
  0
LINE
  5
5209
330
18
100
AcDbEntity
  8
DRAW2
100
AcDbLine
 10
-408.9803786832956
 20
286.6073784258221
 30
0.0
 11
-395.4941613263498
 21
286.6073784258221
 31
0.0
  0
LINE
  5
520B
330
18
100
AcDbEntity
  8
DRAW2
100
AcDbLine
 10
-414.2373075048229
 20
288.8848561369579
 30
0.0
 11
-414.2373075048229
 21
294.6391966645065
 31
0.0
  0
LINE
  5
520C
330
18
100
AcDbEntity
  8
DRAW2
100
AcDbLine
 10
-411.4228008769062
 20
285.177883447954
 30
0.0
 11
-411.4872700048227
 21
285.177883447954
 31
0.0
  0
LINE
  5
520D
330
18
100
AcDbEntity
  8
DRAW2
100
AcDbLine
 10
-408.9803786832956
 20
286.6073784258221
 30
0.0
 11
-408.9092075048228
 21
288.8848561369578
 31
0.0
  0
LINE
  5
520E
330
18
100
AcDbEntity
  8
DRAW3
100
AcDbLine
 10
-408.0753950048227
 20
288.1748561369579
 30
0.0
 11
-408.0532075048227
 21
288.8848561369578
 31
0.0
  0
LINE
  5
520F
330
18
100
AcDbEntity
  8
DRAW3
100
AcDbLine
 10
-408.9803786832956
 20
286.6073784258221
 30
0.0
 11
-408.0753950048227
 21
288.1748561369579
 31
0.0
  0
LINE
  5
5210
330
18
100
AcDbEntity
  8
DRAW2
100
AcDbLine
 10
-407.7742459970746
 20
285.177883447954
 30
0.0
 11
-407.7742459970746
 21
283.1591363633601
 31
0.0
  0
LINE
  5
5211
330
18
100
AcDbEntity
  8
DRAW2
100
AcDbLine
 10
-408.9803786832956
 20
286.6073784258221
 30
0.0
 11
-411.4872700048227
 21
285.177883447954
 31
0.0
  0
ARC
  5
5212
330
18
100
AcDbEntity
  8
DRAW2
100
AcDbCircle
 10
-409.5839226042016
 20
281.3279430087426
 30
0.0
 40
4.266557709360186
100
AcDbArc
 50
64.46908114148024
 51
115.5309188585226
  0
ARC
  5
5213
330
18
100
AcDbEntity
  8
DRAW2
100
AcDbCircle
 10
-402.2372700048227
 20
269.3522261269564
 30
0.0
 40
16.24081062144512
100
AcDbArc
 50
77.01722515769001
 51
102.9827748423099
  0
LINE
  5
5214
330
18
100
AcDbEntity
  8
DRAW2
100
AcDbLine
 10
-405.8859748846542
 20
285.177883447954
 30
0.0
 11
-405.8859748846542
 21
284.5043523516739
 31
0.0
  0
LINE
  5
5215
330
18
100
AcDbEntity
  8
DRAW2
100
AcDbLine
 10
-395.4941613263498
 20
286.6073784258221
 30
0.0
 11
-395.5653325048227
 21
288.8848561369578
 31
0.0
  0
LINE
  5
5216
330
18
100
AcDbEntity
  8
DRAW3
100
AcDbLine
 10
-396.3991450048227
 20
288.1748561369579
 30
0.0
 11
-396.4213325048227
 21
288.8848561369579
 31
0.0
  0
LINE
  5
5217
330
18
100
AcDbEntity
  8
DRAW3
100
AcDbLine
 10
-395.4941613263498
 20
286.6073784258221
 30
0.0
 11
-396.3991450048227
 21
288.1748561369579
 31
0.0
  0
LINE
  5
5218
330
18
100
AcDbEntity
  8
DRAW2
100
AcDbLine
 10
-396.7003690125707
 20
285.177883447954
 30
0.0
 11
-396.7003690125707
 21
283.1591363633601
 31
0.0
  0
LINE
  5
5219
330
18
100
AcDbEntity
  8
DRAW2
100
AcDbLine
 10
-398.5886401249911
 20
285.177883447954
 30
0.0
 11
-398.5886401249911
 21
284.5043523516739
 31
0.0
  0
LINE
  5
521A
330
18
100
AcDbEntity
  8
DRAW2
100
AcDbLine
 10
-398.5886401249911
 20
285.177883447954
 30
0.0
 11
-396.7003690125707
 21
285.177883447954
 31
0.0
  0
LINE
  5
521B
330
18
100
AcDbEntity
  8
DRAW2
100
AcDbLine
 10
-393.0517391327392
 20
285.177883447954
 30
0.0
 11
-392.9872700048227
 21
285.177883447954
 31
0.0
  0
LINE
  5
521C
330
18
100
AcDbEntity
  8
DRAW2
100
AcDbLine
 10
-395.4941613263498
 20
286.6073784258221
 30
0.0
 11
-392.9872700048227
 21
285.177883447954
 31
0.0
  0
ARC
  5
521D
330
18
100
AcDbEntity
  8
DRAW2
100
AcDbCircle
 10
-394.8906174054438
 20
281.3279430087426
 30
0.0
 40
4.266557709360186
100
AcDbArc
 50
64.46908114148024
 51
115.5309188585124
  0
LINE
  5
521E
330
18
100
AcDbEntity
  8
DRAW2
100
AcDbLine
 10
-390.2373075048229
 20
288.8848561369579
 30
0.0
 11
-390.2373075048229
 21
294.6391966645065
 31
0.0
  0
LINE
  5
523F
330
18
100
AcDbEntity
  8
DRAW2
100
AcDbLine
 10
-357.9372575048228
 20
290.8848561369579
 30
0.0
 11
-357.9372575048228
 21
338.134494946876
 31
0.0
  0
LINE
  5
5240
330
18
100
AcDbEntity
  8
DRAW2
100
AcDbLine
 10
-303.9373514048229
 20
321.5848683369579
 30
0.0
 11
-303.9373514048229
 21
336.1848439369578
 31
0.0
  0
LINE
  5
5241
330
18
100
AcDbEntity
  8
DRAW2
100
AcDbLine
 10
-305.9373514048228
 20
321.1348561369579
 30
0.0
 11
-305.9373514048228
 21
336.6348561369579
 31
0.0
  0
LINE
  5
5242
330
18
100
AcDbEntity
  8
DRAW2
100
AcDbLine
 10
-307.5372675048228
 20
337.4754069608583
 30
0.0
 11
-307.5372675048228
 21
289.384856136958
 31
0.0
  0
LINE
  5
5243
330
18
100
AcDbEntity
  8
DRAW2
100
AcDbLine
 10
-355.5372675048226
 20
337.2954346577218
 30
0.0
 11
-355.5372675048229
 21
289.384856136958
 31
0.0
  0
CIRCLE
  5
5244
330
18
100
AcDbEntity
  8
DRAW2
100
AcDbCircle
 10
-332.2873275048228
 20
334.8848561369579
 30
0.0
 40
8.0
  0
CIRCLE
  5
5245
330
18
100
AcDbEntity
  8
DRAW2
100
AcDbCircle
 10
-332.2873275048228
 20
334.8848561369579
 30
0.0
 40
7.5
  0
CIRCLE
  5
5246
330
18
100
AcDbEntity
  8
DRAW2
100
AcDbCircle
 10
-332.2873275048228
 20
334.8848561369579
 30
0.0
 40
3.3235002
  0
CIRCLE
  5
5247
330
18
100
AcDbEntity
  8
DRAW3
100
AcDbCircle
 10
-332.2873275048228
 20
334.8848561369579
 30
0.0
 40
4.0
  0
LINE
  5
5248
330
18
100
AcDbEntity
  8
DRAW2
100
AcDbLine
 10
-336.0401091048228
 20
341.3848590369578
 30
0.0
 11
-339.7928860048228
 21
334.8848585595952
 31
0.0
  0
LINE
  5
5249
330
18
100
AcDbEntity
  8
DRAW2
100
AcDbLine
 10
-328.5345502048229
 20
341.3848561369578
 30
0.0
 11
-324.7817733048228
 21
334.8848555068314
 31
0.0
  0
CIRCLE
  5
524A
330
18
100
AcDbEntity
  8
DRAW2
100
AcDbCircle
 10
-332.2873275048228
 20
334.8848561369579
 30
0.0
 40
6.500003299999999
  0
LINE
  5
524B
330
18
100
AcDbEntity
  8
DRAW2
100
AcDbLine
 10
-339.2437309686176
 20
329.8448561369578
 30
0.0
 11
-350.8426274678541
 21
347.0048561369579
 31
0.0
  0
LINE
  5
524C
330
18
100
AcDbEntity
  8
DRAW2
100
AcDbLine
 10
-324.3308640410278
 20
329.8448561369578
 30
0.0
 11
-312.7319675417914
 21
347.0048561369579
 31
0.0
  0
ARC
  5
524D
330
18
100
AcDbEntity
  8
DRAW2
100
AcDbCircle
 10
-332.2873575048228
 20
294.884826136958
 30
0.0
 40
9.0
100
AcDbArc
 50
221.810058661777
 51
318.1899413382228
  0
LINE
  5
524E
330
18
100
AcDbEntity
  8
DRAW2
100
AcDbLine
 10
-355.0372675048228
 20
288.884856136958
 30
0.0
 11
-308.0372975048228
 21
288.884856136958
 31
0.0
  0
LINE
  5
5250
330
18
100
AcDbEntity
  8
DRAW2
100
AcDbLine
 10
-334.3372775048227
 20
326.2536567996931
 30
0.0
 11
-334.3372775048228
 21
299.7022361369579
 31
0.0
  0
LINE
  5
5251
330
18
100
AcDbEntity
  8
DRAW2
100
AcDbLine
 10
-331.3372775048228
 20
325.8961141782853
 30
0.0
 11
-331.3372775048228
 21
299.7022361369579
 31
0.0
  0
ARC
  5
5252
330
18
100
AcDbEntity
  8
DRAW2
100
AcDbCircle
 10
-355.0372675048228
 20
289.384856136958
 30
0.0
 40
0.5
100
AcDbArc
 50
180.0000000000065
 51
270.0
  0
LINE
  5
5253
330
18
100
AcDbEntity
  8
DRAW2
100
AcDbLine
 10
-336.0400901048228
 20
328.3848418369578
 30
0.0
 11
-328.5345359048228
 21
328.3848418369578
 31
0.0
  0
ARC
  5
5254
330
18
100
AcDbEntity
  8
DRAW2
100
AcDbCircle
 10
-331.7872975048227
 20
334.8848561369579
 30
0.0
 40
9.000000000000044
100
AcDbArc
 50
214.0557977425679
 51
325.944202257432
  0
LINE
  5
5255
330
18
100
AcDbEntity
  8
DRAW2
100
AcDbLine
 10
-339.7928817048228
 20
334.8848567670843
 30
0.0
 11
-336.0401048048228
 21
328.3848561369578
 31
0.0
  0
LINE
  5
5256
330
18
100
AcDbEntity
  8
DRAW2
100
AcDbLine
 10
-324.7817766048228
 20
334.8848582442734
 30
0.0
 11
-328.5345537048228
 21
328.3848575369578
 31
0.0
  0
LINE
  5
5257
330
18
100
AcDbEntity
  8
DRAW2
100
AcDbLine
 10
-305.9373514048228
 20
290.134856136958
 30
0.0
 11
-305.9373514048228
 21
305.634856136958
 31
0.0
  0
LINE
  5
5258
330
18
100
AcDbEntity
  8
DRAW2
100
AcDbLine
 10
-303.9373514048229
 20
290.584868336958
 30
0.0
 11
-303.9373514048229
 21
305.1848439369579
 31
0.0
  0
ARC
  5
5259
330
18
100
AcDbEntity
  8
DRAW2
100
AcDbCircle
 10
-306.8248178348229
 20
294.6348561369579
 30
0.0
 40
9.3874664
100
AcDbArc
 50
339.74453
 51
20.25544899999864
  0
LINE
  5
525A
330
18
100
AcDbEntity
  8
DRAW2
100
AcDbLine
 10
-297.4373515048229
 20
291.384856136958
 30
0.0
 11
-297.4373515048229
 21
304.384856136958
 31
0.0
  0
LINE
  5
525B
330
18
100
AcDbEntity
  8
DRAW2
100
AcDbLine
 10
-297.4373515048229
 20
291.384856136958
 30
0.0
 11
-303.9373514048229
 21
291.384856136958
 31
0.0
  0
LINE
  5
525C
330
18
100
AcDbEntity
  8
DRAW2
100
AcDbLine
 10
-305.9373514048228
 20
290.134856136958
 30
0.0
 11
-307.5373575048229
 21
290.134856136958
 31
0.0
  0
LINE
  5
525D
330
18
100
AcDbEntity
  8
DRAW2
100
AcDbLine
 10
-303.9373514048229
 20
290.584868336958
 30
0.0
 11
-305.9373514048228
 21
290.584868336958
 31
0.0
  0
LINE
  5
525F
330
18
100
AcDbEntity
  8
DRAW2
100
AcDbLine
 10
-298.0178873048229
 20
297.884856136958
 30
0.0
 11
-303.9373514048229
 21
297.884856136958
 31
0.0
  0
LINE
  5
5260
330
18
100
AcDbEntity
  8
DRAW2
100
AcDbLine
 10
-297.4373515048229
 20
304.384856136958
 30
0.0
 11
-303.9373514048229
 21
304.384856136958
 31
0.0
  0
LINE
  5
5261
330
18
100
AcDbEntity
  8
DRAW2
100
AcDbLine
 10
-305.9373514048228
 20
305.634856136958
 30
0.0
 11
-307.5373575048229
 21
305.634856136958
 31
0.0
  0
LINE
  5
5262
330
18
100
AcDbEntity
  8
DRAW2
100
AcDbLine
 10
-303.9373514048229
 20
305.1848439369579
 30
0.0
 11
-305.9373514048228
 21
305.1848439369579
 31
0.0
  0
LINE
  5
5263
330
18
100
AcDbEntity
  8
DRAW2
100
AcDbLine
 10
-303.9373585048228
 20
298.750854526958
 30
0.0
 11
-305.9373729048228
 21
297.596145546958
 31
0.0
  0
LINE
  5
5264
330
18
100
AcDbEntity
  8
DRAW2
100
AcDbLine
 10
-303.9373829048229
 20
298.173504236958
 30
0.0
 11
-305.9373708048229
 21
297.018810486958
 31
0.0
  0
LINE
  5
5265
330
18
100
AcDbEntity
  8
DRAW2
100
AcDbLine
 10
-297.4373875048229
 20
293.8848561369581
 30
0.0
 11
-295.1620924511771
 21
293.884856136958
 31
0.0
  0
LINE
  5
5266
330
18
100
AcDbEntity
  8
DRAW3
100
AcDbLine
 10
-297.4373875048229
 20
294.509826136958
 30
0.0
 11
-294.5371824482972
 21
294.509826136958
 31
0.0
  0
LINE
  5
5267
330
18
100
AcDbEntity
  8
DRAW2
100
AcDbLine
 10
-294.5371824482974
 20
294.5098261369579
 30
0.0
 11
-295.1621224482973
 21
293.8848261369578
 31
0.0
  0
LINE
  5
5268
330
18
100
AcDbEntity
  8
DRAW2
100
AcDbLine
 10
-297.4373875048229
 20
301.884856136958
 30
0.0
 11
-295.1621524482975
 21
301.8848561369581
 31
0.0
  0
LINE
  5
5269
330
18
100
AcDbEntity
  8
DRAW3
100
AcDbLine
 10
-297.4373875048229
 20
301.259826136958
 30
0.0
 11
-294.5371224482974
 21
301.259826136958
 31
0.0
  0
LINE
  5
526A
330
18
100
AcDbEntity
  8
DRAW2
100
AcDbLine
 10
-294.5371824482974
 20
294.5098561369578
 30
0.0
 11
-294.5371824482974
 21
301.2598561369578
 31
0.0
  0
LINE
  5
526B
330
18
100
AcDbEntity
  8
DRAW2
100
AcDbLine
 10
-294.5371224482973
 20
301.2598261369578
 30
0.0
 11
-295.1621824482974
 21
301.8848861369578
 31
0.0
  0
LINE
  5
526C
330
18
100
AcDbEntity
  8
DRAW2
100
AcDbLine
 10
-295.1621824482974
 20
301.8848861369578
 30
0.0
 11
-295.1621824482974
 21
293.8848861369578
 31
0.0
  0
ARC
  5
526D
330
18
100
AcDbEntity
  8
DRAW2
100
AcDbCircle
 10
-306.8248178348229
 20
301.134856136958
 30
0.0
 40
9.3874664
100
AcDbArc
 50
339.74453
 51
20.25544899999864
  0
LINE
  5
526E
330
18
100
AcDbEntity
  8
DRAW2
100
AcDbLine
 10
-305.9373514048228
 20
321.1348561369579
 30
0.0
 11
-307.5373575048229
 21
321.1348561369579
 31
0.0
  0
LINE
  5
526F
330
18
100
AcDbEntity
  8
DRAW2
100
AcDbLine
 10
-298.0178873048229
 20
328.8848561369579
 30
0.0
 11
-303.9373514048229
 21
328.8848561369579
 31
0.0
  0
LINE
  5
5270
330
18
100
AcDbEntity
  8
DRAW2
100
AcDbLine
 10
-297.4373515048229
 20
322.3848561369579
 30
0.0
 11
-303.9373514048229
 21
322.3848561369579
 31
0.0
  0
LINE
  5
5271
330
18
100
AcDbEntity
  8
DRAW2
100
AcDbLine
 10
-297.4373515048229
 20
335.3848561369579
 30
0.0
 11
-303.9373514048229
 21
335.3848561369579
 31
0.0
  0
LINE
  5
5272
330
18
100
AcDbEntity
  8
DRAW2
100
AcDbLine
 10
-303.9373829048229
 20
329.1735042369579
 30
0.0
 11
-305.9373708048229
 21
328.0188104869579
 31
0.0
  0
LINE
  5
5273
330
18
100
AcDbEntity
  8
DRAW2
100
AcDbLine
 10
-303.9373585048228
 20
329.7508545269579
 30
0.0
 11
-305.9373729048228
 21
328.5961455469579
 31
0.0
  0
LINE
  5
5274
330
18
100
AcDbEntity
  8
DRAW2
100
AcDbLine
 10
-303.9373514048229
 20
321.5848683369579
 30
0.0
 11
-305.9373514048228
 21
321.5848683369579
 31
0.0
  0
LINE
  5
5275
330
18
100
AcDbEntity
  8
DRAW2
100
AcDbLine
 10
-295.1621824482974
 20
332.8848861369578
 30
0.0
 11
-295.1621824482974
 21
324.8848861369578
 31
0.0
  0
LINE
  5
5276
330
18
100
AcDbEntity
  8
DRAW2
100
AcDbLine
 10
-294.5371224482973
 20
332.2598261369578
 30
0.0
 11
-295.1621824482974
 21
332.8848861369578
 31
0.0
  0
LINE
  5
5277
330
18
100
AcDbEntity
  8
DRAW2
100
AcDbLine
 10
-294.5371824482974
 20
325.5098561369578
 30
0.0
 11
-294.5371824482974
 21
332.2598561369578
 31
0.0
  0
LINE
  5
5278
330
18
100
AcDbEntity
  8
DRAW2
100
AcDbLine
 10
-294.5371824482974
 20
325.5098261369578
 30
0.0
 11
-295.1621224482973
 21
324.8848261369578
 31
0.0
  0
LINE
  5
5279
330
18
100
AcDbEntity
  8
DRAW3
100
AcDbLine
 10
-297.4373875048229
 20
325.509826136958
 30
0.0
 11
-294.5371824482972
 21
325.509826136958
 31
0.0
  0
LINE
  5
527A
330
18
100
AcDbEntity
  8
DRAW2
100
AcDbLine
 10
-297.4373875048229
 20
324.884856136958
 30
0.0
 11
-295.1620924511771
 21
324.8848561369579
 31
0.0
  0
LINE
  5
527B
330
18
100
AcDbEntity
  8
DRAW3
100
AcDbLine
 10
-297.4373875048229
 20
332.2598261369579
 30
0.0
 11
-294.5371224482974
 21
332.2598261369579
 31
0.0
  0
LINE
  5
527C
330
18
100
AcDbEntity
  8
DRAW2
100
AcDbLine
 10
-297.4373875048229
 20
332.884856136958
 30
0.0
 11
-295.1621524482975
 21
332.884856136958
 31
0.0
  0
ARC
  5
527D
330
18
100
AcDbEntity
  8
DRAW2
100
AcDbCircle
 10
-306.8248178348229
 20
325.6348561369578
 30
0.0
 40
9.3874664
100
AcDbArc
 50
339.74453
 51
20.25544899999864
  0
LINE
  5
527E
330
18
100
AcDbEntity
  8
DRAW2
100
AcDbLine
 10
-297.4373515048229
 20
322.3848561369579
 30
0.0
 11
-297.4373515048229
 21
335.3848561369579
 31
0.0
  0
ARC
  5
527F
330
18
100
AcDbEntity
  8
DRAW2
100
AcDbCircle
 10
-306.8248178348229
 20
332.1348561369578
 30
0.0
 40
9.3874664
100
AcDbArc
 50
339.74453
 51
20.25544899999864
  0
LINE
  5
5280
330
18
100
AcDbEntity
  8
DRAW2
100
AcDbLine
 10
-330.7872975048228
 20
358.8848561369579
 30
0.0
 11
-312.8136315438124
 21
358.8848561369578
 31
0.0
  0
LINE
  5
5281
330
18
100
AcDbEntity
  8
DRAW2
100
AcDbLine
 10
-330.7872975048228
 20
360.8848561369579
 30
0.0
 11
-312.8136315438124
 21
360.8848561369579
 31
0.0
  0
LINE
  5
5282
330
18
100
AcDbEntity
  8
DRAW2
100
AcDbLine
 10
-345.1570394619437
 20
346.3848561369579
 30
0.0
 11
-318.4175555477019
 21
346.3848561369578
 31
0.0
  0
LINE
  5
5283
330
18
100
AcDbEntity
  8
DRAW2
100
AcDbLine
 10
-345.1570394619437
 20
373.3848561369579
 30
0.0
 11
-318.4175555477017
 21
373.3848561369578
 31
0.0
  0
LINE
  5
5284
330
18
100
AcDbEntity
  8
DRAW2
100
AcDbLine
 10
-324.3308640410278
 20
389.9248561369579
 30
0.0
 11
-312.7319675417914
 21
372.7648561369579
 31
0.0
  0
LINE
  5
5286
330
18
100
AcDbEntity
  8
DRAW2
100
AcDbLine
 10
-332.7872975048228
 20
373.3848561369578
 30
0.0
 11
-332.7872975048228
 21
360.8848561369579
 31
0.0
  0
LINE
  5
5287
330
18
100
AcDbEntity
  8
DRAW2
100
AcDbLine
 10
-330.7872975048228
 20
373.3848561369578
 30
0.0
 11
-330.7872975048228
 21
360.8848561369579
 31
0.0
  0
ARC
  5
5288
330
18
100
AcDbEntity
  8
DRAW2
100
AcDbCircle
 10
-331.7872975048226
 20
359.8848561369579
 30
0.0
 40
23.00000000000015
100
AcDbArc
 50
145.944202257432
 51
214.0557977425679
  0
ARC
  5
5289
330
18
100
AcDbEntity
  8
DRAW2
100
AcDbCircle
 10
-331.7872975048227
 20
359.8848561369579
 30
0.0
 40
19.0
100
AcDbArc
 50
134.7222460247891
 51
225.2777539752107
  0
LINE
  5
528A
330
18
100
AcDbEntity
  8
DRAW2
100
AcDbLine
 10
-350.760963465833
 20
358.8848561369579
 30
0.0
 11
-332.7872975048228
 21
358.8848561369579
 31
0.0
  0
LINE
  5
528B
330
18
100
AcDbEntity
  8
DRAW2
100
AcDbLine
 10
-350.760963465833
 20
360.8848561369579
 30
0.0
 11
-332.7872975048228
 21
360.8848561369579
 31
0.0
  0
ARC
  5
528C
330
18
100
AcDbEntity
  8
DRAW2
100
AcDbCircle
 10
-354.9663140731687
 20
350.5182563844143
 30
0.0
 40
2.0
100
AcDbArc
 50
22.00354690061499
 51
90.0
  0
LINE
  5
528D
330
18
100
AcDbEntity
  8
DRAW2
100
AcDbLine
 10
-332.7872975048228
 20
358.8848561369579
 30
0.0
 11
-332.7872975048228
 21
346.3848561369579
 31
0.0
  0
LINE
  5
528E
330
18
100
AcDbEntity
  8
DRAW2
100
AcDbLine
 10
-330.7872975048228
 20
358.8848561369579
 30
0.0
 11
-330.7872975048228
 21
346.3848561369579
 31
0.0
  0
LINE
  5
528F
330
18
100
AcDbEntity
  8
DRAW2
100
AcDbLine
 10
-336.0400963048228
 20
341.3848437369578
 30
0.0
 11
-328.5345421048229
 21
341.3848437369578
 31
0.0
  0
ARC
  5
5290
330
18
100
AcDbEntity
  8
DRAW2
100
AcDbCircle
 10
-332.7872975048228
 20
359.8848561369579
 30
0.0
 40
1.0
100
AcDbArc
 50
270.0
 51
90.0
  0
ARC
  5
5291
330
18
100
AcDbEntity
  8
DRAW2
100
AcDbCircle
 10
-330.7872975048228
 20
359.8848561369579
 30
0.0
 40
1.0
100
AcDbArc
 50
90.0
 51
270.0
  0
LINE
  5
5292
330
18
100
AcDbEntity
  8
DRAW2
100
AcDbLine
 10
-339.2437309686176
 20
389.9248561369579
 30
0.0
 11
-350.8426274678541
 21
372.7648561369579
 31
0.0
  0
ARC
  5
5293
330
18
100
AcDbEntity
  8
DRAW2
100
AcDbCircle
 10
-354.9663140731687
 20
369.2514558895014
 30
0.0
 40
2.0
100
AcDbArc
 50
270.0
 51
337.9964530993849
  0
LINE
  5
5294
330
18
100
AcDbEntity
  8
DRAW2
100
AcDbLine
 10
-324.7817766048228
 20
384.8848582442734
 30
0.0
 11
-328.5345537048228
 21
378.3848575369578
 31
0.0
  0
LINE
  5
5295
330
18
100
AcDbEntity
  8
DRAW2
100
AcDbLine
 10
-339.7928817048228
 20
384.8848567670843
 30
0.0
 11
-336.0401048048228
 21
378.3848561369578
 31
0.0
  0
CIRCLE
  5
5296
330
18
100
AcDbEntity
  8
DRAW2
100
AcDbCircle
 10
-332.2873275048228
 20
384.8848561369579
 30
0.0
 40
6.500003299999999
  0
CIRCLE
  5
5297
330
18
100
AcDbEntity
  8
DRAW2
100
AcDbCircle
 10
-332.2873275048228
 20
384.8848561369579
 30
0.0
 40
8.0
  0
CIRCLE
  5
5298
330
18
100
AcDbEntity
  8
DRAW2
100
AcDbCircle
 10
-332.2873275048228
 20
384.8848561369579
 30
0.0
 40
7.5
  0
LINE
  5
5299
330
18
100
AcDbEntity
  8
DRAW2
100
AcDbLine
 10
-336.0400901048228
 20
378.3848418369578
 30
0.0
 11
-328.5345359048228
 21
378.3848418369578
 31
0.0
  0
LINE
  5
529A
330
18
100
AcDbEntity
  8
DRAW2
100
AcDbLine
 10
-336.0400963048228
 20
391.3848437369578
 30
0.0
 11
-328.5345421048229
 21
391.3848437369578
 31
0.0
  0
CIRCLE
  5
529B
330
18
100
AcDbEntity
  8
DRAW3
100
AcDbCircle
 10
-332.2873275048228
 20
384.8848561369579
 30
0.0
 40
4.0
  0
CIRCLE
  5
529C
330
18
100
AcDbEntity
  8
DRAW2
100
AcDbCircle
 10
-332.2873275048228
 20
384.8848561369579
 30
0.0
 40
3.3235002
  0
ARC
  5
529D
330
18
100
AcDbEntity
  8
DRAW2
100
AcDbCircle
 10
-331.7872975048228
 20
384.8848561369577
 30
0.0
 40
9.00000000000014
100
AcDbArc
 50
34.05579774256793
 51
145.944202257432
  0
LINE
  5
529E
330
18
100
AcDbEntity
  8
DRAW2
100
AcDbLine
 10
-336.0401091048228
 20
391.3848590369579
 30
0.0
 11
-339.7928860048228
 21
384.8848585595952
 31
0.0
  0
LINE
  5
529F
330
18
100
AcDbEntity
  8
DRAW2
100
AcDbLine
 10
-328.5345502048229
 20
391.3848561369578
 30
0.0
 11
-324.7817733048228
 21
384.8848555068314
 31
0.0
  0
ARC
  5
52A0
330
18
100
AcDbEntity
  8
DRAW2
100
AcDbCircle
 10
-331.7872975048227
 20
359.8848561369579
 30
0.0
 40
19.00000000000003
100
AcDbArc
 50
314.7222460247891
 51
45.2777539752108
  0
ARC
  5
52A1
330
18
100
AcDbEntity
  8
DRAW2
100
AcDbCircle
 10
-331.7872975048229
 20
359.8848561369579
 30
0.0
 40
23.00000000000009
100
AcDbArc
 50
325.944202257432
 51
34.05579774256793
  0
LINE
  5
52A2
330
18
100
AcDbEntity
  8
DRAW2
100
AcDbLine
 10
-291.7872975048228
 20
375.3848561369579
 30
0.0
 11
-291.7872975048228
 21
360.8848861369579
 31
0.0
  0
LINE
  5
52A3
330
18
100
AcDbEntity
  8
DRAW2
100
AcDbLine
 10
-298.7155275048228
 20
371.3848561369579
 30
0.0
 11
-298.7155275048228
 21
360.8848861369579
 31
0.0
  0
LINE
  5
52A4
330
18
100
AcDbEntity
  8
DRAW2
100
AcDbLine
 10
-311.8686958973027
 20
348.3848861369579
 30
0.0
 11
-298.7155275048228
 21
348.3848861369579
 31
0.0
  0
LINE
  5
52A5
330
18
100
AcDbEntity
  8
DRAW2
100
AcDbLine
 10
-298.7155275048228
 20
358.8848561369579
 30
0.0
 11
-298.7155275048228
 21
348.3848861369579
 31
0.0
  0
LINE
  5
52A6
330
18
100
AcDbEntity
  8
DRAW2
100
AcDbLine
 10
-291.7872975048228
 20
358.8848561369579
 30
0.0
 11
-291.7872975048228
 21
344.3848561369579
 31
0.0
  0
LINE
  5
52A7
330
18
100
AcDbEntity
  8
DRAW2
100
AcDbLine
 10
-305.9373514048228
 20
336.6348561369579
 30
0.0
 11
-307.5373575048229
 21
336.6348561369579
 31
0.0
  0
LINE
  5
52A8
330
18
100
AcDbEntity
  8
DRAW2
100
AcDbLine
 10
-303.9373514048229
 20
336.1848439369578
 30
0.0
 11
-305.9373514048228
 21
336.1848439369578
 31
0.0
  0
LINE
  5
52A9
330
18
100
AcDbEntity
  8
DRAW2
100
AcDbLine
 10
-291.7872975048228
 20
344.3848561369579
 30
0.0
 11
-298.7155275048228
 21
348.3848561369579
 31
0.0
  0
LINE
  5
52AA
330
18
100
AcDbEntity
  8
DRAW2
100
AcDbLine
 10
-311.8687132177807
 20
371.3848561369579
 30
0.0
 11
-298.7155275048228
 21
371.3848561369579
 31
0.0
  0
LINE
  5
52AB
330
18
100
AcDbEntity
  8
DRAW2
100
AcDbLine
 10
-291.7872975048228
 20
375.3848261369578
 30
0.0
 11
-298.7154675048228
 21
371.3848261369578
 31
0.0
  0
LINE
  5
52AC
330
18
100
AcDbEntity
  8
DRAW2
100
AcDbLine
 10
-298.0178873048229
 20
390.8848561369581
 30
0.0
 11
-303.9373514048229
 21
390.8848561369581
 31
0.0
  0
LINE
  5
52AD
330
18
100
AcDbEntity
  8
DRAW2
100
AcDbLine
 10
-297.4373515048229
 20
384.3848561369581
 30
0.0
 11
-303.9373514048229
 21
384.3848561369581
 31
0.0
  0
LINE
  5
52AE
330
18
100
AcDbEntity
  8
DRAW2
100
AcDbLine
 10
-305.9373514048228
 20
383.1348561369581
 30
0.0
 11
-307.5373575048229
 21
383.1348561369581
 31
0.0
  0
LINE
  5
52AF
330
18
100
AcDbEntity
  8
DRAW2
100
AcDbLine
 10
-303.9373514048229
 20
383.5848683369582
 30
0.0
 11
-305.9373514048228
 21
383.5848683369582
 31
0.0
  0
LINE
  5
52B0
330
18
100
AcDbEntity
  8
DRAW2
100
AcDbLine
 10
-303.9373585048228
 20
391.7508545269581
 30
0.0
 11
-305.9373729048228
 21
390.5961455469581
 31
0.0
  0
LINE
  5
52B1
330
18
100
AcDbEntity
  8
DRAW2
100
AcDbLine
 10
-303.9373829048229
 20
391.1735042369581
 30
0.0
 11
-305.9373708048229
 21
390.0188104869581
 31
0.0
  0
LINE
  5
52B2
330
18
100
AcDbEntity
  8
DRAW2
100
AcDbLine
 10
-294.5371824482974
 20
387.5098561369579
 30
0.0
 11
-294.5371824482974
 21
394.259856136958
 31
0.0
  0
LINE
  5
52B3
330
18
100
AcDbEntity
  8
DRAW2
100
AcDbLine
 10
-294.5371824482974
 20
387.509826136958
 30
0.0
 11
-295.1621224482973
 21
386.884826136958
 31
0.0
  0
LINE
  5
52B4
330
18
100
AcDbEntity
  8
DRAW3
100
AcDbLine
 10
-297.4373875048229
 20
387.5098261369581
 30
0.0
 11
-294.5371824482972
 21
387.5098261369581
 31
0.0
  0
LINE
  5
52B5
330
18
100
AcDbEntity
  8
DRAW2
100
AcDbLine
 10
-297.4373875048229
 20
386.8848561369582
 30
0.0
 11
-295.1620924511771
 21
386.8848561369581
 31
0.0
  0
LINE
  5
52B6
330
18
100
AcDbEntity
  8
DRAW3
100
AcDbLine
 10
-297.4373875048229
 20
394.2598261369581
 30
0.0
 11
-294.5371224482974
 21
394.2598261369581
 31
0.0
  0
ARC
  5
52B7
330
18
100
AcDbEntity
  8
DRAW2
100
AcDbCircle
 10
-306.8248178348229
 20
387.6348561369582
 30
0.0
 40
9.3874664
100
AcDbArc
 50
339.7445510000013
 51
20.25546999999996
  0
LINE
  5
52B8
330
18
100
AcDbEntity
  8
DRAW2
100
AcDbLine
 10
-266.7872975048228
 20
374.3032561369578
 30
0.0
 11
-266.7872975048228
 21
345.4664561369579
 31
0.0
  0
ARC
  5
52B9
330
18
100
AcDbEntity
  8
DRAW2
100
AcDbCircle
 10
-268.7872975048228
 20
345.4664561369579
 30
0.0
 40
2.0
100
AcDbArc
 50
267.7093900000012
 51
0.0
  0
ARC
  5
52BA
330
18
100
AcDbEntity
  8
DRAW2
100
AcDbCircle
 10
-268.7872975048228
 20
374.3032561369578
 30
0.0
 40
2.0
100
AcDbArc
 50
0.0
 51
92.29060899999952
  0
ARC
  5
52BC
330
18
100
AcDbEntity
  8
DRAW2
100
AcDbCircle
 10
-359.9372575048228
 20
428.8848561369577
 30
0.0
 40
2.0
100
AcDbArc
 50
0.0
 51
90.0
  0
ARC
  5
52BD
330
18
100
AcDbEntity
  8
DRAW2
100
AcDbCircle
 10
-402.2373075048228
 20
436.8697681024529
 30
0.0
 40
23.19073196549494
100
AcDbArc
 50
210.4113413381977
 51
329.5886586618022
  0
LINE
  5
52BE
330
18
100
AcDbEntity
  8
DRAW2
100
AcDbLine
 10
-420.237307504823
 20
433.8848761369582
 30
0.0
 11
-384.2373075048229
 21
433.8848761369582
 31
0.0
  0
ARC
  5
52BF
330
18
100
AcDbEntity
  8
DRAW2
100
AcDbCircle
 10
-420.237307504823
 20
431.8848761369581
 30
0.0
 40
2.0
100
AcDbArc
 50
90.0
 51
180.0
  0
LINE
  5
52C0
330
18
100
AcDbEntity
  8
DRAW2
100
AcDbLine
 10
-422.237307504823
 20
425.1305156094095
 30
0.0
 11
-422.237307504823
 21
431.8848761369581
 31
0.0
  0
LINE
  5
52C1
330
18
100
AcDbEntity
  8
DRAW2
100
AcDbLine
 10
-406.2373375048228
 20
433.8848761369582
 30
0.0
 11
-406.2373375048229
 21
441.384876136958
 31
0.0
  0
LINE
  5
52C2
330
18
100
AcDbEntity
  8
DRAW2
100
AcDbLine
 10
-398.237377504823
 20
433.8848761369582
 30
0.0
 11
-398.2373775048229
 21
441.384876136958
 31
0.0
  0
LINE
  5
52C3
330
18
100
AcDbEntity
  8
DRAW2
100
AcDbLine
 10
-398.737277504823
 20
441.884876136958
 30
0.0
 11
-405.737277504823
 21
441.884876136958
 31
0.0
  0
LINE
  5
52C4
330
18
100
AcDbEntity
  8
DRAW2
100
AcDbLine
 10
-398.2373075048229
 20
441.384876136958
 30
0.0
 11
-406.2373075048228
 21
441.384876136958
 31
0.0
  0
LINE
  5
52C5
330
18
100
AcDbEntity
  8
DRAW2
100
AcDbLine
 10
-405.7371875048229
 20
441.884826136958
 30
0.0
 11
-406.2371875048229
 21
441.384826136958
 31
0.0
  0
LINE
  5
52C6
330
18
100
AcDbEntity
  8
DRAW2
100
AcDbLine
 10
-398.237277504823
 20
441.384796136958
 30
0.0
 11
-398.7373075048229
 21
441.8848161369579
 31
0.0
  0
LINE
  5
52C7
330
18
100
AcDbEntity
  8
DRAW2
100
AcDbLine
 10
-359.9372575048228
 20
430.8848561369576
 30
0.0
 11
-382.2373075048229
 21
430.8848561369578
 31
0.0
  0
ARC
  5
52C8
330
18
100
AcDbEntity
  8
DRAW2
100
AcDbCircle
 10
-384.2373075048229
 20
431.8848761369581
 30
0.0
 40
2.0
100
AcDbArc
 50
0.0
 51
90.0
  0
LINE
  5
52C9
330
18
100
AcDbEntity
  8
DRAW2
100
AcDbLine
 10
-382.2373075048229
 20
425.1305156094093
 30
0.0
 11
-382.2373075048229
 21
431.8848761369581
 31
0.0
  0
ARC
  5
52CA
330
18
100
AcDbEntity
  8
DRAW2
100
AcDbCircle
 10
-332.2874175048228
 20
424.8848861369577
 30
0.0
 40
9.0
100
AcDbArc
 50
41.81005866177712
 51
138.1899413382228
  0
LINE
  5
52CB
330
18
100
AcDbEntity
  8
DRAW2
100
AcDbLine
 10
-346.2873575048222
 20
449.8848861369579
 30
0.0
 11
-318.2874175048228
 21
449.8848861369577
 31
0.0
  0
LINE
  5
52CC
330
18
100
AcDbEntity
  8
DRAW2
100
AcDbLine
 10
-355.0372675048228
 20
430.8848561369576
 30
0.0
 11
-308.0373575048229
 21
430.8848561369579
 31
0.0
  0
ARC
  5
52CD
330
18
100
AcDbEntity
  8
DRAW2
100
AcDbCircle
 10
-355.0372675048228
 20
430.3848561369577
 30
0.0
 40
0.5
100
AcDbArc
 50
90.0
 51
179.9999999999934
  0
ARC
  5
52CE
330
18
100
AcDbEntity
  8
DRAW2
100
AcDbCircle
 10
-346.2873575048223
 20
440.8848861369577
 30
0.0
 40
9.0
100
AcDbArc
 50
90.0
 51
180.0
  0
LINE
  5
52CF
330
18
100
AcDbEntity
  8
DRAW2
100
AcDbLine
 10
-295.1621824482974
 20
425.8848861369578
 30
0.0
 11
-295.1621824482974
 21
417.8848861369578
 31
0.0
  0
LINE
  5
52D0
330
18
100
AcDbEntity
  8
DRAW2
100
AcDbLine
 10
-294.5371824482974
 20
418.5098561369578
 30
0.0
 11
-294.5371824482974
 21
425.2598561369579
 31
0.0
  0
LINE
  5
52D1
330
18
100
AcDbEntity
  8
DRAW2
100
AcDbLine
 10
-303.9373514048229
 20
429.184843936958
 30
0.0
 11
-303.9373514048229
 21
414.5848683369581
 31
0.0
  0
LINE
  5
52D2
330
18
100
AcDbEntity
  8
DRAW2
100
AcDbLine
 10
-297.4373515048229
 20
428.384856136958
 30
0.0
 11
-297.4373515048229
 21
415.384856136958
 31
0.0
  0
ARC
  5
52D3
330
18
100
AcDbEntity
  8
DRAW2
100
AcDbCircle
 10
-306.8248178348229
 20
425.1348561369581
 30
0.0
 40
9.3874664
100
AcDbArc
 50
339.7445510000013
 51
20.25546999999996
  0
LINE
  5
52D4
330
18
100
AcDbEntity
  8
DRAW2
100
AcDbLine
 10
-305.9373514048228
 20
429.634856136958
 30
0.0
 11
-305.9373514048228
 21
414.134856136958
 31
0.0
  0
LINE
  5
52D5
330
18
100
AcDbEntity
  8
DRAW2
100
AcDbLine
 10
-297.4373515048229
 20
397.3848561369581
 30
0.0
 11
-303.9373514048229
 21
397.3848561369581
 31
0.0
  0
LINE
  5
52D6
330
18
100
AcDbEntity
  8
DRAW2
100
AcDbLine
 10
-305.9373514048228
 20
398.6348561369581
 30
0.0
 11
-307.5373575048229
 21
398.6348561369581
 31
0.0
  0
LINE
  5
52D7
330
18
100
AcDbEntity
  8
DRAW2
100
AcDbLine
 10
-303.9373514048229
 20
398.1848439369581
 30
0.0
 11
-305.9373514048228
 21
398.1848439369581
 31
0.0
  0
LINE
  5
52D8
330
18
100
AcDbEntity
  8
DRAW2
100
AcDbLine
 10
-297.4373875048229
 20
394.8848561369582
 30
0.0
 11
-295.1621524482975
 21
394.8848561369582
 31
0.0
  0
LINE
  5
52D9
330
18
100
AcDbEntity
  8
DRAW2
100
AcDbLine
 10
-297.4373515048229
 20
415.384856136958
 30
0.0
 11
-303.9373514048229
 21
415.384856136958
 31
0.0
  0
LINE
  5
52DA
330
18
100
AcDbEntity
  8
DRAW2
100
AcDbLine
 10
-298.0178873048229
 20
421.884856136958
 30
0.0
 11
-303.9373514048229
 21
421.884856136958
 31
0.0
  0
LINE
  5
52DB
330
18
100
AcDbEntity
  8
DRAW2
100
AcDbLine
 10
-305.9373514048228
 20
414.134856136958
 30
0.0
 11
-307.5373575048229
 21
414.134856136958
 31
0.0
  0
LINE
  5
52DC
330
18
100
AcDbEntity
  8
DRAW2
100
AcDbLine
 10
-303.9373829048229
 20
422.173504236958
 30
0.0
 11
-305.9373708048229
 21
421.018810486958
 31
0.0
  0
LINE
  5
52DD
330
18
100
AcDbEntity
  8
DRAW2
100
AcDbLine
 10
-303.9373585048228
 20
422.750854526958
 30
0.0
 11
-305.9373729048228
 21
421.596145546958
 31
0.0
  0
LINE
  5
52DE
330
18
100
AcDbEntity
  8
DRAW2
100
AcDbLine
 10
-303.9373514048229
 20
414.5848683369581
 30
0.0
 11
-305.9373514048228
 21
414.5848683369581
 31
0.0
  0
LINE
  5
52DF
330
18
100
AcDbEntity
  8
DRAW2
100
AcDbLine
 10
-294.5371824482974
 20
418.5098261369579
 30
0.0
 11
-295.1621224482973
 21
417.8848261369578
 31
0.0
  0
LINE
  5
52E0
330
18
100
AcDbEntity
  8
DRAW3
100
AcDbLine
 10
-297.4373875048229
 20
418.509826136958
 30
0.0
 11
-294.5371824482972
 21
418.509826136958
 31
0.0
  0
LINE
  5
52E1
330
18
100
AcDbEntity
  8
DRAW2
100
AcDbLine
 10
-297.4373875048229
 20
417.8848561369581
 30
0.0
 11
-295.1620924511771
 21
417.884856136958
 31
0.0
  0
ARC
  5
52E2
330
18
100
AcDbEntity
  8
DRAW2
100
AcDbCircle
 10
-306.8248178348229
 20
418.634856136958
 30
0.0
 40
9.3874664
100
AcDbArc
 50
339.7445510000013
 51
20.25546999999996
  0
LINE
  5
52E4
330
18
100
AcDbEntity
  8
DRAW2
100
AcDbLine
 10
-297.4373515048229
 20
428.384856136958
 30
0.0
 11
-303.9373514048229
 21
428.384856136958
 31
0.0
  0
LINE
  5
52E5
330
18
100
AcDbEntity
  8
DRAW2
100
AcDbLine
 10
-305.9373514048228
 20
429.634856136958
 30
0.0
 11
-307.5373575048229
 21
429.634856136958
 31
0.0
  0
LINE
  5
52E6
330
18
100
AcDbEntity
  8
DRAW2
100
AcDbLine
 10
-303.9373514048229
 20
429.184843936958
 30
0.0
 11
-305.9373514048228
 21
429.184843936958
 31
0.0
  0
LINE
  5
52E8
330
18
100
AcDbEntity
  8
DRAW2
100
AcDbLine
 10
-294.5371224482973
 20
425.2598261369578
 30
0.0
 11
-295.1621824482974
 21
425.8848861369578
 31
0.0
  0
LINE
  5
52E9
330
18
100
AcDbEntity
  8
DRAW3
100
AcDbLine
 10
-297.4373875048229
 20
425.259826136958
 30
0.0
 11
-294.5371224482974
 21
425.259826136958
 31
0.0
  0
LINE
  5
52EA
330
18
100
AcDbEntity
  8
DRAW2
100
AcDbLine
 10
-297.4373875048229
 20
425.884856136958
 30
0.0
 11
-295.1621524482975
 21
425.8848561369582
 31
0.0
  0
ARC
  5
55B4
330
18
100
AcDbEntity
  8
DRAW2
100
AcDbCircle
 10
-430.8372775048228
 20
289.3848561369579
 30
0.0
 40
0.5
100
AcDbArc
 50
270.0
 51
359.9999999999998
  0
LINE
  5
55B6
330
18
100
AcDbEntity
  8
DRAW2
100
AcDbLine
 10
-431.0372975048228
 20
278.884826136958
 30
0.0
 11
-431.0372975048228
 21
288.8848561369579
 31
0.0
  0
LINE
  5
55B7
330
18
100
AcDbEntity
  8
DRAW2
100
AcDbLine
 10
-477.0372375048227
 20
278.8848261369579
 30
0.0
 11
-477.0372375048227
 21
288.8848561369579
 31
0.0
  0
LINE
  5
55BA
330
18
100
AcDbEntity
  8
DRAW2
100
AcDbLine
 10
-476.8372175048222
 20
440.8848861369577
 30
0.0
 11
-476.8372175048222
 21
430.8848561369579
 31
0.0
  0
LINE
  5
55BB
330
18
100
AcDbEntity
  8
DRAW2
100
AcDbLine
 10
-431.0372975048228
 20
440.8848861369577
 30
0.0
 11
-431.0372975048228
 21
430.884856136958
 31
0.0
  0
ARC
  5
55CD
330
18
100
AcDbEntity
  8
DRAW2
100
AcDbCircle
 10
-318.2873275048228
 20
278.8848261369581
 30
0.0
 40
9.0
100
AcDbArc
 50
270.0000000000001
 51
0.0
  0
ARC
  5
55CE
330
18
100
AcDbEntity
  8
DRAW2
100
AcDbCircle
 10
-308.0372675048228
 20
289.384856136958
 30
0.0
 40
0.5
100
AcDbArc
 50
270.0
 51
0.0
  0
ARC
  5
55D0
330
18
100
AcDbEntity
  8
DRAW2
100
AcDbCircle
 10
-308.0372675048228
 20
430.3848561369579
 30
0.0
 40
0.5
100
AcDbArc
 50
0.0
 51
90.0000000000003
  0
ARC
  5
55D2
330
18
100
AcDbEntity
  8
DRAW2
100
AcDbCircle
 10
-318.2873275048228
 20
440.8848861369577
 30
0.0
 40
9.0
100
AcDbArc
 50
0.0
 51
89.99999999999955
  0
LINE
  5
55D5
330
18
100
AcDbEntity
  8
DRAW2
100
AcDbLine
 10
-355.2873575048223
 20
440.8848861369577
 30
0.0
 11
-355.2873575048223
 21
430.8178168648537
 31
0.0
  0
LINE
  5
55D6
330
18
100
AcDbEntity
  8
DRAW2
100
AcDbLine
 10
-309.2873275048228
 20
440.8848861369577
 30
0.0
 11
-309.2873275048228
 21
430.8848561369579
 31
0.0
  0
LINE
  5
55D9
330
18
100
AcDbEntity
  8
DRAW2
100
AcDbLine
 10
-355.2873575048223
 20
278.8848261369579
 30
0.0
 11
-355.2873575048223
 21
288.951895409062
 31
0.0
  0
LINE
  5
55DA
330
18
100
AcDbEntity
  8
DRAW2
100
AcDbLine
 10
-309.2873275048228
 20
278.8848261369581
 30
0.0
 11
-309.2873275048228
 21
288.884856136958
 31
0.0
  0
VIEWPORT
  5
BD5
330
15
100
AcDbEntity
 67
     1
  8
0
100
AcDbViewport
 10
296.9950122070312
 20
209.9950000476837
 30
0.0
 40
621.770666965545
 41
423.142144638404
 68
     1
 69
     1
 12
296.9950122070312
 22
209.9950000476837
 13
0.0
 23
0.0
 14
5.0
 24
5.0
 15
10.0
 25
10.0
 16
0.0
 26
0.0
 36
1.0
 17
0.0
 27
0.0
 37
0.0
 42
50.0
 43
0.0
 44
0.0
 45
423.142144638404
 50
0.0
 51
0.0
 72
   100
 90
    32768
  1

281
     0
 71
     1
 74
     0
110
0.0
120
0.0
130
0.0
111
1.0
121
0.0
131
0.0
112
0.0
122
1.0
132
0.0
 79
     0
146
0.0
  0
ENDSEC
  0
SECTION
  2
OBJECTS
  0
DICTIONARY
  5
C
330
0
100
AcDbDictionary
281
     1
  3
ACAD_GROUP
350
D
  3
ACAD_LAYOUT
350
3347
  3
ACAD_MLINESTYLE
350
E
  3
ACAD_PLOTSETTINGS
350
3348
  3
ACAD_PLOTSTYLENAME
350
3345
  3
AcDbVariableDictionary
350
55B8
  0
DICTIONARY
  5
D
102
{ACAD_REACTORS
330
C
102
}
330
C
100
AcDbDictionary
281
     1
  3
*A1
350
4DC8
  3
*A2
350
4E49
  0
DICTIONARY
  5
3347
102
{ACAD_REACTORS
330
C
102
}
330
C
100
AcDbDictionary
281
     1
  3
Model
350
3349
  3
ﾚｲｱｳﾄ1
350
334A
  0
DICTIONARY
  5
E
102
{ACAD_REACTORS
330
C
102
}
330
C
100
AcDbDictionary
281
     1
  3
STANDARD
350
1B
  0
DICTIONARY
  5
3348
102
{ACAD_REACTORS
330
C
102
}
330
C
100
AcDbDictionary
281
     1
  3
AdobePDF_A2
350
334F
  0
ACDBDICTIONARYWDFLT
  5
3345
102
{ACAD_REACTORS
330
C
102
}
330
C
100
AcDbDictionary
281
     1
  3
Normal
350
3346
100
AcDbDictionaryWithDefault
340
3346
  0
DICTIONARY
  5
55B8
102
{ACAD_REACTORS
330
C
102
}
330
C
100
AcDbDictionary
281
     1
  3
SORTENTS
350
55B9
  0
GROUP
  5
4DC8
102
{ACAD_REACTORS
330
D
102
}
330
D
100
AcDbGroup
300

 70
     1
 71
     1
  0
GROUP
  5
4E49
102
{ACAD_REACTORS
330
D
102
}
330
D
100
AcDbGroup
300

 70
     1
 71
     1
  0
LAYOUT
  5
3349
102
{ACAD_REACTORS
330
3347
102
}
330
3347
100
AcDbPlotSettings
  1

  2
Acrobat Distiller
  4

  6

 40
0.0
 41
0.0
 42
0.0
 43
0.0
 44
0.0
 45
0.0
 46
0.0
 47
0.0
 48
0.0
 49
0.0
140
0.0
141
0.0
142
1.0
143
1.0
 70
  1712
 72
     0
 73
     0
 74
     0
  7

 75
     0
147
1.0
148
0.0
149
0.0
100
AcDbLayout
  1
Model
 70
     1
 71
     0
 10
0.0
 20
0.0
 11
12.0
 21
9.0
 12
0.0
 22
0.0
 32
0.0
 14
0.0
 24
0.0
 34
0.0
 15
0.0
 25
0.0
 35
0.0
146
0.0
 13
0.0
 23
0.0
 33
0.0
 16
1.0
 26
0.0
 36
0.0
 17
0.0
 27
1.0
 37
0.0
 76
     0
330
18
  0
LAYOUT
  5
334A
102
{ACAD_REACTORS
330
3347
102
}
330
3347
100
AcDbPlotSettings
  1
AdobePDF_A2
  2
Adobe PDF
  4
User66
  6
A1
 40
3.174999952316284
 41
3.174999952316284
 42
3.17498779296875
 43
3.17498779296875
 44
420.0
 45
594.0
 46
-3.169999999999999
 47
-3.169999999999999
 48
0.0
 49
0.0
140
594.0
141
420.0
142
1.0
143
1.0
 70
   692
 72
     1
 73
     1
 74
     4
  7
LineScale_10.ctb
 75
    16
147
1.0
148
0.0
149
0.0
100
AcDbLayout
  1
ﾚｲｱｳﾄ1
 70
     1
 71
     1
 10
-0.0049877929687501
 20
-0.0049999523162843
 11
593.9950122070312
 21
419.9950000476837
 12
0.0
 22
0.0
 32
0.0
 14
1.000000000000000E+20
 24
1.000000000000000E+20
 34
1.000000000000000E+20
 15
-1.000000000000000E+20
 25
-1.000000000000000E+20
 35
-1.000000000000000E+20
146
0.0
 13
0.0
 23
0.0
 33
0.0
 16
1.0
 26
0.0
 36
0.0
 17
0.0
 27
1.0
 37
0.0
 76
     0
330
15
331
BD5
  0
MLINESTYLE
  5
1B
102
{ACAD_REACTORS
330
E
102
}
330
E
100
AcDbMlineStyle
  2
STANDARD
 70
     0
  3

 62
     0
 51
90.0
 52
90.0
 71
     2
 49
0.5
 62
   256
  6
BYLAYER
 49
-0.5
 62
   256
  6
BYLAYER
  0
PLOTSETTINGS
  5
334F
102
{ACAD_REACTORS
330
3348
102
}
330
3348
100
AcDbPlotSettings
  1
AdobePDF_A2
  2
Adobe PDF
  4
User66
  6
A1
 40
3.174999952316284
 41
3.174999952316284
 42
3.17498779296875
 43
3.17498779296875
 44
420.0
 45
594.0
 46
-3.169999999999999
 47
-3.169999999999999
 48
0.0
 49
0.0
140
594.0
141
420.0
142
1.0
143
1.0
 70
   692
 72
     1
 73
     1
 74
     4
  7
LineScale_10.ctb
 75
    16
147
1.0
148
0.0
149
0.0
  0
ACDBPLACEHOLDER
  5
3346
102
{ACAD_REACTORS
330
3345
102
}
330
3345
  0
DICTIONARYVAR
  5
55B9
102
{ACAD_REACTORS
330
55B8
102
}
330
55B8
100
DictionaryVariables
280
     0
  1
96
  0
ENDSEC
  0
EOF
