  0
SECTION
  2
HEADER
  9
$ACADVER
  1
AC1015
  9
$ACADMAINTVER
 70
     6
  9
$DWGCODEPAGE
  3
ANSI_932
  9
$INSBASE
 10
0.0
 20
0.0
 30
0.0
  9
$EXTMIN
 10
1037.528486829288
 20
-135.3671399678804
 30
-0.00000001
  9
$EXTMAX
 10
1637.460632425173
 20
451.9039493392209
 30
0.00000001
  9
$LIMMIN
 10
-841.0
 20
-594.0
  9
$LIMMAX
 10
841.0
 20
594.0
  9
$ORTHOMODE
 70
     1
  9
$REGENMODE
 70
     1
  9
$FILLMODE
 70
     1
  9
$QTEXTMODE
 70
     0
  9
$MIRRTEXT
 70
     0
  9
$LTSCALE
 40
7.0
  9
$ATTMODE
 70
     1
  9
$TEXTSIZE
 40
4.799999999999998
  9
$TRACEWID
 40
1.0
  9
$TEXTSTYLE
  7
DIMFONT
  9
$CLAYER
  8
DRAW2
  9
$CELTYPE
  6
BYLAYER
  9
$CECOLOR
 62
   256
  9
$CELTSCALE
 40
1.0
  9
$DISPSILH
 70
     0
  9
$DIMSCALE
 40
2.0
  9
$DIMASZ
 40
3.0
  9
$DIMEXO
 40
0.0
  9
$DIMDLI
 40
10.0
  9
$DIMRND
 40
0.0
  9
$DIMDLE
 40
0.0
  9
$DIMEXE
 40
1.0
  9
$DIMTP
 40
0.0
  9
$DIMTM
 40
0.0
  9
$DIMTXT
 40
3.2
  9
$DIMCEN
 40
0.0
  9
$DIMTSZ
 40
0.0
  9
$DIMTOL
 70
     0
  9
$DIMLIM
 70
     0
  9
$DIMTIH
 70
     0
  9
$DIMTOH
 70
     0
  9
$DIMSE1
 70
     0
  9
$DIMSE2
 70
     0
  9
$DIMTAD
 70
     3
  9
$DIMZIN
 70
     8
  9
$DIMBLK
  1

  9
$DIMASO
 70
     1
  9
$DIMSHO
 70
     1
  9
$DIMPOST
  1

  9
$DIMAPOST
  1

  9
$DIMALT
 70
     0
  9
$DIMALTD
 70
     2
  9
$DIMALTF
 40
25.4
  9
$DIMLFAC
 40
1.0
  9
$DIMTOFL
 70
     1
  9
$DIMTVP
 40
0.0
  9
$DIMTIX
 70
     0
  9
$DIMSOXD
 70
     0
  9
$DIMSAH
 70
     1
  9
$DIMBLK1
  1
OPEN
  9
$DIMBLK2
  1
OPEN
  9
$DIMSTYLE
  2
1_2
  9
$DIMCLRD
 70
     0
  9
$DIMCLRE
 70
     0
  9
$DIMCLRT
 70
     0
  9
$DIMTFAC
 40
0.75
  9
$DIMGAP
 40
1.0
  9
$DIMJUST
 70
     0
  9
$DIMSD1
 70
     0
  9
$DIMSD2
 70
     0
  9
$DIMTOLJ
 70
     1
  9
$DIMTZIN
 70
     8
  9
$DIMALTZ
 70
     0
  9
$DIMALTTZ
 70
     0
  9
$DIMUPT
 70
     0
  9
$DIMDEC
 70
     0
  9
$DIMTDEC
 70
     0
  9
$DIMALTU
 70
     2
  9
$DIMALTTD
 70
     2
  9
$DIMTXSTY
  7
DIMFONT
  9
$DIMAUNIT
 70
     0
  9
$DIMADEC
 70
     2
  9
$DIMALTRND
 40
0.0
  9
$DIMAZIN
 70
     2
  9
$DIMDSEP
 70
    46
  9
$DIMATFIT
 70
     1
  9
$DIMFRAC
 70
     0
  9
$DIMLDRBLK
  1
OPEN
  9
$DIMLUNIT
 70
     2
  9
$DIMLWD
 70
    -2
  9
$DIMLWE
 70
    -2
  9
$DIMTMOVE
 70
     0
  9
$LUNITS
 70
     2
  9
$LUPREC
 70
     4
  9
$SKETCHINC
 40
1.0
  9
$FILLETRAD
 40
0.0
  9
$AUNITS
 70
     0
  9
$AUPREC
 70
     4
  9
$MENU
  1
acad
  9
$ELEVATION
 40
0.0
  9
$PELEVATION
 40
0.0
  9
$THICKNESS
 40
0.0
  9
$LIMCHECK
 70
     0
  9
$CHAMFERA
 40
2.0
  9
$CHAMFERB
 40
2.0
  9
$CHAMFERC
 40
0.0
  9
$CHAMFERD
 40
0.0
  9
$SKPOLY
 70
     0
  9
$TDCREATE
 40
2451879.474068599
  9
$TDUCREATE
 40
2451879.099068599
  9
$TDUPDATE
 40
2454973.604386574
  9
$TDUUPDATE
 40
2454973.229386574
  9
$TDINDWG
 40
0.3841661458
  9
$TDUSRTIMER
 40
0.3841656713
  9
$USRTIMER
 70
     1
  9
$ANGBASE
 50
0.0
  9
$ANGDIR
 70
     0
  9
$PDMODE
 70
    35
  9
$PDSIZE
 40
0.5
  9
$PLINEWID
 40
0.0
  9
$SPLFRAME
 70
     0
  9
$SPLINETYPE
 70
     6
  9
$SPLINESEGS
 70
     8
  9
$HANDSEED
  5
41AA
  9
$SURFTAB1
 70
     6
  9
$SURFTAB2
 70
     6
  9
$SURFTYPE
 70
     6
  9
$SURFU
 70
     6
  9
$SURFV
 70
     6
  9
$UCSBASE
  2

  9
$UCSNAME
  2

  9
$UCSORG
 10
0.0
 20
0.0
 30
0.0
  9
$UCSXDIR
 10
1.0
 20
0.0
 30
0.0
  9
$UCSYDIR
 10
0.0
 20
1.0
 30
0.0
  9
$UCSORTHOREF
  2

  9
$UCSORTHOVIEW
 70
     0
  9
$UCSORGTOP
 10
0.0
 20
0.0
 30
0.0
  9
$UCSORGBOTTOM
 10
0.0
 20
0.0
 30
0.0
  9
$UCSORGLEFT
 10
0.0
 20
0.0
 30
0.0
  9
$UCSORGRIGHT
 10
0.0
 20
0.0
 30
0.0
  9
$UCSORGFRONT
 10
0.0
 20
0.0
 30
0.0
  9
$UCSORGBACK
 10
0.0
 20
0.0
 30
0.0
  9
$PUCSBASE
  2

  9
$PUCSNAME
  2

  9
$PUCSORG
 10
0.0
 20
0.0
 30
0.0
  9
$PUCSXDIR
 10
1.0
 20
0.0
 30
0.0
  9
$PUCSYDIR
 10
0.0
 20
1.0
 30
0.0
  9
$PUCSORTHOREF
  2

  9
$PUCSORTHOVIEW
 70
     0
  9
$PUCSORGTOP
 10
0.0
 20
0.0
 30
0.0
  9
$PUCSORGBOTTOM
 10
0.0
 20
0.0
 30
0.0
  9
$PUCSORGLEFT
 10
0.0
 20
0.0
 30
0.0
  9
$PUCSORGRIGHT
 10
0.0
 20
0.0
 30
0.0
  9
$PUCSORGFRONT
 10
0.0
 20
0.0
 30
0.0
  9
$PUCSORGBACK
 10
0.0
 20
0.0
 30
0.0
  9
$USERI1
 70
     0
  9
$USERI2
 70
     0
  9
$USERI3
 70
     0
  9
$USERI4
 70
     0
  9
$USERI5
 70
     0
  9
$USERR1
 40
0.0
  9
$USERR2
 40
0.0
  9
$USERR3
 40
0.0
  9
$USERR4
 40
0.0
  9
$USERR5
 40
0.0
  9
$WORLDVIEW
 70
     1
  9
$SHADEDGE
 70
     3
  9
$SHADEDIF
 70
    70
  9
$TILEMODE
 70
     1
  9
$MAXACTVP
 70
    48
  9
$PINSBASE
 10
0.0
 20
0.0
 30
0.0
  9
$PLIMCHECK
 70
     0
  9
$PEXTMIN
 10
1.000000000000000E+20
 20
1.000000000000000E+20
 30
1.000000000000000E+20
  9
$PEXTMAX
 10
-1.000000000000000E+20
 20
-1.000000000000000E+20
 30
-1.000000000000000E+20
  9
$PLIMMIN
 10
-0.0049877929687501
 20
-0.0049999523162843
  9
$PLIMMAX
 10
593.9950122070312
 20
419.9950000476837
  9
$UNITMODE
 70
     0
  9
$VISRETAIN
 70
     0
  9
$PLINEGEN
 70
     1
  9
$PSLTSCALE
 70
     1
  9
$TREEDEPTH
 70
  3020
  9
$CMLSTYLE
  2
STANDARD
  9
$CMLJUST
 70
     0
  9
$CMLSCALE
 40
20.0
  9
$PROXYGRAPHICS
 70
     1
  9
$MEASUREMENT
 70
     0
  9
$CELWEIGHT
370
    -1
  9
$ENDCAPS
280
     0
  9
$JOINSTYLE
280
     0
  9
$LWDISPLAY
290
     0
  9
$INSUNITS
 70
     0
  9
$HYPERLINKBASE
  1

  9
$STYLESHEET
  1
LINESCALE_10.CTB
  9
$XEDIT
290
     1
  9
$CEPSNTYPE
380
     0
  9
$PSTYLEMODE
290
     1
  9
$FINGERPRINTGUID
  2
{7FD28A7C-F8BA-11D3-9BCC-00A0C977751D}
  9
$VERSIONGUID
  2
{1FFFAB76-48DD-4E92-B45F-4AF706428EFB}
  9
$EXTNAMES
290
     1
  9
$PSVPSCALE
 40
0.0
  9
$OLESTARTUP
290
     0
  0
ENDSEC
  0
SECTION
  2
CLASSES
  0
CLASS
  1
LWPOLYLINE
  2
AcDbPolyline
  3
AutoCAD 2000
 90
    32768
280
     0
281
     1
  0
CLASS
  1
ACDBDICTIONARYWDFLT
  2
AcDbDictionaryWithDefault
  3
AutoCAD 2000
 90
        0
280
     0
281
     0
  0
CLASS
  1
ACDBPLACEHOLDER
  2
AcDbPlaceHolder
  3
AutoCAD 2000
 90
        0
280
     0
281
     0
  0
CLASS
  1
LAYOUT
  2
AcDbLayout
  3
AutoCAD 2000
 90
        0
280
     0
281
     0
  0
CLASS
  1
PLOTSETTINGS
  2
AcDbPlotSettings
  3
AutoCAD 2000
 90
        0
280
     0
281
     0
  0
CLASS
  1
RASTERVARIABLES
  2
AcDbRasterVariables
  3
ISM
 90
        0
280
     0
281
     0
  0
ENDSEC
  0
SECTION
  2
TABLES
  0
TABLE
  2
VPORT
  5
8
330
0
100
AcDbSymbolTable
 70
     3
  0
VPORT
  5
41A9
330
8
100
AcDbSymbolTableRecord
100
AcDbViewportTableRecord
  2
*Active
 70
     0
 10
0.0
 20
0.0
 11
1.0
 21
1.0
 12
1337.51448803468
 22
158.2525664268207
 13
0.0
 23
0.0
 14
8.0
 24
8.0
 15
10.0
 25
10.0
 16
0.0
 26
0.0
 36
1.0
 17
0.0
 27
0.0
 37
0.0
 40
591.7954818583848
 41
1.493654822335025
 42
50.0
 43
0.0
 44
0.0
 50
0.0
 51
0.0
 71
     0
 72
   100
 73
     1
 74
     0
 75
     0
 76
     0
 77
     0
 78
     0
281
     0
 65
     1
110
0.0
120
0.0
130
0.0
111
1.0
121
0.0
131
0.0
112
0.0
122
1.0
132
0.0
 79
     0
146
0.0
  0
ENDTAB
  0
TABLE
  2
LTYPE
  5
5
330
0
100
AcDbSymbolTable
 70
     3
  0
LTYPE
  5
12
330
5
100
AcDbSymbolTableRecord
100
AcDbLinetypeTableRecord
  2
BYBLOCK
 70
     0
  3

 72
    65
 73
     0
 40
0.0
  0
LTYPE
  5
13
330
5
100
AcDbSymbolTableRecord
100
AcDbLinetypeTableRecord
  2
BYLAYER
 70
     0
  3

 72
    65
 73
     0
 40
0.0
  0
LTYPE
  5
14
330
5
100
AcDbSymbolTableRecord
100
AcDbLinetypeTableRecord
  2
CONTINUOUS
 70
     0
  3
Solid line
 72
    65
 73
     0
 40
0.0
  0
LTYPE
  5
23
330
5
100
AcDbSymbolTableRecord
100
AcDbLinetypeTableRecord
  2
HIDDEN
 70
     0
  3
__ __ __ __ __ __ __ __ __ __ __ __ __ __ __ __
 72
    65
 73
     2
 40
0.375
 49
0.25
 74
     0
 49
-0.125
 74
     0
  0
ENDTAB
  0
TABLE
  2
LAYER
  5
2
330
0
100
AcDbSymbolTable
 70
     9
  0
LAYER
  5
E
330
2
100
AcDbSymbolTableRecord
100
AcDbLayerTableRecord
  2
0
 70
     0
 62
     7
  6
CONTINUOUS
370
    -3
390
1AC
  0
LAYER
  5
29
330
2
100
AcDbSymbolTableRecord
100
AcDbLayerTableRecord
  2
DRAW2
 70
     0
 62
     4
  6
CONTINUOUS
370
    -3
390
1AC
  0
LAYER
  5
2A
330
2
100
AcDbSymbolTableRecord
100
AcDbLayerTableRecord
  2
DRAW3
 70
     0
 62
     1
  6
CONTINUOUS
370
    -3
390
1AC
  0
LAYER
  5
2C
330
2
100
AcDbSymbolTableRecord
100
AcDbLayerTableRecord
  2
HIDDEN
 70
     0
 62
     7
  6
HIDDEN
370
    -3
390
1AC
  0
LAYER
  5
133
330
2
100
AcDbSymbolTableRecord
100
AcDbLayerTableRecord
  2
DEFPOINTS
 70
     0
 62
     7
  6
CONTINUOUS
290
     0
370
    -3
390
1AC
  0
ENDTAB
  0
TABLE
  2
STYLE
  5
3
330
0
100
AcDbSymbolTable
 70
     2
  0
STYLE
  5
F
330
3
100
AcDbSymbolTableRecord
100
AcDbTextStyleTableRecord
  2
STANDARD
 70
     0
 40
0.0
 41
1.0
 50
0.0
 71
     0
 42
2.5
  3
txt
  4

  0
STYLE
  5
30
330
3
100
AcDbSymbolTableRecord
100
AcDbTextStyleTableRecord
  2
DIMFONT
 70
     0
 40
0.0
 41
1.0
 50
10.0
 71
     0
 42
4.799999999999998
  3
romans.shx
  4
extfont.shx
  0
ENDTAB
  0
TABLE
  2
VIEW
  5
6
330
0
100
AcDbSymbolTable
 70
     4
  0
VIEW
  5
39
330
6
100
AcDbSymbolTableRecord
100
AcDbViewTableRecord
  2
A1
 70
     1
 40
660.0
 10
420.5
 20
297.0
 41
1136.871508379887
 11
0.0
 21
0.0
 31
1.0
 12
0.0
 22
0.0
 32
0.0
 42
50.0
 43
0.0
 44
0.0
 50
0.0
 71
     0
281
     0
 72
     0
  0
VIEW
  5
3A
330
6
100
AcDbSymbolTableRecord
100
AcDbViewTableRecord
  2
A2
 70
     1
 40
466.6666666666666
 10
297.0
 20
210.0
 41
803.8485412787087
 11
0.0
 21
0.0
 31
1.0
 12
0.0
 22
0.0
 32
0.0
 42
50.0
 43
0.0
 44
0.0
 50
0.0
 71
     0
281
     0
 72
     0
  0
VIEW
  5
3B
330
6
100
AcDbSymbolTableRecord
100
AcDbViewTableRecord
  2
A3
 70
     1
 40
330.0
 10
210.0
 20
148.5
 41
568.4357541899442
 11
0.0
 21
0.0
 31
1.0
 12
0.0
 22
0.0
 32
0.0
 42
50.0
 43
0.0
 44
0.0
 50
0.0
 71
     0
281
     0
 72
     0
  0
VIEW
  5
3C
330
6
100
AcDbSymbolTableRecord
100
AcDbViewTableRecord
  2
A4
 70
     1
 40
330.0
 10
105.0
 20
148.5
 41
568.4357541899442
 11
0.0
 21
0.0
 31
1.0
 12
0.0
 22
0.0
 32
0.0
 42
50.0
 43
0.0
 44
0.0
 50
0.0
 71
     0
281
     0
 72
     0
  0
ENDTAB
  0
TABLE
  2
UCS
  5
7
330
0
100
AcDbSymbolTable
 70
     0
  0
ENDTAB
  0
TABLE
  2
APPID
  5
9
330
0
100
AcDbSymbolTable
 70
     1
  0
APPID
  5
10
330
9
100
AcDbSymbolTableRecord
100
AcDbRegAppTableRecord
  2
ACAD
 70
     0
  0
ENDTAB
  0
TABLE
  2
DIMSTYLE
  5
A
330
0
100
AcDbSymbolTable
 70
     4
100
AcDbDimStyleTable
 71
     1
340
4B
  0
DIMSTYLE
105
4B
330
A
100
AcDbSymbolTableRecord
100
AcDbDimStyleTableRecord
  2
1_2
 70
     0
 40
2.0
 41
3.0
 42
0.0
 43
10.0
 44
1.0
 73
     0
 74
     0
 77
     3
 78
     8
 79
     2
140
3.2
141
0.0
146
0.75
147
1.0
172
     1
173
     1
179
     2
284
     8
289
     1
340
30
341
125
343
125
344
125
  0
DIMSTYLE
105
FB9
330
A
100
AcDbSymbolTableRecord
100
AcDbDimStyleTableRecord
  2
STANDARD
 70
     0
340
F
  0
ENDTAB
  0
TABLE
  2
BLOCK_RECORD
  5
1
330
0
100
AcDbSymbolTable
 70
     3
  0
BLOCK_RECORD
  5
18
330
1
100
AcDbSymbolTableRecord
100
AcDbBlockTableRecord
  2
*MODEL_SPACE
340
1AF
  0
BLOCK_RECORD
  5
15
330
1
100
AcDbSymbolTableRecord
100
AcDbBlockTableRecord
  2
*PAPER_SPACE
340
1B0
  0
BLOCK_RECORD
  5
125
330
1
100
AcDbSymbolTableRecord
100
AcDbBlockTableRecord
  2
_OPEN
340
0
102
{BLKREFS
331
369F
331
36A0
331
36DE
331
36DF
331
3985
331
3986
331
398E
331
398F
331
3997
331
3998
331
39A0
331
39A1
331
39A9
331
39AA
331
39B2
331
39B3
331
39BB
331
39BC
331
39CD
331
39CE
331
39DF
331
39E0
331
39E8
331
39E9
331
39F1
331
39F2
331
39FA
331
39FB
331
40C5
331
40C6
331
40E0
331
40E1
331
4193
331
4194
102
}
  0
ENDTAB
  0
ENDSEC
  0
SECTION
  2
BLOCKS
  0
BLOCK
  5
19
330
18
100
AcDbEntity
  8
0
100
AcDbBlockBegin
  2
*MODEL_SPACE
 70
     0
 10
0.0
 20
0.0
 30
0.0
  3
*MODEL_SPACE
  1

  0
ENDBLK
  5
1A
330
18
100
AcDbEntity
  8
0
100
AcDbBlockEnd
  0
BLOCK
  5
16
330
15
100
AcDbEntity
 67
     1
  8
0
100
AcDbBlockBegin
  2
*PAPER_SPACE
 70
     0
 10
0.0
 20
0.0
 30
0.0
  3
*PAPER_SPACE
  1

  0
ENDBLK
  5
17
330
15
100
AcDbEntity
 67
     1
  8
0
100
AcDbBlockEnd
  0
BLOCK
  5
126
330
125
100
AcDbEntity
  8
0
100
AcDbBlockBegin
  2
_OPEN
 70
     0
 10
0.0
 20
0.0
 30
0.0
  3
_OPEN
  1

  0
LINE
  5
127
330
125
100
AcDbEntity
  8
0
  6
ByBlock
 62
     0
100
AcDbLine
 10
-1.0
 20
0.1666666666666666
 30
0.0
 11
0.0
 21
0.0
 31
0.0
  0
LINE
  5
128
330
125
100
AcDbEntity
  8
0
  6
ByBlock
 62
     0
100
AcDbLine
 10
0.0
 20
0.0
 30
0.0
 11
-1.0
 21
-0.1666666666666666
 31
0.0
  0
LINE
  5
129
330
125
100
AcDbEntity
  8
0
  6
ByBlock
 62
     0
100
AcDbLine
 10
0.0
 20
0.0
 30
0.0
 11
-1.0
 21
0.0
 31
0.0
  0
ENDBLK
  5
12A
330
125
100
AcDbEntity
  8
0
100
AcDbBlockEnd
  0
ENDSEC
  0
SECTION
  2
ENTITIES
  0
TEXT
  5
FBA
330
18
100
AcDbEntity
  8
0
 62
     7
100
AcDbText
 10
2445.255424844207
 20
1407.631544719136
 30
0.0
 40
3.2
  1

 51
10.0
  7
DIMFONT
100
AcDbText
  0
TEXT
  5
FBB
330
18
100
AcDbEntity
  8
0
 62
     7
100
AcDbText
 10
2661.697596091669
 20
1407.631544719136
 30
0.0
 40
3.2
  1

 51
10.0
  7
DIMFONT
100
AcDbText
  0
TEXT
  5
FBC
330
18
100
AcDbEntity
  8
0
 62
     7
100
AcDbText
 10
-1068.052185320703
 20
1672.397585010881
 30
0.0
 40
4.479999999999998
  1

 51
10.0
  7
DIMFONT
100
AcDbText
  0
TEXT
  5
FBD
330
18
100
AcDbEntity
  8
0
 62
     7
100
AcDbText
 10
-1045.729558211921
 20
1637.514135643238
 30
0.0
 40
4.479999999999998
  1

 51
10.0
  7
DIMFONT
100
AcDbText
  0
TEXT
  5
FBE
330
18
100
AcDbEntity
  8
0
 62
     7
100
AcDbText
 10
-606.3963769305427
 20
1886.077333241554
 30
0.0
 40
4.479999999999998
  1

 51
10.0
  7
DIMFONT
100
AcDbText
  0
TEXT
  5
FBF
330
18
100
AcDbEntity
  8
0
 62
     7
100
AcDbText
 10
-584.0737498217611
 20
1851.193883873911
 30
0.0
 40
4.479999999999998
  1

 51
10.0
  7
DIMFONT
100
AcDbText
  0
TEXT
  5
FC0
330
18
100
AcDbEntity
  8
0
 62
     7
100
AcDbText
 10
-1531.664531203069
 20
2045.529800064496
 30
0.0
 40
4.479999999999998
  1

 51
10.0
  7
DIMFONT
100
AcDbText
  0
TEXT
  5
FC1
330
18
100
AcDbEntity
  8
0
 62
     7
100
AcDbText
 10
-1509.341904094287
 20
2010.646350696851
 30
0.0
 40
4.479999999999998
  1

 51
10.0
  7
DIMFONT
100
AcDbText
  0
TEXT
  5
FC2
330
18
100
AcDbEntity
  8
0
 62
     7
100
AcDbText
 10
-1475.629847440446
 20
1986.156249667569
 30
0.0
 40
4.479999999999998
  1

 51
10.0
  7
DIMFONT
100
AcDbText
  0
TEXT
  5
FC3
330
18
100
AcDbEntity
  8
0
 62
     7
100
AcDbText
 10
-1453.307220331664
 20
1951.272800299927
 30
0.0
 40
4.479999999999998
  1

 51
10.0
  7
DIMFONT
100
AcDbText
  0
TEXT
  5
FC4
330
18
100
AcDbEntity
  8
0
 62
     7
100
AcDbText
 10
-1613.930425659999
 20
1748.662049600507
 30
0.0
 40
4.479999999999998
  1

 51
10.0
  7
DIMFONT
100
AcDbText
  0
TEXT
  5
FC5
330
18
100
AcDbEntity
  8
0
 62
     7
100
AcDbText
 10
-1591.607798551217
 20
1713.778600232862
 30
0.0
 40
4.479999999999998
  1

 51
10.0
  7
DIMFONT
100
AcDbText
  0
TEXT
  5
FC6
330
18
100
AcDbEntity
  8
0
 62
     7
100
AcDbText
 10
-172.3776626578317
 20
1821.407886882731
 30
0.0
 40
3.2
  1

 51
10.0
  7
DIMFONT
100
AcDbText
  0
TEXT
  5
FC7
330
18
100
AcDbEntity
  8
0
 62
     7
100
AcDbText
 10
44.06450858963006
 20
1821.407886882731
 30
0.0
 40
3.2
  1

 51
10.0
  7
DIMFONT
100
AcDbText
  0
TEXT
  5
FC8
330
18
100
AcDbEntity
  8
0
 62
     7
100
AcDbText
 10
73.81550301652783
 20
1262.846468188508
 30
0.0
 40
4.479999999999998
  1

 51
10.0
  7
DIMFONT
100
AcDbText
  0
TEXT
  5
FC9
330
18
100
AcDbEntity
  8
0
 62
     7
100
AcDbText
 10
96.13813012530954
 20
1227.963018820865
 30
0.0
 40
4.479999999999998
  1

 51
10.0
  7
DIMFONT
100
AcDbText
  0
TEXT
  5
FCA
330
18
100
AcDbEntity
  8
0
 62
     7
100
AcDbText
 10
-929.163307821741
 20
2104.820255383911
 30
0.0
 40
3.2
  1

 51
10.0
  7
DIMFONT
100
AcDbText
  0
TEXT
  5
FCB
330
18
100
AcDbEntity
  8
0
 62
     7
100
AcDbText
 10
-712.7211365742787
 20
2104.820255383911
 30
0.0
 40
3.2
  1

 51
10.0
  7
DIMFONT
100
AcDbText
  0
TEXT
  5
FCC
330
18
100
AcDbEntity
  8
0
 62
     7
100
AcDbText
 10
-185.5694280225437
 20
1570.867693132163
 30
0.0
 40
3.2
  1

 51
10.0
  7
DIMFONT
100
AcDbText
  0
TEXT
  5
FCD
330
18
100
AcDbEntity
  8
0
 62
     7
100
AcDbText
 10
-185.9834280225435
 20
1571.281693132163
 30
0.0
 40
3.2
  1

 51
10.0
  7
DIMFONT
100
AcDbText
  0
TEXT
  5
FCE
330
18
100
AcDbEntity
  8
0
 62
     7
100
AcDbText
 10
1431.193470800532
 20
1910.324716162485
 30
0.0
 40
3.2
  1

 51
10.0
  7
DIMFONT
100
AcDbText
  0
TEXT
  5
FCF
330
18
100
AcDbEntity
  8
0
 62
     7
100
AcDbText
 10
1647.635642047994
 20
1910.324716162485
 30
0.0
 40
3.2
  1

 51
10.0
  7
DIMFONT
100
AcDbText
  0
TEXT
  5
FD0
330
18
100
AcDbEntity
  8
0
 62
     7
100
AcDbText
 10
2075.267489930024
 20
2073.241964530394
 30
0.0
 40
3.2
  1

 51
10.0
  7
DIMFONT
100
AcDbText
  0
TEXT
  5
FD1
330
18
100
AcDbEntity
  8
0
 62
     7
100
AcDbText
 10
2291.709661177486
 20
2073.241964530394
 30
0.0
 40
3.2
  1

 51
10.0
  7
DIMFONT
100
AcDbText
  0
TEXT
  5
100A
330
18
100
AcDbEntity
  8
0
 62
     7
100
AcDbText
 10
2439.391153350175
 20
945.2259555195979
 30
0.0
 40
3.2
  1

 51
10.0
  7
DIMFONT
100
AcDbText
  0
TEXT
  5
100B
330
18
100
AcDbEntity
  8
0
 62
     7
100
AcDbText
 10
2655.833324597637
 20
945.2259555195979
 30
0.0
 40
3.2
  1

 51
10.0
  7
DIMFONT
100
AcDbText
  0
TEXT
  5
100C
330
18
100
AcDbEntity
  8
0
 62
     7
100
AcDbText
 10
-1073.916456814735
 20
1209.991995811343
 30
0.0
 40
4.479999999999998
  1

 51
10.0
  7
DIMFONT
100
AcDbText
  0
TEXT
  5
100D
330
18
100
AcDbEntity
  8
0
 62
     7
100
AcDbText
 10
-1051.593829705953
 20
1175.108546443698
 30
0.0
 40
4.479999999999998
  1

 51
10.0
  7
DIMFONT
100
AcDbText
  0
TEXT
  5
100E
330
18
100
AcDbEntity
  8
0
 62
     7
100
AcDbText
 10
-612.2606484245753
 20
1423.671744042016
 30
0.0
 40
4.479999999999998
  1

 51
10.0
  7
DIMFONT
100
AcDbText
  0
TEXT
  5
100F
330
18
100
AcDbEntity
  8
0
 62
     7
100
AcDbText
 10
-589.9380213157935
 20
1388.788294674371
 30
0.0
 40
4.479999999999998
  1

 51
10.0
  7
DIMFONT
100
AcDbText
  0
TEXT
  5
1010
330
18
100
AcDbEntity
  8
0
 62
     7
100
AcDbText
 10
-1537.528802697101
 20
1583.124210864957
 30
0.0
 40
4.479999999999998
  1

 51
10.0
  7
DIMFONT
100
AcDbText
  0
TEXT
  5
1011
330
18
100
AcDbEntity
  8
0
 62
     7
100
AcDbText
 10
-1515.20617558832
 20
1548.240761497314
 30
0.0
 40
4.479999999999998
  1

 51
10.0
  7
DIMFONT
100
AcDbText
  0
TEXT
  5
1012
330
18
100
AcDbEntity
  8
0
 62
     7
100
AcDbText
 10
-1481.494118934478
 20
1523.750660468031
 30
0.0
 40
4.479999999999998
  1

 51
10.0
  7
DIMFONT
100
AcDbText
  0
TEXT
  5
1013
330
18
100
AcDbEntity
  8
0
 62
     7
100
AcDbText
 10
-1459.171491825697
 20
1488.867211100387
 30
0.0
 40
4.479999999999998
  1

 51
10.0
  7
DIMFONT
100
AcDbText
  0
TEXT
  5
1014
330
18
100
AcDbEntity
  8
0
 62
     7
100
AcDbText
 10
-1619.794697154032
 20
1286.256460400968
 30
0.0
 40
4.479999999999998
  1

 51
10.0
  7
DIMFONT
100
AcDbText
  0
TEXT
  5
1015
330
18
100
AcDbEntity
  8
0
 62
     7
100
AcDbText
 10
-1597.47207004525
 20
1251.373011033325
 30
0.0
 40
4.479999999999998
  1

 51
10.0
  7
DIMFONT
100
AcDbText
  0
TEXT
  5
1016
330
18
100
AcDbEntity
  8
0
 62
     7
100
AcDbText
 10
-178.2419341518643
 20
1359.002297683192
 30
0.0
 40
3.2
  1

 51
10.0
  7
DIMFONT
100
AcDbText
  0
TEXT
  5
1017
330
18
100
AcDbEntity
  8
0
 62
     7
100
AcDbText
 10
38.20023709559761
 20
1359.002297683192
 30
0.0
 40
3.2
  1

 51
10.0
  7
DIMFONT
100
AcDbText
  0
TEXT
  5
1018
330
18
100
AcDbEntity
  8
0
 62
     7
100
AcDbText
 10
67.95123152249539
 20
800.4408789889694
 30
0.0
 40
4.479999999999998
  1

 51
10.0
  7
DIMFONT
100
AcDbText
  0
TEXT
  5
1019
330
18
100
AcDbEntity
  8
0
 62
     7
100
AcDbText
 10
90.27385863127708
 20
765.5574296213265
 30
0.0
 40
4.479999999999998
  1

 51
10.0
  7
DIMFONT
100
AcDbText
  0
TEXT
  5
101A
330
18
100
AcDbEntity
  8
0
 62
     7
100
AcDbText
 10
-935.0275793157733
 20
1642.414666184373
 30
0.0
 40
3.2
  1

 51
10.0
  7
DIMFONT
100
AcDbText
  0
TEXT
  5
101B
330
18
100
AcDbEntity
  8
0
 62
     7
100
AcDbText
 10
-718.5854080683112
 20
1642.414666184373
 30
0.0
 40
3.2
  1

 51
10.0
  7
DIMFONT
100
AcDbText
  0
TEXT
  5
101C
330
18
100
AcDbEntity
  8
0
 62
     7
100
AcDbText
 10
-191.433699516576
 20
1108.462103932624
 30
0.0
 40
3.2
  1

 51
10.0
  7
DIMFONT
100
AcDbText
  0
TEXT
  5
101D
330
18
100
AcDbEntity
  8
0
 62
     7
100
AcDbText
 10
-191.8476995165762
 20
1108.876103932624
 30
0.0
 40
3.2
  1

 51
10.0
  7
DIMFONT
100
AcDbText
  0
TEXT
  5
101E
330
18
100
AcDbEntity
  8
0
 62
     7
100
AcDbText
 10
1425.329199306499
 20
1447.919126962947
 30
0.0
 40
3.2
  1

 51
10.0
  7
DIMFONT
100
AcDbText
  0
TEXT
  5
101F
330
18
100
AcDbEntity
  8
0
 62
     7
100
AcDbText
 10
1641.771370553962
 20
1447.919126962947
 30
0.0
 40
3.2
  1

 51
10.0
  7
DIMFONT
100
AcDbText
  0
TEXT
  5
1020
330
18
100
AcDbEntity
  8
0
 62
     7
100
AcDbText
 10
2069.403218435992
 20
1610.836375330855
 30
0.0
 40
3.2
  1

 51
10.0
  7
DIMFONT
100
AcDbText
  0
TEXT
  5
1021
330
18
100
AcDbEntity
  8
0
 62
     7
100
AcDbText
 10
2285.845389683454
 20
1610.836375330855
 30
0.0
 40
3.2
  1

 51
10.0
  7
DIMFONT
100
AcDbText
  0
TEXT
  5
103C
330
18
100
AcDbEntity
  8
0
 62
     7
100
AcDbText
 10
2346.847989066997
 20
1145.642970156506
 30
0.0
 40
3.2
  1

 51
10.0
  7
DIMFONT
100
AcDbText
  0
TEXT
  5
103D
330
18
100
AcDbEntity
  8
0
 62
     7
100
AcDbText
 10
2563.290160314457
 20
1145.642970156506
 30
0.0
 40
3.2
  1

 51
10.0
  7
DIMFONT
100
AcDbText
  0
TEXT
  5
103E
330
18
100
AcDbEntity
  8
0
 62
     7
100
AcDbText
 10
-1166.459621097913
 20
1410.409010448252
 30
0.0
 40
4.479999999999998
  1

 51
10.0
  7
DIMFONT
100
AcDbText
  0
TEXT
  5
103F
330
18
100
AcDbEntity
  8
0
 62
     7
100
AcDbText
 10
-1144.136993989131
 20
1375.525561080609
 30
0.0
 40
4.479999999999998
  1

 51
10.0
  7
DIMFONT
100
AcDbText
  0
TEXT
  5
1040
330
18
100
AcDbEntity
  8
0
 62
     7
100
AcDbText
 10
-704.8038127077525
 20
1624.088758678924
 30
0.0
 40
4.479999999999998
  1

 51
10.0
  7
DIMFONT
100
AcDbText
  0
TEXT
  5
1041
330
18
100
AcDbEntity
  8
0
 62
     7
100
AcDbText
 10
-682.4811855989707
 20
1589.205309311282
 30
0.0
 40
4.479999999999998
  1

 51
10.0
  7
DIMFONT
100
AcDbText
  0
TEXT
  5
1042
330
18
100
AcDbEntity
  8
0
 62
     7
100
AcDbText
 10
-1630.071966980279
 20
1783.541225501866
 30
0.0
 40
4.479999999999998
  1

 51
10.0
  7
DIMFONT
100
AcDbText
  0
TEXT
  5
1043
330
18
100
AcDbEntity
  8
0
 62
     7
100
AcDbText
 10
-1607.749339871497
 20
1748.657776134223
 30
0.0
 40
4.479999999999998
  1

 51
10.0
  7
DIMFONT
100
AcDbText
  0
TEXT
  5
1044
330
18
100
AcDbEntity
  8
0
 62
     7
100
AcDbText
 10
-1574.037283217656
 20
1724.167675104941
 30
0.0
 40
4.479999999999998
  1

 51
10.0
  7
DIMFONT
100
AcDbText
  0
TEXT
  5
1045
330
18
100
AcDbEntity
  8
0
 62
     7
100
AcDbText
 10
-1551.714656108873
 20
1689.284225737297
 30
0.0
 40
4.479999999999998
  1

 51
10.0
  7
DIMFONT
100
AcDbText
  0
TEXT
  5
1046
330
18
100
AcDbEntity
  8
0
 62
     7
100
AcDbText
 10
-1712.337861437209
 20
1486.673475037876
 30
0.0
 40
4.479999999999998
  1

 51
10.0
  7
DIMFONT
100
AcDbText
  0
TEXT
  5
1047
330
18
100
AcDbEntity
  8
0
 62
     7
100
AcDbText
 10
-1690.015234328427
 20
1451.790025670234
 30
0.0
 40
4.479999999999998
  1

 51
10.0
  7
DIMFONT
100
AcDbText
  0
TEXT
  5
1048
330
18
100
AcDbEntity
  8
0
 62
     7
100
AcDbText
 10
-270.7850984350415
 20
1559.419312320101
 30
0.0
 40
3.2
  1

 51
10.0
  7
DIMFONT
100
AcDbText
  0
TEXT
  5
1049
330
18
100
AcDbEntity
  8
0
 62
     7
100
AcDbText
 10
-54.34292718757961
 20
1559.419312320101
 30
0.0
 40
3.2
  1

 51
10.0
  7
DIMFONT
100
AcDbText
  0
TEXT
  5
104A
330
18
100
AcDbEntity
  8
0
 62
     7
100
AcDbText
 10
-24.59193276068186
 20
1000.857893625878
 30
0.0
 40
4.479999999999998
  1

 51
10.0
  7
DIMFONT
100
AcDbText
  0
TEXT
  5
104B
330
18
100
AcDbEntity
  8
0
 62
     7
100
AcDbText
 10
-2.26930565190014
 20
965.9744442582358
 30
0.0
 40
4.479999999999998
  1

 51
10.0
  7
DIMFONT
100
AcDbText
  0
TEXT
  5
104C
330
18
100
AcDbEntity
  8
0
 62
     7
100
AcDbText
 10
-1027.57074359895
 20
1842.831680821284
 30
0.0
 40
3.2
  1

 51
10.0
  7
DIMFONT
100
AcDbText
  0
TEXT
  5
104D
330
18
100
AcDbEntity
  8
0
 62
     7
100
AcDbText
 10
-811.1285723514885
 20
1842.831680821284
 30
0.0
 40
3.2
  1

 51
10.0
  7
DIMFONT
100
AcDbText
  0
TEXT
  5
104E
330
18
100
AcDbEntity
  8
0
 62
     7
100
AcDbText
 10
-283.9768637997534
 20
1308.879118569532
 30
0.0
 40
3.2
  1

 51
10.0
  7
DIMFONT
100
AcDbText
  0
TEXT
  5
104F
330
18
100
AcDbEntity
  8
0
 62
     7
100
AcDbText
 10
-284.3908637997532
 20
1309.293118569534
 30
0.0
 40
3.2
  1

 51
10.0
  7
DIMFONT
100
AcDbText
  0
TEXT
  5
1050
330
18
100
AcDbEntity
  8
0
 62
     7
100
AcDbText
 10
1332.786035023323
 20
1648.336141599855
 30
0.0
 40
3.2
  1

 51
10.0
  7
DIMFONT
100
AcDbText
  0
TEXT
  5
1051
330
18
100
AcDbEntity
  8
0
 62
     7
100
AcDbText
 10
1549.228206270785
 20
1648.336141599855
 30
0.0
 40
3.2
  1

 51
10.0
  7
DIMFONT
100
AcDbText
  0
TEXT
  5
1052
330
18
100
AcDbEntity
  8
0
 62
     7
100
AcDbText
 10
1976.860054152814
 20
1811.253389967762
 30
0.0
 40
3.2
  1

 51
10.0
  7
DIMFONT
100
AcDbText
  0
TEXT
  5
1053
330
18
100
AcDbEntity
  8
0
 62
     7
100
AcDbText
 10
2193.302225400274
 20
1811.253389967762
 30
0.0
 40
3.2
  1

 51
10.0
  7
DIMFONT
100
AcDbText
  0
TEXT
  5
2726
330
18
100
AcDbEntity
  8
0
 62
     7
100
AcDbText
 10
2539.367847843795
 20
1292.230086243873
 30
0.0
 40
3.2
  1

 51
10.0
  7
DIMFONT
100
AcDbText
  0
TEXT
  5
2727
330
18
100
AcDbEntity
  8
0
 62
     7
100
AcDbText
 10
2755.810019091256
 20
1292.230086243873
 30
0.0
 40
3.2
  1

 51
10.0
  7
DIMFONT
100
AcDbText
  0
TEXT
  5
2728
330
18
100
AcDbEntity
  8
0
 62
     7
100
AcDbText
 10
-973.9397623211161
 20
1556.996126535618
 30
0.0
 40
4.479999999999998
  1

 51
10.0
  7
DIMFONT
100
AcDbText
  0
TEXT
  5
2729
330
18
100
AcDbEntity
  8
0
 62
     7
100
AcDbText
 10
-951.6171352123345
 20
1522.112677167974
 30
0.0
 40
4.479999999999998
  1

 51
10.0
  7
DIMFONT
100
AcDbText
  0
TEXT
  5
272A
330
18
100
AcDbEntity
  8
0
 62
     7
100
AcDbText
 10
-512.2839539309556
 20
1770.675874766291
 30
0.0
 40
4.479999999999998
  1

 51
10.0
  7
DIMFONT
100
AcDbText
  0
TEXT
  5
272B
330
18
100
AcDbEntity
  8
0
 62
     7
100
AcDbText
 10
-489.961326822174
 20
1735.792425398646
 30
0.0
 40
4.479999999999998
  1

 51
10.0
  7
DIMFONT
100
AcDbText
  0
TEXT
  5
272C
330
18
100
AcDbEntity
  8
0
 62
     7
100
AcDbText
 10
-1437.552108203482
 20
1930.128341589232
 30
0.0
 40
4.479999999999998
  1

 51
10.0
  7
DIMFONT
100
AcDbText
  0
TEXT
  5
272D
330
18
100
AcDbEntity
  8
0
 62
     7
100
AcDbText
 10
-1415.2294810947
 20
1895.244892221588
 30
0.0
 40
4.479999999999998
  1

 51
10.0
  7
DIMFONT
100
AcDbText
  0
TEXT
  5
272E
330
18
100
AcDbEntity
  8
0
 62
     7
100
AcDbText
 10
-1381.517424440859
 20
1870.754791192307
 30
0.0
 40
4.479999999999998
  1

 51
10.0
  7
DIMFONT
100
AcDbText
  0
TEXT
  5
272F
330
18
100
AcDbEntity
  8
0
 62
     7
100
AcDbText
 10
-1359.194797332077
 20
1835.871341824663
 30
0.0
 40
4.479999999999998
  1

 51
10.0
  7
DIMFONT
100
AcDbText
  0
TEXT
  5
2730
330
18
100
AcDbEntity
  8
0
 62
     7
100
AcDbText
 10
-1519.818002660412
 20
1633.260591125242
 30
0.0
 40
4.479999999999998
  1

 51
10.0
  7
DIMFONT
100
AcDbText
  0
TEXT
  5
2731
330
18
100
AcDbEntity
  8
0
 62
     7
100
AcDbText
 10
-1497.49537555163
 20
1598.3771417576
 30
0.0
 40
4.479999999999998
  1

 51
10.0
  7
DIMFONT
100
AcDbText
  0
TEXT
  5
2732
330
18
100
AcDbEntity
  8
0
 62
     7
100
AcDbText
 10
-78.26523965824481
 20
1706.006428407467
 30
0.0
 40
3.2
  1

 51
10.0
  7
DIMFONT
100
AcDbText
  0
TEXT
  5
2733
330
18
100
AcDbEntity
  8
0
 62
     7
100
AcDbText
 10
138.1769315892172
 20
1706.006428407467
 30
0.0
 40
3.2
  1

 51
10.0
  7
DIMFONT
100
AcDbText
  0
TEXT
  5
2734
330
18
100
AcDbEntity
  8
0
 62
     7
100
AcDbText
 10
167.9279260161148
 20
1147.445009713244
 30
0.0
 40
4.479999999999998
  1

 51
10.0
  7
DIMFONT
100
AcDbText
  0
TEXT
  5
2735
330
18
100
AcDbEntity
  8
0
 62
     7
100
AcDbText
 10
190.2505531248964
 20
1112.561560345601
 30
0.0
 40
4.479999999999998
  1

 51
10.0
  7
DIMFONT
100
AcDbText
  0
TEXT
  5
2736
330
18
100
AcDbEntity
  8
0
 62
     7
100
AcDbText
 10
-835.0508848221537
 20
1989.418796908649
 30
0.0
 40
3.2
  1

 51
10.0
  7
DIMFONT
100
AcDbText
  0
TEXT
  5
2737
330
18
100
AcDbEntity
  8
0
 62
     7
100
AcDbText
 10
-618.6087135746918
 20
1989.418796908649
 30
0.0
 40
3.2
  1

 51
10.0
  7
DIMFONT
100
AcDbText
  0
TEXT
  5
2738
330
18
100
AcDbEntity
  8
0
 62
     7
100
AcDbText
 10
-91.45700502295666
 20
1455.466234656899
 30
0.0
 40
3.2
  1

 51
10.0
  7
DIMFONT
100
AcDbText
  0
TEXT
  5
2739
330
18
100
AcDbEntity
  8
0
 62
     7
100
AcDbText
 10
-91.87100502295663
 20
1455.880234656899
 30
0.0
 40
3.2
  1

 51
10.0
  7
DIMFONT
100
AcDbText
  0
TEXT
  5
273A
330
18
100
AcDbEntity
  8
0
 62
     7
100
AcDbText
 10
1525.30589380012
 20
1794.923257687222
 30
0.0
 40
3.2
  1

 51
10.0
  7
DIMFONT
100
AcDbText
  0
TEXT
  5
273B
330
18
100
AcDbEntity
  8
0
 62
     7
100
AcDbText
 10
1741.748065047582
 20
1794.923257687222
 30
0.0
 40
3.2
  1

 51
10.0
  7
DIMFONT
100
AcDbText
  0
TEXT
  5
273C
330
18
100
AcDbEntity
  8
0
 62
     7
100
AcDbText
 10
2169.37991292961
 20
1957.84050605513
 30
0.0
 40
3.2
  1

 51
10.0
  7
DIMFONT
100
AcDbText
  0
TEXT
  5
273D
330
18
100
AcDbEntity
  8
0
 62
     7
100
AcDbText
 10
2385.822084177072
 20
1957.84050605513
 30
0.0
 40
3.2
  1

 51
10.0
  7
DIMFONT
100
AcDbText
  0
LINE
  5
3DEC
330
18
100
AcDbEntity
  8
DRAW2
100
AcDbLine
 10
1163.528486829288
 20
262.9039493392204
 30
0.0
 11
1140.528486829288
 21
262.9039493392204
 31
0.0
  0
ARC
  5
3DED
330
18
100
AcDbEntity
  8
DRAW2
100
AcDbCircle
 10
1152.028486829288
 20
438.7056013242673
 30
0.0
 40
13.19834801495315
100
AcDbArc
 50
18.72179935082566
 51
161.2782006491775
  0
LINE
  5
3DEE
330
18
100
AcDbEntity
  8
DRAW2
100
AcDbLine
 10
1109.528486829288
 20
410.9039493392205
 30
0.0
 11
1194.528486829288
 21
410.9039493392205
 31
0.0
  0
LINE
  5
3DEF
330
18
100
AcDbEntity
  8
DRAW2
100
AcDbLine
 10
1194.528486829288
 20
368.3205054840303
 30
0.0
 11
1109.528486829288
 21
368.3205054840303
 31
0.0
  0
LINE
  5
3DF0
330
18
100
AcDbEntity
  8
DRAW2
100
AcDbLine
 10
1194.528486829288
 20
305.4873931944103
 30
0.0
 11
1109.528486829288
 21
305.4873931944103
 31
0.0
  0
LINE
  5
3DF1
330
18
100
AcDbEntity
  8
DRAW2
100
AcDbLine
 10
1195.078486829288
 20
324.4039493392205
 30
0.0
 11
1109.078486829288
 21
324.4039493392205
 31
0.0
  0
LINE
  5
3DF2
330
18
100
AcDbEntity
  8
DRAW2
100
AcDbLine
 10
1195.078486829288
 20
349.4039493392205
 30
0.0
 11
1109.078486829288
 21
349.4039493392205
 31
0.0
  0
LINE
  5
3DF4
330
18
100
AcDbEntity
  8
DRAW2
100
AcDbLine
 10
1109.528486829288
 20
66.9999999999996
 30
0.0
 11
1194.528486829288
 21
66.9999999999996
 31
0.0
  0
LINE
  5
3DF5
330
18
100
AcDbEntity
  8
DRAW2
100
AcDbLine
 10
1194.528486829288
 20
-67.0000000000004
 30
0.0
 11
1109.528486829288
 21
-67.0000000000004
 31
0.0
  0
LINE
  5
3DF6
330
18
100
AcDbEntity
  8
DRAW2
100
AcDbLine
 10
1109.078486829288
 20
-96.50000000000048
 30
0.0
 11
1195.078486829288
 21
-96.50000000000051
 31
0.0
  0
LINE
  5
3DF8
330
18
100
AcDbEntity
  8
DRAW2
100
AcDbLine
 10
1109.078486829288
 20
-71.50000000000048
 30
0.0
 11
1195.078486829288
 21
-71.50000000000051
 31
0.0
  0
LINE
  5
3DF9
330
18
100
AcDbEntity
  8
DRAW2
100
AcDbLine
 10
1109.078486829288
 20
96.4999999999997
 30
0.0
 11
1195.078486829288
 21
96.4999999999997
 31
0.0
  0
LINE
  5
3DFB
330
18
100
AcDbEntity
  8
DRAW2
100
AcDbLine
 10
1109.078486829288
 20
71.49999999999969
 30
0.0
 11
1195.078486829288
 21
71.49999999999969
 31
0.0
  0
LINE
  5
3E00
330
18
100
AcDbEntity
  8
DRAW2
100
AcDbLine
 10
1108.528486829288
 20
-68.00000000000022
 30
0.0
 11
1108.528486829288
 21
67.99999999999967
 31
0.0
  0
LINE
  5
3E01
330
18
100
AcDbEntity
  8
DRAW2
100
AcDbLine
 10
1069.528486829288
 20
-68.00000000000022
 30
0.0
 11
1069.528486829288
 21
67.9999999999998
 31
0.0
  0
LINE
  5
3E02
330
18
100
AcDbEntity
  8
DRAW2
100
AcDbLine
 10
1109.528486829288
 20
66.9999999999996
 30
0.0
 11
1109.528486829288
 21
-67.0000000000004
 31
0.0
  0
LINE
  5
3E03
330
18
100
AcDbEntity
  8
DRAW2
100
AcDbLine
 10
1039.528486829288
 20
10.49999999999975
 30
0.0
 11
1039.528486829288
 21
-10.50000000000022
 31
0.0
  0
LINE
  5
3E04
330
18
100
AcDbEntity
  8
DRAW2
100
AcDbLine
 10
1059.528486829288
 20
-10.50000000000022
 30
0.0
 11
1059.528486829288
 21
10.49999999999975
 31
0.0
  0
LINE
  5
3E05
330
18
100
AcDbEntity
  8
DRAW2
100
AcDbLine
 10
1037.528486829288
 20
8.499999999999772
 30
0.0
 11
1037.528486829288
 21
-8.500000000000218
 31
0.0
  0
LINE
  5
3E06
330
18
100
AcDbEntity
  8
DRAW2
100
AcDbLine
 10
1059.528486829288
 20
66.9999999999998
 30
0.0
 11
1059.528486829288
 21
-67.00000000000024
 31
0.0
  0
LINE
  5
3E07
330
18
100
AcDbEntity
  8
DRAW2
100
AcDbLine
 10
1069.528486829288
 20
66.9999999999998
 30
0.0
 11
1069.528486829288
 21
-67.00000000000024
 31
0.0
  0
ELLIPSE
  5
3E09
330
18
100
AcDbEntity
  8
DRAW2
100
AcDbEllipse
 10
1130.028486829288
 20
-46.04423888249761
 30
0.0
 11
-5.6948871030242
 21
0.0
 31
0.0
210
0.0
220
0.0
230
1.0
 40
0.7071067811865387
 41
6.047180461869012
 42
9.660782806079952
  0
ELLIPSE
  5
3E0A
330
18
100
AcDbEntity
  8
DRAW2
100
AcDbEllipse
 10
1130.028486829288
 20
-46.66904755831255
 30
0.0
 11
-11.0
 21
0.0
 31
0.0
210
0.0
220
0.0
230
1.0
 40
0.7071067811865494
 41
0.358144304141276
 42
2.783448349448517
  0
ELLIPSE
  5
3E0B
330
18
100
AcDbEntity
  8
DRAW2
100
AcDbEllipse
 10
1130.028486829288
 20
-52.32590180780488
 30
0.0
 11
-11.0
 21
0.0
 31
0.0
210
0.0
220
0.0
230
1.0
 40
0.7599555880795932
 41
0.0
 42
6.283185307179584
  0
ELLIPSE
  5
3E0C
330
18
100
AcDbEntity
  8
DRAW3
100
AcDbEllipse
 10
1130.028486829288
 20
-46.66904755831255
 30
0.0
 11
-6.578500006250012
 21
0.0
 31
0.0
210
0.0
220
0.0
230
0.9999999999999998
 40
0.7071067811865476
 41
6.03171163649787
 42
9.676251631451091
  0
LINE
  5
3E0D
330
18
100
AcDbEntity
  8
DRAW2
100
AcDbLine
 10
1076.278486829288
 20
-100.0
 30
0.0
 11
1076.278486829288
 21
-80.0
 31
0.0
  0
LINE
  5
3E0E
330
18
100
AcDbEntity
  8
DRAW2
100
AcDbLine
 10
1097.278486829288
 20
-79.99999999999997
 30
0.0
 11
1097.278486829288
 21
-100.0
 31
0.0
  0
LINE
  5
3E0F
330
18
100
AcDbEntity
  8
DRAW2
100
AcDbLine
 10
1109.078486829288
 20
-100.0000000000003
 30
0.0
 11
1109.078486829288
 21
-68.00000000000048
 31
0.0
  0
LINE
  5
3E10
330
18
100
AcDbEntity
  8
DRAW2
100
AcDbLine
 10
1070.078486829288
 20
-100.0000000000003
 30
0.0
 11
1070.078486829288
 21
-68.00000000000048
 31
0.0
  0
LINE
  5
3E12
330
18
100
AcDbEntity
  8
DRAW2
100
AcDbLine
 10
1070.078486829288
 20
-100.0000000000003
 30
0.0
 11
1109.078486829288
 21
-100.0000000000003
 31
0.0
  0
LINE
  5
3E13
330
18
100
AcDbEntity
  8
DRAW2
100
AcDbLine
 10
1073.500861670904
 20
-135.0
 30
0.0
 11
1100.056111987671
 21
-135.0
 31
0.0
  0
LINE
  5
3E14
330
18
100
AcDbEntity
  8
DRAW2
100
AcDbLine
 10
1104.778486829288
 20
-115.0000000000001
 30
0.0
 11
1068.778486829288
 21
-115.0000000000001
 31
0.0
  0
LINE
  5
3E15
330
18
100
AcDbEntity
  8
DRAW2
100
AcDbLine
 10
1066.778486829288
 20
-115.0000000000001
 30
0.0
 11
1106.778486829288
 21
-115.0000000000001
 31
0.0
  0
LINE
  5
3E16
330
18
100
AcDbEntity
  8
DRAW2
100
AcDbLine
 10
1066.778486829288
 20
-100.0000000000001
 30
0.0
 11
1106.778486829288
 21
-100.0000000000001
 31
0.0
  0
LINE
  5
3E17
330
18
100
AcDbEntity
  8
DRAW2
100
AcDbLine
 10
1068.778486829288
 20
-115.0000000000001
 30
0.0
 11
1071.522988965166
 21
-133.2966809058605
 31
0.0
  0
ARC
  5
3E18
330
18
100
AcDbEntity
  8
DRAW2
100
AcDbCircle
 10
1073.500861670904
 20
-133.0
 30
0.0
 40
2.0
100
AcDbArc
 50
188.530765609948
 51
270.0
  0
LINE
  5
3E19
330
18
100
AcDbEntity
  8
DRAW2
100
AcDbLine
 10
1066.778486829288
 20
-100.0000000000001
 30
0.0
 11
1066.778486829288
 21
-115.0000000000001
 31
0.0
  0
LINE
  5
3E1A
330
18
100
AcDbEntity
  8
DRAW2
100
AcDbLine
 10
1104.778486829288
 20
-115.0000000000001
 30
0.0
 11
1102.033984693407
 21
-133.2966809058605
 31
0.0
  0
ARC
  5
3E1B
330
18
100
AcDbEntity
  8
DRAW2
100
AcDbCircle
 10
1100.056111987671
 20
-133.0
 30
0.0
 40
2.0
100
AcDbArc
 50
270.0
 51
351.4692343900516
  0
LINE
  5
3E1E
330
18
100
AcDbEntity
  8
DRAW2
100
AcDbLine
 10
1106.778486829288
 20
-100.0000000000001
 30
0.0
 11
1106.778486829288
 21
-115.0000000000001
 31
0.0
  0
LINE
  5
3E1F
330
18
100
AcDbEntity
  8
DRAW2
100
AcDbLine
 10
1076.278486829288
 20
-80.0
 30
0.0
 11
1097.278486829288
 21
-79.99999999999997
 31
0.0
  0
LINE
  5
3E20
330
18
100
AcDbEntity
  8
DRAW2
100
AcDbLine
 10
1078.278486829288
 20
-78.0
 30
0.0
 11
1095.278486829288
 21
-77.99999999999997
 31
0.0
  0
LINE
  5
3E21
330
18
100
AcDbEntity
  8
DRAW2
100
AcDbLine
 10
1070.078486829288
 20
-68.00000000000048
 30
0.0
 11
1109.078486829288
 21
-68.00000000000048
 31
0.0
  0
LINE
  5
3E22
330
18
100
AcDbEntity
  8
DRAW2
100
AcDbLine
 10
1039.528486829288
 20
-43.19357503463502
 30
0.0
 11
1039.528486829288
 21
-64.193575034635
 31
0.0
  0
LINE
  5
3E23
330
18
100
AcDbEntity
  8
DRAW2
100
AcDbLine
 10
1059.528486829288
 20
-64.193575034635
 30
0.0
 11
1059.528486829288
 21
-43.19357503463502
 31
0.0
  0
LINE
  5
3E24
330
18
100
AcDbEntity
  8
DRAW2
100
AcDbLine
 10
1037.528486829288
 20
-45.19357503463502
 30
0.0
 11
1037.528486829288
 21
-62.19357503463502
 31
0.0
  0
LINE
  5
3E25
330
18
100
AcDbEntity
  8
DRAW2
100
AcDbLine
 10
1039.528486829288
 20
-64.193575034635
 30
0.0
 11
1059.528486829288
 21
-64.193575034635
 31
0.0
  0
LINE
  5
3E27
330
18
100
AcDbEntity
  8
DRAW2
100
AcDbLine
 10
1037.528486829288
 20
-62.19357503463502
 30
0.0
 11
1039.528486829288
 21
-64.193575034635
 31
0.0
  0
LINE
  5
3E28
330
18
100
AcDbEntity
  8
DRAW2
100
AcDbLine
 10
1076.278486829288
 20
-80.0
 30
0.0
 11
1078.278486829288
 21
-78.0
 31
0.0
  0
LINE
  5
3E29
330
18
100
AcDbEntity
  8
DRAW2
100
AcDbLine
 10
1074.028486829288
 20
-68.0000000000002
 30
0.0
 11
1069.528486829288
 21
-68.00000000000022
 31
0.0
  0
LINE
  5
3E2A
330
18
100
AcDbEntity
  8
DRAW2
100
AcDbLine
 10
1069.528486829288
 20
-67.00000000000024
 30
0.0
 11
1059.528486829288
 21
-67.00000000000024
 31
0.0
  0
LINE
  5
3E2B
330
18
100
AcDbEntity
  8
DRAW2
100
AcDbLine
 10
1039.528486829288
 20
-10.50000000000022
 30
0.0
 11
1059.528486829288
 21
-10.50000000000022
 31
0.0
  0
LINE
  5
3E2C
330
18
100
AcDbEntity
  8
DRAW2
100
AcDbLine
 10
1059.528486829288
 20
-43.19357503463502
 30
0.0
 11
1039.528486829288
 21
-43.19357503463502
 31
0.0
  0
LINE
  5
3E2D
330
18
100
AcDbEntity
  8
DRAW2
100
AcDbLine
 10
1039.528486829288
 20
-43.19357503463502
 30
0.0
 11
1037.528486829288
 21
-45.19357503463502
 31
0.0
  0
LINE
  5
3E2E
330
18
100
AcDbEntity
  8
DRAW2
100
AcDbLine
 10
1037.528486829288
 20
-8.500000000000218
 30
0.0
 11
1039.528486829288
 21
-10.50000000000022
 31
0.0
  0
LINE
  5
3E30
330
18
100
AcDbEntity
  8
DRAW2
100
AcDbLine
 10
1095.278486829288
 20
-77.99999999999997
 30
0.0
 11
1097.278486829288
 21
-79.99999999999997
 31
0.0
  0
LINE
  5
3E31
330
18
100
AcDbEntity
  8
DRAW2
100
AcDbLine
 10
1108.528486829288
 20
-68.00000000000022
 30
0.0
 11
1099.028486829288
 21
-68.0000000000002
 31
0.0
  0
LINE
  5
3E32
330
18
100
AcDbEntity
  8
DRAW2
100
AcDbLine
 10
1108.528486829288
 20
-49.69357503463566
 30
0.0
 11
1109.528486829288
 21
-49.69357503463566
 31
0.0
  0
LINE
  5
3E33
330
18
100
AcDbEntity
  8
DRAW2
100
AcDbLine
 10
1108.528486829288
 20
-57.69357503463567
 30
0.0
 11
1109.528486829288
 21
-57.69357503463567
 31
0.0
  0
LINE
  5
3E34
330
18
100
AcDbEntity
  8
DRAW2
100
AcDbLine
 10
1108.528486829288
 20
-4.00000000000022
 30
0.0
 11
1109.528486829288
 21
-4.00000000000022
 31
0.0
  0
LINE
  5
3E35
330
18
100
AcDbEntity
  8
DRAW2
100
AcDbLine
 10
1108.528486829288
 20
410.9039493392205
 30
0.0
 11
1108.528486829288
 21
370.9039493392205
 31
0.0
  0
LINE
  5
3E36
330
18
100
AcDbEntity
  8
DRAW2
100
AcDbLine
 10
1059.528486829288
 20
357.4039493392202
 30
0.0
 11
1059.528486829288
 21
378.4039493392203
 31
0.0
  0
LINE
  5
3E37
330
18
100
AcDbEntity
  8
DRAW2
100
AcDbLine
 10
1037.528486829288
 20
376.4039493392203
 30
0.0
 11
1037.528486829288
 21
359.4039493392202
 31
0.0
  0
LINE
  5
3E38
330
18
100
AcDbEntity
  8
DRAW2
100
AcDbLine
 10
1039.528486829288
 20
378.4039493392203
 30
0.0
 11
1039.528486829288
 21
357.4039493392202
 31
0.0
  0
LINE
  5
3E39
330
18
100
AcDbEntity
  8
DRAW2
100
AcDbLine
 10
1059.528486829288
 20
410.9039493392205
 30
0.0
 11
1059.528486829288
 21
262.9039493392204
 31
0.0
  0
LINE
  5
3E3A
330
18
100
AcDbEntity
  8
DRAW2
100
AcDbLine
 10
1059.528486829288
 20
410.9039493392205
 30
0.0
 11
1059.528486829288
 21
262.9039493392204
 31
0.0
  0
LINE
  5
3E3B
330
18
100
AcDbEntity
  8
DRAW2
100
AcDbLine
 10
1069.528486829288
 20
410.9039493392205
 30
0.0
 11
1069.528486829288
 21
262.9039493392204
 31
0.0
  0
LINE
  5
3E3C
330
18
100
AcDbEntity
  8
DRAW2
100
AcDbLine
 10
1069.528486829288
 20
410.9039493392205
 30
0.0
 11
1069.528486829288
 21
262.9039493392204
 31
0.0
  0
LINE
  5
3E3D
330
18
100
AcDbEntity
  8
DRAW2
100
AcDbLine
 10
1109.528486829288
 20
410.9039493392205
 30
0.0
 11
1109.528486829288
 21
262.9039493392204
 31
0.0
  0
LINE
  5
3E3E
330
18
100
AcDbEntity
  8
DRAW2
100
AcDbLine
 10
1109.078486829288
 20
99.99999999999971
 30
0.0
 11
1109.078486829288
 21
67.99999999999967
 31
0.0
  0
LINE
  5
3E3F
330
18
100
AcDbEntity
  8
DRAW2
100
AcDbLine
 10
1070.078486829288
 20
99.99999999999971
 30
0.0
 11
1070.078486829288
 21
67.99999999999967
 31
0.0
  0
LINE
  5
3E41
330
18
100
AcDbEntity
  8
DRAW2
100
AcDbLine
 10
1070.078486829288
 20
67.99999999999967
 30
0.0
 11
1109.078486829288
 21
67.99999999999967
 31
0.0
  0
LINE
  5
3E42
330
18
100
AcDbEntity
  8
DRAW2
100
AcDbLine
 10
1039.528486829288
 20
64.19357503463522
 30
0.0
 11
1039.528486829288
 21
43.1935750346352
 31
0.0
  0
LINE
  5
3E43
330
18
100
AcDbEntity
  8
DRAW2
100
AcDbLine
 10
1059.528486829288
 20
43.1935750346352
 30
0.0
 11
1059.528486829288
 21
64.19357503463522
 31
0.0
  0
LINE
  5
3E44
330
18
100
AcDbEntity
  8
DRAW2
100
AcDbLine
 10
1037.528486829288
 20
62.19357503463522
 30
0.0
 11
1037.528486829288
 21
45.1935750346352
 31
0.0
  0
LINE
  5
3E45
330
18
100
AcDbEntity
  8
DRAW2
100
AcDbLine
 10
1039.528486829288
 20
43.1935750346352
 30
0.0
 11
1059.528486829288
 21
43.1935750346352
 31
0.0
  0
LINE
  5
3E46
330
18
100
AcDbEntity
  8
DRAW2
100
AcDbLine
 10
1059.528486829288
 20
10.49999999999975
 30
0.0
 11
1039.528486829288
 21
10.49999999999975
 31
0.0
  0
LINE
  5
3E47
330
18
100
AcDbEntity
  8
DRAW2
100
AcDbLine
 10
1039.528486829288
 20
10.49999999999975
 30
0.0
 11
1037.528486829288
 21
8.499999999999772
 31
0.0
  0
LINE
  5
3E48
330
18
100
AcDbEntity
  8
DRAW2
100
AcDbLine
 10
1037.528486829288
 20
45.1935750346352
 30
0.0
 11
1039.528486829288
 21
43.1935750346352
 31
0.0
  0
LINE
  5
3E49
330
18
100
AcDbEntity
  8
DRAW2
100
AcDbLine
 10
1059.528486829288
 20
64.19357503463522
 30
0.0
 11
1039.528486829288
 21
64.19357503463522
 31
0.0
  0
LINE
  5
3E4B
330
18
100
AcDbEntity
  8
DRAW2
100
AcDbLine
 10
1039.528486829288
 20
64.19357503463522
 30
0.0
 11
1037.528486829288
 21
62.19357503463522
 31
0.0
  0
LINE
  5
3E4C
330
18
100
AcDbEntity
  8
DRAW2
100
AcDbLine
 10
1074.028486829288
 20
67.99999999999974
 30
0.0
 11
1069.528486829288
 21
67.9999999999998
 31
0.0
  0
LINE
  5
3E4D
330
18
100
AcDbEntity
  8
DRAW2
100
AcDbLine
 10
1069.528486829288
 20
66.9999999999998
 30
0.0
 11
1059.528486829288
 21
66.9999999999998
 31
0.0
  0
CIRCLE
  5
3E4E
330
18
100
AcDbEntity
  8
DRAW2
100
AcDbCircle
 10
1130.028486829288
 20
19.9999999999996
 30
0.0
 40
11.0
  0
LINE
  5
3E4F
330
18
100
AcDbEntity
  8
DRAW2
100
AcDbLine
 10
1108.528486829288
 20
3.999999999999778
 30
0.0
 11
1109.528486829288
 21
3.999999999999778
 31
0.0
  0
CIRCLE
  5
3E50
330
18
100
AcDbEntity
  8
DRAW3
100
AcDbCircle
 10
1130.028486829288
 20
19.9999999999996
 30
0.0
 40
6.578500006249997
  0
CIRCLE
  5
3E51
330
18
100
AcDbEntity
  8
DRAW2
100
AcDbCircle
 10
1130.028486829288
 20
19.9999999999996
 30
0.0
 40
5.694887103024191
  0
CIRCLE
  5
3E52
330
18
100
AcDbEntity
  8
DRAW2
100
AcDbCircle
 10
1130.028486829288
 20
19.9999999999996
 30
0.0
 40
7.0
  0
CIRCLE
  5
3E53
330
18
100
AcDbEntity
  8
DRAW2
100
AcDbCircle
 10
1130.028486829288
 20
19.9999999999996
 30
0.0
 40
10.5
  0
LINE
  5
3E55
330
18
100
AcDbEntity
  8
DRAW2
100
AcDbLine
 10
1119.720722765244
 20
21.99999999999959
 30
0.0
 11
1123.320282896788
 21
21.99999999999959
 31
0.0
  0
LINE
  5
3E56
330
18
100
AcDbEntity
  8
DRAW2
100
AcDbLine
 10
1119.720722765244
 20
17.9999999999996
 30
0.0
 11
1123.320282896788
 21
17.9999999999996
 31
0.0
  0
CIRCLE
  5
3E57
330
18
100
AcDbEntity
  8
DRAW2
100
AcDbCircle
 10
1130.028486829288
 20
19.9999999999996
 30
0.0
 40
2.5
  0
LINE
  5
3E58
330
18
100
AcDbEntity
  8
DRAW2
100
AcDbLine
 10
1136.736690761787
 20
17.9999999999996
 30
0.0
 11
1140.336250893332
 21
17.9999999999996
 31
0.0
  0
LINE
  5
3E59
330
18
100
AcDbEntity
  8
DRAW2
100
AcDbLine
 10
1136.736690761787
 20
21.99999999999959
 30
0.0
 11
1140.336250893332
 21
21.99999999999959
 31
0.0
  0
LINE
  5
3E5B
330
18
100
AcDbEntity
  8
DRAW2
100
AcDbLine
 10
1108.528486829288
 20
67.9999999999998
 30
0.0
 11
1099.028486829288
 21
67.99999999999974
 31
0.0
  0
LINE
  5
3E5C
330
18
100
AcDbEntity
  8
DRAW2
100
AcDbLine
 10
1108.528486829288
 20
57.6935750346352
 30
0.0
 11
1109.528486829288
 21
57.6935750346352
 31
0.0
  0
LINE
  5
3E5D
330
18
100
AcDbEntity
  8
DRAW2
100
AcDbLine
 10
1108.528486829288
 20
49.69357503463522
 30
0.0
 11
1109.528486829288
 21
49.69357503463522
 31
0.0
  0
LINE
  5
3E5E
330
18
100
AcDbEntity
  8
DRAW2
100
AcDbLine
 10
1070.078486829288
 20
99.99999999999971
 30
0.0
 11
1109.078486829288
 21
99.99999999999971
 31
0.0
  0
LINE
  5
3E5F
330
18
100
AcDbEntity
  8
DRAW2
100
AcDbLine
 10
1078.778486829288
 20
126.9999999999996
 30
0.0
 11
1094.778486829288
 21
126.9999999999997
 31
0.0
  0
LINE
  5
3E60
330
18
100
AcDbEntity
  8
DRAW2
100
AcDbLine
 10
1092.778486829288
 20
128.9999999999996
 30
0.0
 11
1080.778486829288
 21
128.9999999999996
 31
0.0
  0
LINE
  5
3E61
330
18
100
AcDbEntity
  8
DRAW2
100
AcDbLine
 10
1078.778486829288
 20
109.9999999999996
 30
0.0
 11
1094.778486829288
 21
109.9999999999996
 31
0.0
  0
LINE
  5
3E62
330
18
100
AcDbEntity
  8
DRAW2
100
AcDbLine
 10
1070.078486829288
 20
99.99999999999971
 30
0.0
 11
1109.078486829288
 21
99.99999999999971
 31
0.0
  0
LINE
  5
3E63
330
18
100
AcDbEntity
  8
DRAW2
100
AcDbLine
 10
1070.078486829288
 20
109.9999999999996
 30
0.0
 11
1109.078486829288
 21
109.9999999999996
 31
0.0
  0
LINE
  5
3E64
330
18
100
AcDbEntity
  8
DRAW2
100
AcDbLine
 10
1078.778486829288
 20
126.9999999999996
 30
0.0
 11
1078.778486829288
 21
109.9999999999996
 31
0.0
  0
LINE
  5
3E65
330
18
100
AcDbEntity
  8
DRAW2
100
AcDbLine
 10
1070.078486829288
 20
99.99999999999971
 30
0.0
 11
1070.078486829288
 21
109.9999999999996
 31
0.0
  0
LINE
  5
3E66
330
18
100
AcDbEntity
  8
DRAW2
100
AcDbLine
 10
1080.778486829288
 20
128.9999999999996
 30
0.0
 11
1078.778486829288
 21
126.9999999999996
 31
0.0
  0
LINE
  5
3E67
330
18
100
AcDbEntity
  8
DRAW2
100
AcDbLine
 10
1094.778486829288
 20
109.9999999999996
 30
0.0
 11
1094.778486829288
 21
126.9999999999997
 31
0.0
  0
LINE
  5
3E69
330
18
100
AcDbEntity
  8
DRAW2
100
AcDbLine
 10
1109.078486829288
 20
99.99999999999971
 30
0.0
 11
1109.078486829288
 21
109.9999999999996
 31
0.0
  0
LINE
  5
3E6A
330
18
100
AcDbEntity
  8
DRAW2
100
AcDbLine
 10
1092.778486829288
 20
128.9999999999996
 30
0.0
 11
1094.778486829288
 21
126.9999999999997
 31
0.0
  0
LINE
  5
3E6C
330
18
100
AcDbEntity
  8
DRAW2
100
AcDbLine
 10
1108.528486829288
 20
302.9039493392204
 30
0.0
 11
1108.528486829288
 21
262.9039493392204
 31
0.0
  0
LINE
  5
3E6D
330
18
100
AcDbEntity
  8
DRAW2
100
AcDbLine
 10
1059.528486829288
 20
264.4039493392203
 30
0.0
 11
1059.528486829288
 21
285.4039493392203
 31
0.0
  0
LINE
  5
3E6E
330
18
100
AcDbEntity
  8
DRAW2
100
AcDbLine
 10
1037.528486829288
 20
283.4039493392203
 30
0.0
 11
1037.528486829288
 21
266.4039493392203
 31
0.0
  0
LINE
  5
3E6F
330
18
100
AcDbEntity
  8
DRAW2
100
AcDbLine
 10
1039.528486829288
 20
285.4039493392203
 30
0.0
 11
1039.528486829288
 21
264.4039493392203
 31
0.0
  0
LINE
  5
3E70
330
18
100
AcDbEntity
  8
DRAW2
100
AcDbLine
 10
1069.528486829288
 20
262.9039493392204
 30
0.0
 11
1108.528486829288
 21
262.9039493392204
 31
0.0
  0
LINE
  5
3E72
330
18
100
AcDbEntity
  8
DRAW2
100
AcDbLine
 10
1039.528486829288
 20
264.4039493392203
 30
0.0
 11
1059.528486829288
 21
264.4039493392203
 31
0.0
  0
LINE
  5
3E73
330
18
100
AcDbEntity
  8
DRAW2
100
AcDbLine
 10
1037.528486829288
 20
266.4039493392203
 30
0.0
 11
1039.528486829288
 21
264.4039493392203
 31
0.0
  0
LINE
  5
3E74
330
18
100
AcDbEntity
  8
DRAW2
100
AcDbLine
 10
1069.528486829288
 20
262.9039493392204
 30
0.0
 11
1059.528486829288
 21
262.9039493392204
 31
0.0
  0
LINE
  5
3E75
330
18
100
AcDbEntity
  8
DRAW2
100
AcDbLine
 10
1119.528486829288
 20
262.9039493392204
 30
0.0
 11
1109.528486829288
 21
262.9039493392204
 31
0.0
  0
LINE
  5
3E76
330
18
100
AcDbEntity
  8
DRAW2
100
AcDbLine
 10
1140.528486829288
 20
267.3214282996033
 30
0.0
 11
1140.528486829288
 21
249.9039493392208
 31
0.0
  0
LINE
  5
3E77
330
18
100
AcDbEntity
  8
DRAW2
100
AcDbLine
 10
1119.528486829288
 20
249.9039493392208
 30
0.0
 11
1119.528486829288
 21
267.3214282996033
 31
0.0
  0
LINE
  5
3E78
330
18
100
AcDbEntity
  8
DRAW2
100
AcDbLine
 10
1140.528486829288
 20
249.9039493392208
 30
0.0
 11
1119.528486829288
 21
249.9039493392208
 31
0.0
  0
LINE
  5
3E7A
330
18
100
AcDbEntity
  8
DRAW2
100
AcDbLine
 10
1109.078486829288
 20
366.9039493392205
 30
0.0
 11
1070.078486829288
 21
366.9039493392205
 31
0.0
  0
LINE
  5
3E7B
330
18
100
AcDbEntity
  8
DRAW2
100
AcDbLine
 10
1070.078486829288
 20
370.9039493392205
 30
0.0
 11
1109.078486829288
 21
370.9039493392205
 31
0.0
  0
LINE
  5
3E7C
330
18
100
AcDbEntity
  8
DRAW2
100
AcDbLine
 10
1109.078486829288
 20
366.9039493392205
 30
0.0
 11
1070.078486829288
 21
366.9039493392205
 31
0.0
  0
CIRCLE
  5
3E7D
330
18
100
AcDbEntity
  8
DRAW2
100
AcDbCircle
 10
1086.778486829288
 20
358.9039493392202
 30
0.0
 40
6.0
  0
CIRCLE
  5
3E7E
330
18
100
AcDbEntity
  8
DRAW2
100
AcDbCircle
 10
1086.778486829288
 20
358.9039493392202
 30
0.0
 40
8.0
  0
LINE
  5
3E7F
330
18
100
AcDbEntity
  8
DRAW2
100
AcDbLine
 10
1109.078486829288
 20
306.9039493392204
 30
0.0
 11
1070.078486829288
 21
306.9039493392204
 31
0.0
  0
LINE
  5
3E80
330
18
100
AcDbEntity
  8
DRAW2
100
AcDbLine
 10
1070.078486829288
 20
302.9039493392204
 30
0.0
 11
1109.078486829288
 21
302.9039493392204
 31
0.0
  0
LINE
  5
3E81
330
18
100
AcDbEntity
  8
DRAW2
100
AcDbLine
 10
1070.078486829288
 20
306.9039493392204
 30
0.0
 11
1109.078486829288
 21
306.9039493392204
 31
0.0
  0
CIRCLE
  5
3E82
330
18
100
AcDbEntity
  8
DRAW2
100
AcDbCircle
 10
1086.778486829288
 20
314.9039493392205
 30
0.0
 40
6.0
  0
CIRCLE
  5
3E83
330
18
100
AcDbEntity
  8
DRAW2
100
AcDbCircle
 10
1086.778486829288
 20
314.9039493392205
 30
0.0
 40
8.0
  0
LINE
  5
3E84
330
18
100
AcDbEntity
  8
DRAW2
100
AcDbLine
 10
1070.078486829288
 20
370.9039493392205
 30
0.0
 11
1070.078486829288
 21
302.9039493392204
 31
0.0
  0
LINE
  5
3E85
330
18
100
AcDbEntity
  8
DRAW2
100
AcDbLine
 10
1070.078486829288
 20
366.9039493392205
 30
0.0
 11
1070.078486829288
 21
306.9039493392204
 31
0.0
  0
LINE
  5
3E87
330
18
100
AcDbEntity
  8
DRAW2
100
AcDbLine
 10
1059.528486829288
 20
316.4039493392203
 30
0.0
 11
1039.528486829288
 21
316.4039493392203
 31
0.0
  0
LINE
  5
3E88
330
18
100
AcDbEntity
  8
DRAW2
100
AcDbLine
 10
1039.528486829288
 20
295.4039493392203
 30
0.0
 11
1059.528486829288
 21
295.4039493392203
 31
0.0
  0
LINE
  5
3E89
330
18
100
AcDbEntity
  8
DRAW2
100
AcDbLine
 10
1059.528486829288
 20
285.4039493392203
 30
0.0
 11
1039.528486829288
 21
285.4039493392203
 31
0.0
  0
LINE
  5
3E8A
330
18
100
AcDbEntity
  8
DRAW2
100
AcDbLine
 10
1039.528486829288
 20
316.4039493392203
 30
0.0
 11
1039.528486829288
 21
295.4039493392203
 31
0.0
  0
LINE
  5
3E8B
330
18
100
AcDbEntity
  8
DRAW2
100
AcDbLine
 10
1037.528486829288
 20
314.4039493392203
 30
0.0
 11
1037.528486829288
 21
297.4039493392203
 31
0.0
  0
LINE
  5
3E8C
330
18
100
AcDbEntity
  8
DRAW2
100
AcDbLine
 10
1037.528486829288
 20
297.4039493392203
 30
0.0
 11
1039.528486829288
 21
295.4039493392203
 31
0.0
  0
LINE
  5
3E8D
330
18
100
AcDbEntity
  8
DRAW2
100
AcDbLine
 10
1039.528486829288
 20
285.4039493392203
 30
0.0
 11
1037.528486829288
 21
283.4039493392203
 31
0.0
  0
LINE
  5
3E8E
330
18
100
AcDbEntity
  8
DRAW2
100
AcDbLine
 10
1039.528486829288
 20
316.4039493392203
 30
0.0
 11
1037.528486829288
 21
314.4039493392203
 31
0.0
  0
LINE
  5
3E8F
330
18
100
AcDbEntity
  8
DRAW2
100
AcDbLine
 10
1059.528486829288
 20
295.4039493392203
 30
0.0
 11
1059.528486829288
 21
316.4039493392203
 31
0.0
  0
LINE
  5
3E90
330
18
100
AcDbEntity
  8
DRAW2
100
AcDbLine
 10
1069.528486829288
 20
305.4873934126541
 30
0.0
 11
1059.528486829288
 21
305.4873934126541
 31
0.0
  0
LINE
  5
3E92
330
18
100
AcDbEntity
  8
DRAW2
100
AcDbLine
 10
1039.528486829288
 20
357.4039493392202
 30
0.0
 11
1059.528486829288
 21
357.4039493392202
 31
0.0
  0
LINE
  5
3E93
330
18
100
AcDbEntity
  8
DRAW2
100
AcDbLine
 10
1037.528486829288
 20
359.4039493392202
 30
0.0
 11
1039.528486829288
 21
357.4039493392202
 31
0.0
  0
LINE
  5
3E94
330
18
100
AcDbEntity
  8
DRAW2
100
AcDbLine
 10
1069.528486829288
 20
368.3205403469004
 30
0.0
 11
1059.528486829288
 21
368.3205403469004
 31
0.0
  0
LINE
  5
3E95
330
18
100
AcDbEntity
  8
DRAW2
100
AcDbLine
 10
1109.078486829288
 20
370.9039493392205
 30
0.0
 11
1109.078486829288
 21
302.9039493392204
 31
0.0
  0
LINE
  5
3E96
330
18
100
AcDbEntity
  8
DRAW2
100
AcDbLine
 10
1109.078486829288
 20
306.9039493392204
 30
0.0
 11
1109.078486829288
 21
366.9039493392205
 31
0.0
  0
LINE
  5
3E97
330
18
100
AcDbEntity
  8
DRAW2
100
AcDbLine
 10
1108.528486829288
 20
410.9039493392205
 30
0.0
 11
1069.528486829288
 21
410.9039493392205
 31
0.0
  0
LINE
  5
3E99
330
18
100
AcDbEntity
  8
DRAW2
100
AcDbLine
 10
1059.528486829288
 20
409.4039493392203
 30
0.0
 11
1039.528486829288
 21
409.4039493392203
 31
0.0
  0
LINE
  5
3E9A
330
18
100
AcDbEntity
  8
DRAW2
100
AcDbLine
 10
1039.528486829288
 20
388.4039493392202
 30
0.0
 11
1059.528486829288
 21
388.4039493392202
 31
0.0
  0
LINE
  5
3E9B
330
18
100
AcDbEntity
  8
DRAW2
100
AcDbLine
 10
1059.528486829288
 20
378.4039493392203
 30
0.0
 11
1039.528486829288
 21
378.4039493392203
 31
0.0
  0
LINE
  5
3E9C
330
18
100
AcDbEntity
  8
DRAW2
100
AcDbLine
 10
1039.528486829288
 20
409.4039493392203
 30
0.0
 11
1039.528486829288
 21
388.4039493392202
 31
0.0
  0
LINE
  5
3E9D
330
18
100
AcDbEntity
  8
DRAW2
100
AcDbLine
 10
1037.528486829288
 20
407.4039493392202
 30
0.0
 11
1037.528486829288
 21
390.4039493392202
 31
0.0
  0
LINE
  5
3E9E
330
18
100
AcDbEntity
  8
DRAW2
100
AcDbLine
 10
1037.528486829288
 20
390.4039493392202
 30
0.0
 11
1039.528486829288
 21
388.4039493392202
 31
0.0
  0
LINE
  5
3E9F
330
18
100
AcDbEntity
  8
DRAW2
100
AcDbLine
 10
1039.528486829288
 20
378.4039493392203
 30
0.0
 11
1037.528486829288
 21
376.4039493392203
 31
0.0
  0
LINE
  5
3EA0
330
18
100
AcDbEntity
  8
DRAW2
100
AcDbLine
 10
1039.528486829288
 20
409.4039493392203
 30
0.0
 11
1037.528486829288
 21
407.4039493392202
 31
0.0
  0
LINE
  5
3EA1
330
18
100
AcDbEntity
  8
DRAW2
100
AcDbLine
 10
1059.528486829288
 20
388.4039493392202
 30
0.0
 11
1059.528486829288
 21
409.4039493392203
 31
0.0
  0
LINE
  5
3EA2
330
18
100
AcDbEntity
  8
DRAW2
100
AcDbLine
 10
1069.528486829288
 20
410.9039493392205
 30
0.0
 11
1059.528486829288
 21
410.9039493392205
 31
0.0
  0
LWPOLYLINE
  5
3EA3
330
18
100
AcDbEntity
  8
DRAW2
100
AcDbPolyline
 90
       17
 70
     0
 43
0.0
 10
1139.528486829288
 20
411.1221493392206
 42
-0.035781046
 10
1139.592686829286
 20
412.0164793392206
 42
-0.034735135
 10
1139.782206829287
 20
412.8932093392206
 42
-0.032808914
 10
1140.087896829288
 20
413.7356293392207
 42
-0.030443274
 10
1140.497786829288
 20
414.5333793392206
 42
-0.027895236
 10
1140.998016829287
 20
415.2784093392206
 42
-0.025377859
 10
1141.574056829288
 20
415.9654093392206
 42
-0.023117483
 10
1142.214436829288
 20
416.5940193392207
 42
-0.02111344
 10
1142.908126829286
 20
417.1639193392207
 42
-0.019360746
 10
1143.644796829286
 20
417.6753693392206
 42
-0.017915758
 10
1144.418326829288
 20
418.1310893392206
 42
-0.016694044
 10
1145.221726829288
 20
418.5323693392207
 42
-0.015678837
 10
1146.049386829288
 20
418.8808893392206
 42
-0.014848642
 10
1146.896776829288
 20
419.1782993392206
 42
-0.014179833
 10
1147.760026829288
 20
419.4260793392206
 42
-0.013652758
 10
1148.635756829288
 20
419.6254993392206
 42
-0.01325184
 10
1149.520976829287
 20
419.7775593392206
  0
LWPOLYLINE
  5
3EA4
330
18
100
AcDbEntity
  8
DRAW2
100
AcDbPolyline
 90
       17
 70
     0
 43
0.0
 10
1139.527816829286
 20
413.2434593392206
 42
-0.035781242
 10
1139.592016829288
 20
414.1377893392206
 42
-0.034735274
 10
1139.781536829288
 20
415.0145193392206
 42
-0.032808988
 10
1140.087226829288
 20
415.8569293392206
 42
-0.030443292
 10
1140.497116829288
 20
416.6546793392206
 42
-0.027895209
 10
1140.997346829288
 20
417.3997093392206
 42
-0.0253778
 10
1141.573386829288
 20
418.0867093392206
 42
-0.023117406
 10
1142.213766829286
 20
418.7153193392206
 42
-0.021113353
 10
1142.907456829288
 20
419.2852093392207
 42
-0.019360656
 10
1143.644136829288
 20
419.7966693392206
 42
-0.017915667
 10
1144.417666829288
 20
420.2523893392206
 42
-0.016693956
 10
1145.221056829287
 20
420.6536693392206
 42
-0.015678752
 10
1146.048716829288
 20
421.0021793392206
 42
-0.014848562
 10
1146.896106829288
 20
421.2995893392206
 42
-0.014179757
 10
1147.759356829288
 20
421.5473793392206
 42
-0.013652686
 10
1148.635086829288
 20
421.7467993392206
 42
-0.013251772
 10
1149.520296829288
 20
421.8988593392206
  0
LWPOLYLINE
  5
3EA5
330
18
100
AcDbEntity
  8
DRAW2
100
AcDbPolyline
 90
       17
 70
     0
 43
0.0
 10
1139.527816829286
 20
416.0719193392206
 42
-0.035781046
 10
1139.592016829288
 20
416.9662493392206
 42
-0.034735135
 10
1139.781536829288
 20
417.8429793392206
 42
-0.032808914
 10
1140.087216829288
 20
418.6853893392206
 42
-0.030443274
 10
1140.497116829288
 20
419.4831393392206
 42
-0.027895236
 10
1140.997346829288
 20
420.2281793392207
 42
-0.025377859
 10
1141.573386829288
 20
420.9151793392207
 42
-0.023117483
 10
1142.213766829286
 20
421.5437893392206
 42
-0.02111344
 10
1142.907456829288
 20
422.1136793392206
 42
-0.019360746
 10
1143.644126829288
 20
422.6251393392206
 42
-0.017915758
 10
1144.417656829288
 20
423.0808593392206
 42
-0.016694044
 10
1145.221056829287
 20
423.4821393392206
 42
-0.015678837
 10
1146.048716829288
 20
423.8306493392206
 42
-0.014848642
 10
1146.896106829288
 20
424.1280593392207
 42
-0.014179833
 10
1147.759346829288
 20
424.3758493392206
 42
-0.013652758
 10
1148.635086829288
 20
424.5752693392206
 42
-0.01325184
 10
1149.520306829288
 20
424.7273293392206
  0
LINE
  5
3EA6
330
18
100
AcDbEntity
  8
DRAW2
100
AcDbLine
 10
1139.528486829288
 20
410.9039493392205
 30
0.0
 11
1139.528486829288
 21
442.9419193392205
 31
0.0
  0
LINE
  5
3EA7
330
18
100
AcDbEntity
  8
DRAW2
100
AcDbLine
 10
1149.528426829288
 20
414.8288493392206
 30
0.0
 11
1149.528426829288
 21
416.9501893392206
 31
0.0
  0
LINE
  5
3EA8
330
18
100
AcDbEntity
  8
DRAW2
100
AcDbLine
 10
1141.027876829288
 20
415.3184993392206
 30
0.0
 11
1141.027876829288
 21
417.4398393392206
 31
0.0
  0
LINE
  5
3EA9
330
18
100
AcDbEntity
  8
DRAW2
100
AcDbLine
 10
1141.028486829288
 20
410.9039493392205
 30
0.0
 11
1141.028486829288
 21
412.4900693392206
 31
0.0
  0
LWPOLYLINE
  5
3EAA
330
18
100
AcDbEntity
  8
DRAW2
100
AcDbPolyline
 90
       15
 70
     0
 43
0.0
 10
1140.086497310442
 20
410.9039493392205
 42
-0.0001273942975895
 10
1140.087896829288
 20
410.9071393392206
 42
-0.03044317
 10
1140.497786829288
 20
411.7048893392206
 42
-0.027895097
 10
1140.998016829287
 20
412.4499193392207
 42
-0.025377711
 10
1141.574056829288
 20
413.1369193392206
 42
-0.023117342
 10
1142.214436829288
 20
413.7655293392207
 42
-0.021113315
 10
1142.908126829286
 20
414.3354293392206
 42
-0.019360642
 10
1143.644806829287
 20
414.8468893392206
 42
-0.017915674
 10
1144.418326829288
 20
415.3025993392208
 42
-0.016693981
 10
1145.221726829288
 20
415.7038893392206
 42
-0.015678793
 10
1146.049386829288
 20
416.0524093392206
 42
-0.014848616
 10
1146.896776829288
 20
416.3498193392205
 42
-0.014179824
 10
1147.760026829288
 20
416.5976093392206
 42
-0.013652765
 10
1148.635756829288
 20
416.7970293392206
 42
-0.013251861
 10
1149.520976829287
 20
416.9490893392207
  0
LWPOLYLINE
  5
3EAB
330
18
100
AcDbEntity
  8
DRAW2
100
AcDbPolyline
 90
       12
 70
     0
 43
0.0
 10
1141.472166083397
 20
410.9039493392205
 42
-0.0042748691362246
 10
1141.574056829288
 20
411.0155493392206
 42
-0.023117406
 10
1142.214446829288
 20
411.6441493392206
 42
-0.021113353
 10
1142.908126829286
 20
412.2140493392207
 42
-0.019360656
 10
1143.644806829287
 20
412.7254993392206
 42
-0.017915667
 10
1144.418336829288
 20
413.1812193392206
 42
-0.016693956
 10
1145.221726829288
 20
413.5825093392206
 42
-0.015678752
 10
1146.049386829288
 20
413.9310193392206
 42
-0.014848562
 10
1146.896776829288
 20
414.2284293392206
 42
-0.014179757
 10
1147.760026829288
 20
414.4762093392206
 42
-0.013652686
 10
1148.635756829288
 20
414.6756293392206
 42
-0.013251772
 10
1149.520976829287
 20
414.8276993392206
  0
LINE
  5
3EAC
330
18
100
AcDbEntity
  8
DRAW2
100
AcDbLine
 10
1149.525366829288
 20
439.5776893392207
 30
0.0
 11
1149.525366829288
 21
441.6990293392204
 31
0.0
  0
LINE
  5
3EAD
330
18
100
AcDbEntity
  8
DRAW2
100
AcDbLine
 10
1141.024826829288
 20
440.0673393392207
 30
0.0
 11
1141.024826829288
 21
442.1887093392206
 31
0.0
  0
LWPOLYLINE
  5
3EAE
330
18
100
AcDbEntity
  8
DRAW2
100
AcDbPolyline
 90
       17
 70
     0
 43
0.0
 10
1139.525436829287
 20
433.0424993392206
 42
-0.035781241
 10
1139.589636829288
 20
433.9368293392206
 42
-0.034735204
 10
1139.779156829288
 20
434.8135593392206
 42
-0.032808878
 10
1140.084846829288
 20
435.6559793392206
 42
-0.03044317
 10
1140.494736829288
 20
436.4537293392206
 42
-0.027895097
 10
1140.994966829288
 20
437.1987593392206
 42
-0.025377711
 10
1141.571006829288
 20
437.8857593392208
 42
-0.023117342
 10
1142.211386829288
 20
438.5143693392206
 42
-0.021113315
 10
1142.905076829288
 20
439.0842693392206
 42
-0.019360642
 10
1143.641756829288
 20
439.5957293392206
 42
-0.017915674
 10
1144.415276829288
 20
440.0514393392207
 42
-0.016693981
 10
1145.218676829288
 20
440.4527293392206
 42
-0.015678793
 10
1146.046336829288
 20
440.8012493392206
 42
-0.014848616
 10
1146.893726829288
 20
441.0986593392206
 42
-0.014179824
 10
1147.756966829288
 20
441.3464493392206
 42
-0.013652765
 10
1148.632696829288
 20
441.5458693392206
 42
-0.013251861
 10
1149.517916829288
 20
441.6979293392206
  0
LWPOLYLINE
  5
3EAF
330
18
100
AcDbEntity
  8
DRAW2
100
AcDbPolyline
 90
       17
 70
     0
 43
0.0
 10
1139.532266829288
 20
437.9933593392206
 42
-0.035781241
 10
1139.596466829287
 20
438.8876893392207
 42
-0.034735204
 10
1139.785986829288
 20
439.7644193392206
 42
-0.032808878
 10
1140.091676829288
 20
440.6068393392206
 42
-0.03044317
 10
1140.501566829288
 20
441.4045893392206
 42
-0.027895097
 10
1141.001796829288
 20
442.1496193392206
 42
-0.025377711
 10
1141.577836829288
 20
442.8366193392206
 42
-0.023117342
 10
1142.218216829288
 20
443.4652293392207
 42
-0.021113315
 10
1142.911906829288
 20
444.0351293392206
 42
-0.019360642
 10
1143.648586829288
 20
444.5465893392206
 42
-0.017915674
 10
1144.422106829287
 20
445.0022993392208
 42
-0.016693981
 10
1145.225506829288
 20
445.4035893392206
 42
-0.015678793
 10
1146.053166829288
 20
445.7521093392208
 42
-0.014848616
 10
1146.900556829288
 20
446.0495193392206
 42
-0.014179824
 10
1147.763796829287
 20
446.2973093392206
 42
-0.013652765
 10
1148.639526829288
 20
446.4967293392207
 42
-0.013251861
 10
1149.524746829288
 20
446.6487893392207
  0
LWPOLYLINE
  5
3EB0
330
18
100
AcDbEntity
  8
DRAW2
100
AcDbPolyline
 90
       17
 70
     0
 43
0.0
 10
1139.532876829288
 20
435.8720893392207
 42
-0.035781046
 10
1139.597076829288
 20
436.7664193392206
 42
-0.034735064
 10
1139.786596829288
 20
437.6431493392208
 42
-0.032808804
 10
1140.092276829288
 20
438.4855593392207
 42
-0.030443153
 10
1140.502176829288
 20
439.2833093392206
 42
-0.027895124
 10
1141.002406829288
 20
440.0283493392207
 42
-0.02537777
 10
1141.578446829287
 20
440.7153493392207
 42
-0.023117419
 10
1142.218826829288
 20
441.3439593392206
 42
-0.021113402
 10
1142.912506829288
 20
441.9138593392206
 42
-0.019360733
 10
1143.649186829288
 20
442.4253193392206
 42
-0.017915764
 10
1144.422716829286
 20
442.8810393392206
 42
-0.016694069
 10
1145.226116829288
 20
443.2823293392206
 42
-0.015678877
 10
1146.053776829287
 20
443.6308393392206
 42
-0.014848697
 10
1146.901166829288
 20
443.9282493392206
 42
-0.0141799
 10
1147.764406829288
 20
444.1760393392207
 42
-0.013652836
 10
1148.640136829288
 20
444.3754593392206
 42
-0.013251928
 10
1149.525366829288
 20
444.5275193392206
  0
LINE
  5
3EB1
330
18
100
AcDbEntity
  8
DRAW2
100
AcDbLine
 10
1149.526046829288
 20
434.6279193392207
 30
0.0
 11
1149.526046829288
 21
436.7492593392206
 31
0.0
  0
LINE
  5
3EB2
330
18
100
AcDbEntity
  8
DRAW2
100
AcDbLine
 10
1141.025436829288
 20
435.1175793392206
 30
0.0
 11
1141.025436829288
 21
437.2389093392206
 31
0.0
  0
LINE
  5
3EB3
330
18
100
AcDbEntity
  8
DRAW2
100
AcDbLine
 10
1149.527266829288
 20
424.7283893392205
 30
0.0
 11
1149.527266829288
 21
426.8497193392208
 31
0.0
  0
LINE
  5
3EB4
330
18
100
AcDbEntity
  8
DRAW2
100
AcDbLine
 10
1149.526656829288
 20
429.6781493392208
 30
0.0
 11
1149.526656829288
 21
431.7994893392206
 31
0.0
  0
LINE
  5
3EB5
330
18
100
AcDbEntity
  8
DRAW2
100
AcDbLine
 10
1141.026656829287
 20
425.2180393392206
 30
0.0
 11
1141.026656829287
 21
427.3393793392206
 31
0.0
  0
LINE
  5
3EB6
330
18
100
AcDbEntity
  8
DRAW2
100
AcDbLine
 10
1141.026046829288
 20
430.1678093392206
 30
0.0
 11
1141.026046829288
 21
432.2891793392206
 31
0.0
  0
LWPOLYLINE
  5
3EB7
330
18
100
AcDbEntity
  8
DRAW2
100
AcDbPolyline
 90
       17
 70
     0
 43
0.0
 10
1139.526046829288
 20
430.9212293392206
 42
-0.035781046
 10
1139.590246829288
 20
431.8155593392206
 42
-0.034735064
 10
1139.779766829288
 20
432.6922893392207
 42
-0.032808804
 10
1140.085446829288
 20
433.5346993392206
 42
-0.030443153
 10
1140.495346829288
 20
434.3324493392207
 42
-0.027895124
 10
1140.995576829288
 20
435.0774893392206
 42
-0.02537777
 10
1141.571616829288
 20
435.7644893392206
 42
-0.023117419
 10
1142.211996829286
 20
436.3930993392206
 42
-0.021113402
 10
1142.905676829288
 20
436.9629993392206
 42
-0.019360733
 10
1143.642356829288
 20
437.4744593392206
 42
-0.017915764
 10
1144.415886829287
 20
437.9301793392206
 42
-0.016694069
 10
1145.219286829288
 20
438.3314693392206
 42
-0.015678877
 10
1146.046946829288
 20
438.6799793392206
 42
-0.014848697
 10
1146.894336829288
 20
438.9773893392207
 42
-0.0141799
 10
1147.757576829288
 20
439.2251793392206
 42
-0.013652836
 10
1148.633306829288
 20
439.4245993392206
 42
-0.013251928
 10
1149.518536829287
 20
439.5766593392206
  0
LWPOLYLINE
  5
3EB8
330
18
100
AcDbEntity
  8
DRAW2
100
AcDbPolyline
 90
       17
 70
     0
 43
0.0
 10
1139.526656829288
 20
425.9714593392206
 42
-0.035781046
 10
1139.590856829288
 20
426.8657893392206
 42
-0.034735135
 10
1139.780376829288
 20
427.7425193392207
 42
-0.032808914
 10
1140.086066829288
 20
428.5849293392206
 42
-0.030443274
 10
1140.495956829288
 20
429.3826793392206
 42
-0.027895236
 10
1140.996186829288
 20
430.1277093392206
 42
-0.025377859
 10
1141.572226829288
 20
430.8147193392206
 42
-0.023117483
 10
1142.212606829288
 20
431.4433193392206
 42
-0.02111344
 10
1142.906296829288
 20
432.0132193392206
 42
-0.019360746
 10
1143.642966829288
 20
432.5246793392206
 42
-0.017915758
 10
1144.416496829288
 20
432.9803893392206
 42
-0.016694044
 10
1145.219896829287
 20
433.3816793392206
 42
-0.015678837
 10
1146.047556829288
 20
433.7301893392206
 42
-0.014848642
 10
1146.894946829288
 20
434.0275993392206
 42
-0.014179833
 10
1147.758186829288
 20
434.2753893392206
 42
-0.013652758
 10
1148.633926829287
 20
434.4747993392206
 42
-0.01325184
 10
1149.519146829288
 20
434.6268593392206
  0
LWPOLYLINE
  5
3EB9
330
18
100
AcDbEntity
  8
DRAW2
100
AcDbPolyline
 90
       17
 70
     0
 43
0.0
 10
1139.526046829288
 20
428.0927393392206
 42
-0.035781241
 10
1139.590246829288
 20
428.9870593392206
 42
-0.034735204
 10
1139.779766829288
 20
429.8637993392206
 42
-0.032808878
 10
1140.085456829287
 20
430.7062093392207
 42
-0.03044317
 10
1140.495346829288
 20
431.5039593392206
 42
-0.027895097
 10
1140.995576829288
 20
432.2489893392206
 42
-0.025377711
 10
1141.571616829288
 20
432.9359893392206
 42
-0.023117342
 10
1142.211996829286
 20
433.5645993392208
 42
-0.021113315
 10
1142.905686829288
 20
434.1344993392207
 42
-0.019360642
 10
1143.642366829288
 20
434.6459593392206
 42
-0.017915674
 10
1144.415886829287
 20
435.1016793392206
 42
-0.016693981
 10
1145.219286829288
 20
435.5029693392206
 42
-0.015678793
 10
1146.046946829288
 20
435.8514793392206
 42
-0.014848616
 10
1146.894336829288
 20
436.1488893392206
 42
-0.014179824
 10
1147.757576829288
 20
436.3966793392206
 42
-0.013652765
 10
1148.633316829288
 20
436.5960993392206
 42
-0.013251861
 10
1149.518536829287
 20
436.7481693392206
  0
LINE
  5
3EBA
330
18
100
AcDbEntity
  8
DRAW2
100
AcDbLine
 10
1149.527876829288
 20
419.7786193392206
 30
0.0
 11
1149.527876829288
 21
421.8999593392206
 31
0.0
  0
LINE
  5
3EBB
330
18
100
AcDbEntity
  8
DRAW2
100
AcDbLine
 10
1141.027266829288
 20
420.2682693392206
 30
0.0
 11
1141.027266829288
 21
422.3896393392206
 31
0.0
  0
LWPOLYLINE
  5
3EBC
330
18
100
AcDbEntity
  8
DRAW2
100
AcDbPolyline
 90
       17
 70
     0
 43
0.0
 10
1139.527266829288
 20
421.0216893392206
 42
-0.035781046
 10
1139.591466829288
 20
421.9160193392206
 42
-0.034735135
 10
1139.780986829288
 20
422.7927493392206
 42
-0.032808914
 10
1140.086676829288
 20
423.6351593392206
 42
-0.030443274
 10
1140.496566829287
 20
424.4329093392206
 42
-0.027895236
 10
1140.996796829288
 20
425.1779493392207
 42
-0.025377859
 10
1141.572836829288
 20
425.8649493392208
 42
-0.023117483
 10
1142.213216829288
 20
426.4935493392208
 42
-0.02111344
 10
1142.906906829288
 20
427.0634493392206
 42
-0.019360746
 10
1143.643576829288
 20
427.5749093392206
 42
-0.017915758
 10
1144.417106829288
 20
428.0306193392206
 42
-0.016694044
 10
1145.220506829288
 20
428.4319093392206
 42
-0.015678837
 10
1146.048166829288
 20
428.7804193392206
 42
-0.014848642
 10
1146.895556829288
 20
429.0778293392206
 42
-0.014179833
 10
1147.758796829288
 20
429.3256193392206
 42
-0.013652758
 10
1148.634536829288
 20
429.5250293392206
 42
-0.01325184
 10
1149.519756829288
 20
429.6770993392208
  0
LWPOLYLINE
  5
3EBD
330
18
100
AcDbEntity
  8
DRAW2
100
AcDbPolyline
 90
       17
 70
     0
 43
0.0
 10
1139.526656829288
 20
423.1429693392206
 42
-0.035781241
 10
1139.590856829288
 20
424.0372993392206
 42
-0.034735204
 10
1139.780376829288
 20
424.9140293392208
 42
-0.032808878
 10
1140.086066829288
 20
425.7564393392208
 42
-0.03044317
 10
1140.495956829288
 20
426.5541893392207
 42
-0.027895097
 10
1140.996186829288
 20
427.2992193392206
 42
-0.025377711
 10
1141.572226829288
 20
427.9862293392206
 42
-0.023117342
 10
1142.212606829288
 20
428.6148293392206
 42
-0.021113315
 10
1142.906296829288
 20
429.1847293392207
 42
-0.019360642
 10
1143.642976829288
 20
429.6961893392206
 42
-0.017915674
 10
1144.416496829288
 20
430.1519093392206
 42
-0.016693981
 10
1145.219896829287
 20
430.5531993392206
 42
-0.015678793
 10
1146.047556829288
 20
430.9017093392206
 42
-0.014848616
 10
1146.894946829288
 20
431.1991193392207
 42
-0.014179824
 10
1147.758186829288
 20
431.4469093392206
 42
-0.013652765
 10
1148.633926829287
 20
431.6463293392206
 42
-0.013251861
 10
1149.519146829288
 20
431.7983993392208
  0
LWPOLYLINE
  5
3EBE
330
18
100
AcDbEntity
  8
DRAW2
100
AcDbPolyline
 90
       17
 70
     0
 43
0.0
 10
1139.527266829288
 20
418.1931993392206
 42
-0.035781241
 10
1139.591466829288
 20
419.0875293392206
 42
-0.034735204
 10
1139.780986829288
 20
419.9642593392206
 42
-0.032808878
 10
1140.086676829288
 20
420.8066693392206
 42
-0.03044317
 10
1140.496566829287
 20
421.6044193392206
 42
-0.027895097
 10
1140.996796829288
 20
422.3494593392206
 42
-0.025377711
 10
1141.572836829288
 20
423.0364593392206
 42
-0.023117342
 10
1142.213216829288
 20
423.6650693392206
 42
-0.021113315
 10
1142.906906829288
 20
424.2349593392206
 42
-0.019360642
 10
1143.643586829288
 20
424.7464193392207
 42
-0.017915674
 10
1144.417106829288
 20
425.2021393392206
 42
-0.016693981
 10
1145.220506829288
 20
425.6034293392207
 42
-0.015678793
 10
1146.048166829288
 20
425.9519393392206
 42
-0.014848616
 10
1146.895556829288
 20
426.2493593392206
 42
-0.014179824
 10
1147.758796829288
 20
426.4971393392206
 42
-0.013652765
 10
1148.634536829288
 20
426.6965593392206
 42
-0.013251861
 10
1149.519756829288
 20
426.8486293392206
  0
LINE
  5
3EBF
330
18
100
AcDbEntity
  8
DRAW2
100
AcDbLine
 10
1149.532196829288
 20
444.5285493392206
 30
0.0
 11
1149.532196829288
 21
446.6498893392206
 31
0.0
  0
LINE
  5
3EC1
330
18
100
AcDbEntity
  8
DRAW2
100
AcDbLine
 10
1195.528486829288
 20
-68.00000000000022
 30
0.0
 11
1195.528486829288
 21
67.99999999999967
 31
0.0
  0
LINE
  5
3EC2
330
18
100
AcDbEntity
  8
DRAW2
100
AcDbLine
 10
1234.528486829288
 20
-68.00000000000022
 30
0.0
 11
1234.528486829288
 21
67.9999999999998
 31
0.0
  0
LINE
  5
3EC3
330
18
100
AcDbEntity
  8
DRAW2
100
AcDbLine
 10
1194.528486829288
 20
66.9999999999996
 30
0.0
 11
1194.528486829288
 21
-67.0000000000004
 31
0.0
  0
LINE
  5
3EC4
330
18
100
AcDbEntity
  8
DRAW2
100
AcDbLine
 10
1266.528486829288
 20
8.499999999999772
 30
0.0
 11
1266.528486829288
 21
-8.500000000000218
 31
0.0
  0
LINE
  5
3EC5
330
18
100
AcDbEntity
  8
DRAW2
100
AcDbLine
 10
1244.528486829288
 20
-10.50000000000022
 30
0.0
 11
1244.528486829288
 21
10.49999999999975
 31
0.0
  0
LINE
  5
3EC6
330
18
100
AcDbEntity
  8
DRAW2
100
AcDbLine
 10
1264.528486829288
 20
10.49999999999975
 30
0.0
 11
1264.528486829288
 21
-10.50000000000022
 31
0.0
  0
LINE
  5
3EC7
330
18
100
AcDbEntity
  8
DRAW2
100
AcDbLine
 10
1234.528486829288
 20
66.9999999999998
 30
0.0
 11
1234.528486829288
 21
-67.00000000000024
 31
0.0
  0
LINE
  5
3EC8
330
18
100
AcDbEntity
  8
DRAW2
100
AcDbLine
 10
1244.528486829288
 20
66.9999999999998
 30
0.0
 11
1244.528486829288
 21
-67.00000000000024
 31
0.0
  0
ARC
  5
3ECA
330
18
100
AcDbEntity
  8
DRAW2
100
AcDbCircle
 10
1522.028486829288
 20
0.0
 30
0.0
 40
74.0
100
AcDbArc
 50
295.1220601866318
 51
64.87793981336814
  0
ARC
  5
3ECB
330
18
100
AcDbEntity
  8
DRAW2
100
AcDbCircle
 10
1522.028486829288
 20
0.0
 30
0.0
 40
74.0
100
AcDbArc
 50
115.1220601866318
 51
244.8779398133679
  0
CIRCLE
  5
3ECC
330
18
100
AcDbEntity
  8
DRAW2
100
AcDbCircle
 10
1584.028486829288
 20
-0.0000000000000568
 30
0.0
 40
8.5
  0
CIRCLE
  5
3ECD
330
18
100
AcDbEntity
  8
DRAW2
100
AcDbCircle
 10
1584.028486829288
 20
-0.0000000000000568
 30
0.0
 40
10.5
  0
CIRCLE
  5
3ECF
330
18
100
AcDbEntity
  8
DRAW2
100
AcDbCircle
 10
1460.028486829288
 20
0.0000000000000284
 30
0.0
 40
8.5
  0
CIRCLE
  5
3ED0
330
18
100
AcDbEntity
  8
DRAW2
100
AcDbCircle
 10
1460.028486829288
 20
0.0000000000000284
 30
0.0
 40
10.5
  0
ELLIPSE
  5
3ED4
330
18
100
AcDbEntity
  8
DRAW2
100
AcDbEllipse
 10
1174.028486829288
 20
-52.32590180780488
 30
0.0
 11
-11.0
 21
0.0
 31
0.0
210
0.0
220
0.0
230
1.0
 40
0.7599555880795932
 41
0.0
 42
6.283185307179584
  0
ELLIPSE
  5
3ED5
330
18
100
AcDbEntity
  8
DRAW2
100
AcDbEllipse
 10
1174.028486829288
 20
-46.66904755831255
 30
0.0
 11
-11.0
 21
0.0
 31
0.0
210
0.0
220
0.0
230
1.0
 40
0.7071067811865494
 41
0.358144304141276
 42
2.783448349448517
  0
ELLIPSE
  5
3ED6
330
18
100
AcDbEntity
  8
DRAW3
100
AcDbEllipse
 10
1174.028486829288
 20
-46.66904755831255
 30
0.0
 11
-6.578500006250012
 21
0.0
 31
0.0
210
0.0
220
0.0
230
0.9999999999999998
 40
0.7071067811865476
 41
6.03171163649787
 42
9.676251631451091
  0
ELLIPSE
  5
3ED7
330
18
100
AcDbEntity
  8
DRAW2
100
AcDbEllipse
 10
1174.028486829288
 20
-46.04423888249761
 30
0.0
 11
-5.6948871030242
 21
0.0
 31
0.0
210
0.0
220
0.0
230
1.0
 40
0.7071067811865387
 41
6.047180461869012
 42
9.660782806079952
  0
LINE
  5
3ED9
330
18
100
AcDbEntity
  8
DRAW2
100
AcDbLine
 10
1227.778486829288
 20
-80.00000000000031
 30
0.0
 11
1227.778486829288
 21
-100.0000000000003
 31
0.0
  0
LINE
  5
3EDA
330
18
100
AcDbEntity
  8
DRAW2
100
AcDbLine
 10
1206.778486829288
 20
-100.0000000000003
 30
0.0
 11
1206.778486829288
 21
-80.00000000000033
 31
0.0
  0
LINE
  5
3EDB
330
18
100
AcDbEntity
  8
DRAW2
100
AcDbLine
 10
1262.578486829288
 20
-68.50000000000051
 30
0.0
 11
1262.578486829288
 21
-99.50000000000052
 31
0.0
  0
LINE
  5
3EDC
330
18
100
AcDbEntity
  8
DRAW2
100
AcDbLine
 10
1234.078486829288
 20
-100.0000000000003
 30
0.0
 11
1234.078486829288
 21
-68.00000000000051
 31
0.0
  0
LINE
  5
3EDD
330
18
100
AcDbEntity
  8
DRAW2
100
AcDbLine
 10
1264.578486829288
 20
-97.50000000000051
 30
0.0
 11
1264.578486829288
 21
-70.50000000000051
 31
0.0
  0
LINE
  5
3EDE
330
18
100
AcDbEntity
  8
DRAW2
100
AcDbLine
 10
1195.078486829288
 20
-100.0000000000003
 30
0.0
 11
1195.078486829288
 21
-68.00000000000048
 31
0.0
  0
LINE
  5
3EE0
330
18
100
AcDbEntity
  8
DRAW2
100
AcDbLine
 10
1195.078486829288
 20
-100.0000000000003
 30
0.0
 11
1234.078486829288
 21
-100.0000000000003
 31
0.0
  0
LINE
  5
3EE1
330
18
100
AcDbEntity
  8
DRAW2
100
AcDbLine
 10
1204.000861670904
 20
-135.0
 30
0.0
 11
1230.556111987672
 21
-135.0
 31
0.0
  0
LINE
  5
3EE2
330
18
100
AcDbEntity
  8
DRAW2
100
AcDbLine
 10
1235.278486829288
 20
-115.0000000000001
 30
0.0
 11
1199.278486829288
 21
-115.0000000000001
 31
0.0
  0
LINE
  5
3EE3
330
18
100
AcDbEntity
  8
DRAW2
100
AcDbLine
 10
1197.278486829288
 20
-115.0000000000001
 30
0.0
 11
1237.278486829288
 21
-115.0000000000001
 31
0.0
  0
LINE
  5
3EE4
330
18
100
AcDbEntity
  8
DRAW2
100
AcDbLine
 10
1197.278486829288
 20
-100.0000000000003
 30
0.0
 11
1237.278486829288
 21
-100.0000000000001
 31
0.0
  0
LINE
  5
3EE5
330
18
100
AcDbEntity
  8
DRAW2
100
AcDbLine
 10
1199.278486829288
 20
-115.0000000000001
 30
0.0
 11
1202.022988965167
 21
-133.2966809058605
 31
0.0
  0
ARC
  5
3EE6
330
18
100
AcDbEntity
  8
DRAW2
100
AcDbCircle
 10
1204.000861670904
 20
-133.0
 30
0.0
 40
2.0
100
AcDbArc
 50
188.530765609948
 51
270.0
  0
LINE
  5
3EE7
330
18
100
AcDbEntity
  8
DRAW2
100
AcDbLine
 10
1197.278486829288
 20
-100.0000000000003
 30
0.0
 11
1197.278486829288
 21
-115.0000000000001
 31
0.0
  0
LINE
  5
3EE9
330
18
100
AcDbEntity
  8
DRAW2
100
AcDbLine
 10
1234.078486829288
 20
-99.50000000000052
 30
0.0
 11
1262.578486829288
 21
-99.50000000000052
 31
0.0
  0
LINE
  5
3EEA
330
18
100
AcDbEntity
  8
DRAW2
100
AcDbLine
 10
1235.278486829288
 20
-115.0000000000001
 30
0.0
 11
1232.533984693408
 21
-133.2966809058605
 31
0.0
  0
ARC
  5
3EEB
330
18
100
AcDbEntity
  8
DRAW2
100
AcDbCircle
 10
1230.556111987672
 20
-133.0
 30
0.0
 40
2.0
100
AcDbArc
 50
270.0
 51
351.4692343900516
  0
LINE
  5
3EEC
330
18
100
AcDbEntity
  8
DRAW2
100
AcDbLine
 10
1237.278486829288
 20
-100.0000000000001
 30
0.0
 11
1237.278486829288
 21
-115.0000000000001
 31
0.0
  0
LINE
  5
3EED
330
18
100
AcDbEntity
  8
DRAW2
100
AcDbLine
 10
1264.578486829288
 20
-97.50000000000051
 30
0.0
 11
1262.578486829288
 21
-99.50000000000052
 31
0.0
  0
LINE
  5
3EEE
330
18
100
AcDbEntity
  8
DRAW2
100
AcDbLine
 10
1208.778486829288
 20
-78.00000000000034
 30
0.0
 11
1225.778486829288
 21
-78.00000000000031
 31
0.0
  0
LINE
  5
3EEF
330
18
100
AcDbEntity
  8
DRAW2
100
AcDbLine
 10
1206.778486829288
 20
-80.00000000000033
 30
0.0
 11
1227.778486829288
 21
-80.00000000000031
 31
0.0
  0
LINE
  5
3EF0
330
18
100
AcDbEntity
  8
DRAW2
100
AcDbLine
 10
1195.078486829288
 20
-68.00000000000048
 30
0.0
 11
1234.078486829288
 21
-68.00000000000051
 31
0.0
  0
LINE
  5
3EF2
330
18
100
AcDbEntity
  8
DRAW2
100
AcDbLine
 10
1206.778486829288
 20
-80.00000000000033
 30
0.0
 11
1208.778486829288
 21
-78.00000000000034
 31
0.0
  0
LINE
  5
3EF3
330
18
100
AcDbEntity
  8
DRAW2
100
AcDbLine
 10
1195.528486829288
 20
-68.00000000000022
 30
0.0
 11
1205.028486829288
 21
-68.0000000000002
 31
0.0
  0
LINE
  5
3EF4
330
18
100
AcDbEntity
  8
DRAW2
100
AcDbLine
 10
1194.528486829288
 20
-49.69357503463566
 30
0.0
 11
1195.528486829288
 21
-49.69357503463566
 31
0.0
  0
LINE
  5
3EF5
330
18
100
AcDbEntity
  8
DRAW2
100
AcDbLine
 10
1194.528486829288
 20
-57.69357503463567
 30
0.0
 11
1195.528486829288
 21
-57.69357503463567
 31
0.0
  0
LINE
  5
3EF6
330
18
100
AcDbEntity
  8
DRAW2
100
AcDbLine
 10
1194.528486829288
 20
-4.00000000000022
 30
0.0
 11
1195.528486829288
 21
-4.00000000000022
 31
0.0
  0
LINE
  5
3EF7
330
18
100
AcDbEntity
  8
DRAW2
100
AcDbLine
 10
1266.528486829288
 20
-45.19357503463502
 30
0.0
 11
1266.528486829288
 21
-62.19357503463502
 31
0.0
  0
LINE
  5
3EF8
330
18
100
AcDbEntity
  8
DRAW2
100
AcDbLine
 10
1244.528486829288
 20
-64.193575034635
 30
0.0
 11
1244.528486829288
 21
-43.19357503463502
 31
0.0
  0
LINE
  5
3EF9
330
18
100
AcDbEntity
  8
DRAW2
100
AcDbLine
 10
1264.528486829288
 20
-43.19357503463502
 30
0.0
 11
1264.528486829288
 21
-64.193575034635
 31
0.0
  0
LINE
  5
3EFA
330
18
100
AcDbEntity
  8
DRAW2
100
AcDbLine
 10
1234.078486829288
 20
-68.50000000000051
 30
0.0
 11
1262.578486829288
 21
-68.50000000000051
 31
0.0
  0
LINE
  5
3EFC
330
18
100
AcDbEntity
  8
DRAW2
100
AcDbLine
 10
1264.528486829288
 20
-64.193575034635
 30
0.0
 11
1244.528486829288
 21
-64.193575034635
 31
0.0
  0
LINE
  5
3EFD
330
18
100
AcDbEntity
  8
DRAW2
100
AcDbLine
 10
1225.778486829288
 20
-78.00000000000031
 30
0.0
 11
1227.778486829288
 21
-80.00000000000031
 31
0.0
  0
LINE
  5
3EFE
330
18
100
AcDbEntity
  8
DRAW2
100
AcDbLine
 10
1230.028486829288
 20
-68.0000000000002
 30
0.0
 11
1234.528486829288
 21
-68.00000000000022
 31
0.0
  0
LINE
  5
3EFF
330
18
100
AcDbEntity
  8
DRAW2
100
AcDbLine
 10
1234.528486829288
 20
-67.00000000000024
 30
0.0
 11
1244.528486829288
 21
-67.00000000000024
 31
0.0
  0
LINE
  5
3F00
330
18
100
AcDbEntity
  8
DRAW2
100
AcDbLine
 10
1264.578486829288
 20
-70.50000000000051
 30
0.0
 11
1262.578486829288
 21
-68.50000000000051
 31
0.0
  0
LINE
  5
3F01
330
18
100
AcDbEntity
  8
DRAW2
100
AcDbLine
 10
1266.528486829288
 20
-62.19357503463502
 30
0.0
 11
1264.528486829288
 21
-64.193575034635
 31
0.0
  0
LINE
  5
3F02
330
18
100
AcDbEntity
  8
DRAW2
100
AcDbLine
 10
1244.528486829288
 20
-43.19357503463502
 30
0.0
 11
1264.528486829288
 21
-43.19357503463502
 31
0.0
  0
LINE
  5
3F03
330
18
100
AcDbEntity
  8
DRAW2
100
AcDbLine
 10
1264.528486829288
 20
-10.50000000000022
 30
0.0
 11
1244.528486829288
 21
-10.50000000000022
 31
0.0
  0
LINE
  5
3F04
330
18
100
AcDbEntity
  8
DRAW2
100
AcDbLine
 10
1264.528486829288
 20
-43.19357503463502
 30
0.0
 11
1266.528486829288
 21
-45.19357503463502
 31
0.0
  0
LINE
  5
3F05
330
18
100
AcDbEntity
  8
DRAW2
100
AcDbLine
 10
1266.528486829288
 20
-8.500000000000218
 30
0.0
 11
1264.528486829288
 21
-10.50000000000022
 31
0.0
  0
LINE
  5
3F0B
330
18
100
AcDbEntity
  8
DRAW2
100
AcDbLine
 10
1550.028486829288
 20
-134.0
 30
0.0
 11
1538.028486829288
 21
-134.0
 31
0.0
  0
LINE
  5
3F0C
330
18
100
AcDbEntity
  8
DRAW2
100
AcDbLine
 10
1536.028486829288
 20
-132.0
 30
0.0
 11
1552.028486829288
 21
-132.0
 31
0.0
  0
LINE
  5
3F0D
330
18
100
AcDbEntity
  8
DRAW2
100
AcDbLine
 10
1536.028486829288
 20
-115.0000000000001
 30
0.0
 11
1552.028486829288
 21
-115.0000000000001
 31
0.0
  0
LINE
  5
3F0E
330
18
100
AcDbEntity
  8
DRAW2
100
AcDbLine
 10
1592.028486829288
 20
-99.99999999999994
 30
0.0
 11
1452.028486829288
 21
-99.99999999999994
 31
0.0
  0
LINE
  5
3F0F
330
18
100
AcDbEntity
  8
DRAW2
100
AcDbLine
 10
1452.028486829288
 20
-114.9999999999999
 30
0.0
 11
1592.028486829288
 21
-114.9999999999999
 31
0.0
  0
LINE
  5
3F11
330
18
100
AcDbEntity
  8
DRAW2
100
AcDbLine
 10
1553.445042974098
 20
-67.0
 30
0.0
 11
1490.611930684478
 21
-67.0
 31
0.0
  0
CIRCLE
  5
3F12
330
18
100
AcDbEntity
  8
DRAW2
100
AcDbCircle
 10
1553.028486829288
 20
-53.69357503463522
 30
0.0
 40
8.5
  0
CIRCLE
  5
3F13
330
18
100
AcDbEntity
  8
DRAW2
100
AcDbCircle
 10
1553.028486829288
 20
-53.69357503463522
 30
0.0
 40
10.5
  0
LINE
  5
3F15
330
18
100
AcDbEntity
  8
DRAW2
100
AcDbLine
 10
1551.217525867941
 20
-68.0
 30
0.0
 11
1492.839447790635
 21
-68.0
 31
0.0
  0
LINE
  5
3F16
330
18
100
AcDbEntity
  8
DRAW2
100
AcDbLine
 10
1552.028486829288
 20
-68.0
 30
0.0
 11
1492.028486829288
 21
-68.0
 31
0.0
  0
LINE
  5
3F17
330
18
100
AcDbEntity
  8
DRAW2
100
AcDbLine
 10
1552.028486829288
 20
-99.99999999999994
 30
0.0
 11
1492.028486829288
 21
-99.99999999999994
 31
0.0
  0
CIRCLE
  5
3F19
330
18
100
AcDbEntity
  8
DRAW2
100
AcDbCircle
 10
1522.028486829288
 20
-83.99999999999996
 30
0.0
 40
15.5
  0
CIRCLE
  5
3F1A
330
18
100
AcDbEntity
  8
DRAW2
100
AcDbCircle
 10
1522.028486829288
 20
-83.99999999999996
 30
0.0
 40
13.5
  0
LINE
  5
3F1B
330
18
100
AcDbEntity
  8
DRAW2
100
AcDbLine
 10
1461.528486829288
 20
-99.99999999999994
 30
0.0
 11
1461.528486829288
 21
-79.99999999999997
 31
0.0
  0
LINE
  5
3F1C
330
18
100
AcDbEntity
  8
DRAW2
100
AcDbLine
 10
1482.528486829288
 20
-79.99999999999992
 30
0.0
 11
1482.528486829288
 21
-99.99999999999994
 31
0.0
  0
ARC
  5
3F1E
330
18
100
AcDbEntity
  8
DRAW2
100
AcDbCircle
 10
1522.028486829288
 20
-83.99999999999996
 30
0.0
 40
34.0
100
AcDbArc
 50
151.9275130641467
 51
208.072486935853
  0
LINE
  5
3F1F
330
18
100
AcDbEntity
  8
DRAW2
100
AcDbLine
 10
1458.750861670904
 20
-134.9999999999998
 30
0.0
 11
1485.306111987672
 21
-134.9999999999999
 31
0.0
  0
LINE
  5
3F20
330
18
100
AcDbEntity
  8
DRAW2
100
AcDbLine
 10
1454.028486829288
 20
-114.9999999999999
 30
0.0
 11
1456.772988965167
 21
-133.2966809058601
 31
0.0
  0
ARC
  5
3F21
330
18
100
AcDbEntity
  8
DRAW2
100
AcDbCircle
 10
1458.750861670904
 20
-132.9999999999998
 30
0.0
 40
2.0
100
AcDbArc
 50
188.530765609948
 51
270.0
  0
LINE
  5
3F22
330
18
100
AcDbEntity
  8
DRAW2
100
AcDbLine
 10
1457.028486829288
 20
-114.9999999999999
 30
0.0
 11
1457.028486829288
 21
-99.99999999999994
 31
0.0
  0
LINE
  5
3F23
330
18
100
AcDbEntity
  8
DRAW2
100
AcDbLine
 10
1452.028486829288
 20
-99.99999999999994
 30
0.0
 11
1452.028486829288
 21
-114.9999999999999
 31
0.0
  0
LINE
  5
3F24
330
18
100
AcDbEntity
  8
DRAW2
100
AcDbLine
 10
1508.028486829288
 20
-115.0000000000001
 30
0.0
 11
1508.028486829288
 21
-132.0
 31
0.0
  0
LINE
  5
3F25
330
18
100
AcDbEntity
  8
DRAW2
100
AcDbLine
 10
1492.028486829288
 20
-132.0
 30
0.0
 11
1492.028486829288
 21
-115.0000000000001
 31
0.0
  0
LINE
  5
3F27
330
18
100
AcDbEntity
  8
DRAW2
100
AcDbLine
 10
1490.028486829288
 20
-114.9999999999997
 30
0.0
 11
1487.283984693409
 21
-133.2966809058601
 31
0.0
  0
LINE
  5
3F28
330
18
100
AcDbEntity
  8
DRAW2
100
AcDbLine
 10
1506.028486829288
 20
-134.0
 30
0.0
 11
1494.028486829288
 21
-134.0
 31
0.0
  0
LINE
  5
3F29
330
18
100
AcDbEntity
  8
DRAW2
100
AcDbLine
 10
1492.028486829288
 20
-132.0
 30
0.0
 11
1508.028486829288
 21
-132.0
 31
0.0
  0
LINE
  5
3F2A
330
18
100
AcDbEntity
  8
DRAW2
100
AcDbLine
 10
1494.028486829288
 20
-134.0
 30
0.0
 11
1492.028486829288
 21
-132.0
 31
0.0
  0
ARC
  5
3F2B
330
18
100
AcDbEntity
  8
DRAW2
100
AcDbCircle
 10
1485.306111987672
 20
-132.9999999999998
 30
0.0
 40
2.0
100
AcDbArc
 50
270.0
 51
351.4692343900516
  0
LINE
  5
3F2C
330
18
100
AcDbEntity
  8
DRAW2
100
AcDbLine
 10
1506.028486829288
 20
-134.0
 30
0.0
 11
1508.028486829288
 21
-132.0
 31
0.0
  0
LINE
  5
3F2D
330
18
100
AcDbEntity
  8
DRAW2
100
AcDbLine
 10
1492.028486829288
 20
-115.0000000000001
 30
0.0
 11
1508.028486829288
 21
-115.0000000000001
 31
0.0
  0
LINE
  5
3F2E
330
18
100
AcDbEntity
  8
DRAW2
100
AcDbLine
 10
1536.028486829288
 20
-132.0
 30
0.0
 11
1536.028486829288
 21
-115.0000000000001
 31
0.0
  0
LINE
  5
3F30
330
18
100
AcDbEntity
  8
DRAW2
100
AcDbLine
 10
1538.028486829288
 20
-134.0
 30
0.0
 11
1536.028486829288
 21
-132.0
 31
0.0
  0
LINE
  5
3F31
330
18
100
AcDbEntity
  8
DRAW2
100
AcDbLine
 10
1480.528486829288
 20
-77.99999999999993
 30
0.0
 11
1482.528486829288
 21
-79.99999999999992
 31
0.0
  0
LINE
  5
3F32
330
18
100
AcDbEntity
  8
DRAW2
100
AcDbLine
 10
1461.528486829288
 20
-79.99999999999997
 30
0.0
 11
1482.528486829288
 21
-79.99999999999992
 31
0.0
  0
CIRCLE
  5
3F33
330
18
100
AcDbEntity
  8
DRAW2
100
AcDbCircle
 10
1491.028486829288
 20
-53.69357503463501
 30
0.0
 40
10.5
  0
LINE
  5
3F35
330
18
100
AcDbEntity
  8
HIDDEN
100
AcDbLine
 10
1480.011141231012
 20
-51.32074951834785
 30
0.0
 11
1483.137613864028
 21
-54.44722215136414
 31
0.0
  0
LINE
  5
3F36
330
18
100
AcDbEntity
  8
HIDDEN
100
AcDbLine
 10
1475.938780695637
 20
-38.74896547311077
 30
0.0
 11
1483.279521356177
 21
-46.08970613365126
 31
0.0
  0
ARC
  5
3F37
330
18
100
AcDbEntity
  8
HIDDEN
100
AcDbCircle
 10
1483.482134372114
 20
-38.54635245717364
 30
0.0
 40
6.5
100
AcDbArc
 50
192.4210296071963
 51
257.5789703928049
  0
LINE
  5
3F38
330
18
100
AcDbEntity
  8
HIDDEN
100
AcDbLine
 10
1477.277952550856
 20
-54.23027295206138
 30
0.0
 11
1483.306438939604
 21
-47.81285195758793
 31
0.0
  0
LINE
  5
3F39
330
18
100
AcDbEntity
  8
HIDDEN
100
AcDbLine
 10
1476.67266914616
 20
-53.6249895473657
 30
0.0
 11
1483.287237730093
 21
-46.58367460317974
 31
0.0
  0
LINE
  5
3F3A
330
18
100
AcDbEntity
  8
HIDDEN
100
AcDbLine
 10
1476.504952397919
 20
-37.74535983831526
 30
0.0
 11
1482.076953692248
 21
-32.17335854398788
 31
0.0
  0
LINE
  5
3F3B
330
18
100
AcDbEntity
  8
HIDDEN
100
AcDbLine
 10
1477.562253666647
 20
-35.57825446767697
 30
0.0
 11
1486.450232361611
 21
-44.46623316264015
 31
0.0
  0
LINE
  5
3F3C
330
18
100
AcDbEntity
  8
HIDDEN
100
AcDbLine
 10
1478.062096490359
 20
-59.52273952503303
 30
0.0
 11
1483.137613864028
 21
-54.44722215136426
 31
0.0
  0
ARC
  5
3F3F
330
18
100
AcDbEntity
  8
HIDDEN
100
AcDbCircle
 10
1464.546582217659
 20
-57.48190461162949
 30
0.0
 40
15.5
100
AcDbArc
 50
27.73604367718188
 51
62.26395632281742
  0
LINE
  5
3F40
330
18
100
AcDbEntity
  8
HIDDEN
100
AcDbLine
 10
1467.798213877227
 20
-44.75053427843156
 30
0.0
 11
1477.277952550856
 21
-54.23027295206138
 31
0.0
  0
LINE
  5
3F41
330
18
100
AcDbEntity
  8
DRAW2
100
AcDbLine
 10
1463.528486829288
 20
-77.99999999999997
 30
0.0
 11
1480.528486829288
 21
-77.99999999999993
 31
0.0
  0
LINE
  5
3F42
330
18
100
AcDbEntity
  8
DRAW2
100
AcDbLine
 10
1461.528486829288
 20
-79.99999999999997
 30
0.0
 11
1463.528486829288
 21
-77.99999999999997
 31
0.0
  0
LINE
  5
3F43
330
18
100
AcDbEntity
  8
HIDDEN
100
AcDbLine
 10
1475.7907744075
 20
-52.7430948087046
 30
0.0
 11
1478.26564814165
 21
-50.26822107455171
 31
0.0
  0
LINE
  5
3F44
330
18
100
AcDbEntity
  8
HIDDEN
100
AcDbLine
 10
1480.011141235429
 20
-51.32074952276724
 30
0.0
 11
1480.011141235429
 21
-50.07113217113744
 31
0.0
  0
LINE
  5
3F45
330
18
100
AcDbEntity
  8
HIDDEN
100
AcDbLine
 10
1462.505747304255
 20
-43.96639033892896
 30
0.0
 11
1467.581264677924
 21
-38.89087296526009
 31
0.0
  0
LINE
  5
3F46
330
18
100
AcDbEntity
  8
HIDDEN
100
AcDbLine
 10
1467.798213877227
 20
-44.75053427843156
 30
0.0
 11
1474.2156348717
 21
-38.72204788968371
 31
0.0
  0
LINE
  5
3F47
330
18
100
AcDbEntity
  8
HIDDEN
100
AcDbLine
 10
1468.403497281921
 20
-45.35581768312726
 30
0.0
 11
1475.444812226109
 21
-38.741249099195
 31
0.0
  0
LINE
  5
3F48
330
18
100
AcDbEntity
  8
HIDDEN
100
AcDbLine
 10
1474.2156348717
 20
-38.72204788968371
 30
0.0
 11
1475.938780695637
 21
-38.74896547311077
 31
0.0
  0
LINE
  5
3F49
330
18
100
AcDbEntity
  8
HIDDEN
100
AcDbLine
 10
1470.707737306518
 20
-42.01734559385696
 30
0.0
 11
1471.957354658151
 21
-42.01734559385696
 31
0.0
  0
LINE
  5
3F4A
330
18
100
AcDbEntity
  8
HIDDEN
100
AcDbLine
 10
1469.285392020584
 20
-46.23771242178835
 30
0.0
 11
1471.760265754737
 21
-43.76283868763546
 31
0.0
  0
LINE
  5
3F4B
330
18
100
AcDbEntity
  8
HIDDEN
100
AcDbLine
 10
1479.078274263082
 20
-35.17203797315335
 30
0.0
 11
1477.562253666647
 21
-35.57825446767697
 31
0.0
  0
LINE
  5
3F4C
330
18
100
AcDbEntity
  8
HIDDEN
100
AcDbLine
 10
1470.707737306521
 20
-42.01734559385696
 30
0.0
 11
1471.957354658151
 21
-42.01734559385696
 31
0.0
  0
LINE
  5
3F4D
330
18
100
AcDbEntity
  8
HIDDEN
100
AcDbLine
 10
1474.2156348717
 20
-38.72204788968371
 30
0.0
 11
1477.562253666647
 21
-35.57825446767697
 31
0.0
  0
LINE
  5
3F4E
330
18
100
AcDbEntity
  8
HIDDEN
100
AcDbLine
 10
1475.444812217134
 20
-38.74124909905482
 30
0.0
 11
1476.504952397919
 21
-37.74535983831583
 31
0.0
  0
LINE
  5
3F4F
330
18
100
AcDbEntity
  8
HIDDEN
100
AcDbLine
 10
1467.581264677924
 20
-38.89087296526009
 30
0.0
 11
1470.70773731094
 21
-42.01734559827642
 31
0.0
  0
CIRCLE
  5
3F50
330
18
100
AcDbEntity
  8
DRAW2
100
AcDbCircle
 10
1491.028486829288
 20
-53.69357503463501
 30
0.0
 40
8.5
  0
LINE
  5
3F52
330
18
100
AcDbEntity
  8
HIDDEN
100
AcDbLine
 10
1483.306438939604
 20
-47.81285195758793
 30
0.0
 11
1483.279521356177
 21
-46.08970613365126
 31
0.0
  0
LINE
  5
3F53
330
18
100
AcDbEntity
  8
HIDDEN
100
AcDbLine
 10
1483.306438939604
 20
-47.81285195758793
 30
0.0
 11
1486.450232361611
 21
-44.46623316264015
 31
0.0
  0
LINE
  5
3F54
330
18
100
AcDbEntity
  8
HIDDEN
100
AcDbLine
 10
1483.287237730231
 20
-46.58367461215467
 30
0.0
 11
1484.283126990971
 21
-45.52353443136881
 31
0.0
  0
ARC
  5
3F55
330
18
100
AcDbEntity
  8
DRAW2
100
AcDbCircle
 10
1522.028486829288
 20
0.0
 30
0.0
 40
74.0
100
AcDbArc
 50
244.8779398133679
 51
246.76854349499
  0
CIRCLE
  5
3F56
330
18
100
AcDbEntity
  8
DRAW3
100
AcDbCircle
 10
1522.028486829288
 20
-83.99999999999996
 30
0.0
 40
8.331000000000017
  0
CIRCLE
  5
3F57
330
18
100
AcDbEntity
  8
DRAW2
100
AcDbCircle
 10
1522.028486829288
 20
-83.99999999999996
 30
0.0
 40
7.447387096774207
  0
CIRCLE
  5
3F58
330
18
100
AcDbEntity
  8
HIDDEN
100
AcDbCircle
 10
1495.865535925386
 20
-26.16295090390224
 30
0.0
 40
4.0
  0
LINE
  5
3F5A
330
18
100
AcDbEntity
  8
HIDDEN
100
AcDbLine
 10
1489.406840549215
 20
-38.27850052956431
 30
0.0
 11
1498.693963050132
 21
-28.99137802864844
 31
0.0
  0
LINE
  5
3F5B
330
18
100
AcDbEntity
  8
HIDDEN
100
AcDbLine
 10
1483.749986299724
 20
-32.6216462800719
 30
0.0
 11
1489.406840549215
 21
-38.27850052956431
 31
0.0
  0
LINE
  5
3F5C
330
18
100
AcDbEntity
  8
HIDDEN
100
AcDbLine
 10
1483.749986299724
 20
-32.6216462800719
 30
0.0
 11
1493.037108800639
 21
-23.33452377915603
 31
0.0
  0
LINE
  5
3F5D
330
18
100
AcDbEntity
  8
HIDDEN
100
AcDbLine
 10
1489.406840549215
 20
-38.27850052956431
 30
0.0
 11
1489.8551282853
 21
-39.95153313703996
 31
0.0
  0
LINE
  5
3F5E
330
18
100
AcDbEntity
  8
HIDDEN
100
AcDbLine
 10
1482.076953692248
 20
-32.17335854398788
 30
0.0
 11
1483.749986299724
 21
-32.6216462800719
 31
0.0
  0
LINE
  5
3F5F
330
18
100
AcDbEntity
  8
HIDDEN
100
AcDbLine
 10
1482.076953692248
 20
-32.17335854398788
 30
0.0
 11
1489.8551282853
 21
-39.95153313703996
 31
0.0
  0
LINE
  5
3F60
330
18
100
AcDbEntity
  8
HIDDEN
100
AcDbLine
 10
1484.283126990971
 20
-45.52353443136865
 30
0.0
 11
1489.8551282853
 21
-39.9515331370399
 31
0.0
  0
LINE
  5
3F61
330
18
100
AcDbEntity
  8
HIDDEN
100
AcDbLine
 10
1486.856448856133
 20
-42.95021256620542
 30
0.0
 11
1486.450232361611
 21
-44.46623316264015
 31
0.0
  0
LINE
  5
3F62
330
18
100
AcDbEntity
  8
DRAW2
100
AcDbLine
 10
1561.528486829288
 20
-99.99999999999994
 30
0.0
 11
1561.528486829288
 21
-79.99999999999997
 31
0.0
  0
LINE
  5
3F63
330
18
100
AcDbEntity
  8
DRAW2
100
AcDbLine
 10
1582.528486829288
 20
-79.99999999999992
 30
0.0
 11
1582.528486829288
 21
-99.99999999999994
 31
0.0
  0
ARC
  5
3F65
330
18
100
AcDbEntity
  8
DRAW2
100
AcDbCircle
 10
1522.028486829288
 20
-83.99999999999996
 30
0.0
 40
34.0
100
AcDbArc
 50
331.9275130641468
 51
28.07248693585305
  0
LINE
  5
3F66
330
18
100
AcDbEntity
  8
DRAW2
100
AcDbLine
 10
1582.528486829288
 20
-99.99999999999994
 30
0.0
 11
1561.528486829288
 21
-99.99999999999994
 31
0.0
  0
LINE
  5
3F67
330
18
100
AcDbEntity
  8
DRAW2
100
AcDbLine
 10
1558.750861670904
 20
-134.9999999999998
 30
0.0
 11
1585.306111987672
 21
-134.9999999999999
 31
0.0
  0
LINE
  5
3F68
330
18
100
AcDbEntity
  8
DRAW2
100
AcDbLine
 10
1590.028486829288
 20
-114.9999999999997
 30
0.0
 11
1554.028486829288
 21
-114.9999999999999
 31
0.0
  0
LINE
  5
3F69
330
18
100
AcDbEntity
  8
DRAW2
100
AcDbLine
 10
1552.028486829288
 20
-115.0000000000001
 30
0.0
 11
1552.028486829288
 21
-132.0
 31
0.0
  0
LINE
  5
3F6A
330
18
100
AcDbEntity
  8
DRAW2
100
AcDbLine
 10
1554.028486829288
 20
-114.9999999999999
 30
0.0
 11
1556.772988965167
 21
-133.2966809058601
 31
0.0
  0
LINE
  5
3F6B
330
18
100
AcDbEntity
  8
DRAW2
100
AcDbLine
 10
1550.028486829288
 20
-134.0
 30
0.0
 11
1552.028486829288
 21
-132.0
 31
0.0
  0
ARC
  5
3F6C
330
18
100
AcDbEntity
  8
DRAW2
100
AcDbCircle
 10
1558.750861670904
 20
-132.9999999999998
 30
0.0
 40
2.0
100
AcDbArc
 50
188.530765609948
 51
270.0
  0
LINE
  5
3F6E
330
18
100
AcDbEntity
  8
DRAW2
100
AcDbLine
 10
1590.028486829288
 20
-114.9999999999997
 30
0.0
 11
1587.283984693409
 21
-133.2966809058601
 31
0.0
  0
ARC
  5
3F6F
330
18
100
AcDbEntity
  8
DRAW2
100
AcDbCircle
 10
1585.306111987672
 20
-132.9999999999998
 30
0.0
 40
2.0
100
AcDbArc
 50
270.0
 51
351.4692343900516
  0
LINE
  5
3F70
330
18
100
AcDbEntity
  8
DRAW2
100
AcDbLine
 10
1587.028486829288
 20
-114.9999999999999
 30
0.0
 11
1587.028486829288
 21
-99.99999999999994
 31
0.0
  0
LINE
  5
3F71
330
18
100
AcDbEntity
  8
DRAW2
100
AcDbLine
 10
1592.028486829288
 20
-114.9999999999999
 30
0.0
 11
1592.028486829288
 21
-99.99999999999994
 31
0.0
  0
LINE
  5
3F72
330
18
100
AcDbEntity
  8
DRAW2
100
AcDbLine
 10
1609.712616067749
 20
-36.42649390631266
 30
0.0
 11
1613.176696878298
 21
-38.4264633887345
 31
0.0
  0
LINE
  5
3F73
330
18
100
AcDbEntity
  8
DRAW2
100
AcDbLine
 10
1606.943145852907
 20
-63.22355201178137
 30
0.0
 11
1611.966095071657
 21
-54.52366187506264
 31
0.0
  0
LINE
  5
3F74
330
18
100
AcDbEntity
  8
DRAW2
100
AcDbLine
 10
1608.501907449587
 20
-52.52357032232828
 30
0.0
 11
1611.966003518923
 21
-54.52357032232839
 31
0.0
  0
LINE
  5
3F75
330
18
100
AcDbEntity
  8
DRAW2
100
AcDbLine
 10
1609.541153055056
 20
-64.72339942389078
 30
0.0
 11
1613.005355935914
 21
-66.72346045904693
 31
0.0
  0
LINE
  5
3F76
330
18
100
AcDbEntity
  8
DRAW2
100
AcDbLine
 10
1613.176757913455
 20
-38.42655494146892
 30
0.0
 11
1608.153839212282
 21
-47.12650611334384
 31
0.0
  0
LINE
  5
3F77
330
18
100
AcDbEntity
  8
DRAW2
100
AcDbLine
 10
1615.774856668337
 20
-39.92652442389088
 30
0.0
 11
1610.751907449587
 21
-48.62650611334388
 31
0.0
  0
LINE
  5
3F78
330
18
100
AcDbEntity
  8
DRAW2
100
AcDbLine
 10
1610.751876932009
 20
-48.6263840430313
 30
0.0
 11
1614.215973001345
 21
-50.62638404303143
 31
0.0
  0
LINE
  5
3F79
330
18
100
AcDbEntity
  8
DRAW2
100
AcDbLine
 10
1609.541229349
 20
-64.72361304693769
 30
0.0
 11
1614.564102273805
 21
-56.02363135748446
 31
0.0
  0
LINE
  5
3F7A
330
18
100
AcDbEntity
  8
DRAW2
100
AcDbLine
 10
1610.817260843142
 20
-62.51319434576586
 30
0.0
 11
1614.281326394899
 21
-64.5131333106095
 31
0.0
  0
LINE
  5
3F7B
330
18
100
AcDbEntity
  8
DRAW2
100
AcDbLine
 10
1578.943455139172
 20
-47.2936188326179
 30
0.0
 11
1624.594482522828
 21
-73.65024878912506
 31
0.0
  0
LINE
  5
3F7C
330
18
100
AcDbEntity
  8
DRAW2
100
AcDbLine
 10
1591.443440471292
 20
-25.64301485548166
 30
0.0
 11
1637.094543557984
 21
-51.99967505865632
 31
0.0
  0
LINE
  5
3F7E
330
18
100
AcDbEntity
  8
DRAW2
100
AcDbLine
 10
1591.354721170288
 20
-54.22355201178143
 30
0.0
 11
1596.377670389039
 21
-45.52363135748445
 31
0.0
  0
LINE
  5
3F7F
330
18
100
AcDbEntity
  8
DRAW2
100
AcDbLine
 10
1596.377548318728
 20
-45.52357032232831
 30
0.0
 11
1599.841659646853
 21
-47.52357032232835
 31
0.0
  0
LINE
  5
3F80
330
18
100
AcDbEntity
  8
DRAW2
100
AcDbLine
 10
1604.68969736658
 20
-45.12638404303142
 30
0.0
 11
1608.153793435914
 21
-47.12638404303134
 31
0.0
  0
LINE
  5
3F81
330
18
100
AcDbEntity
  8
DRAW2
100
AcDbLine
 10
1588.756654429255
 20
-52.7234783090304
 30
0.0
 11
1593.779464822634
 21
-44.0236313574845
 31
0.0
  0
LINE
  5
3F82
330
18
100
AcDbEntity
  8
DRAW2
100
AcDbLine
 10
1585.292480569703
 20
-50.72355201178137
 30
0.0
 11
1590.315429788454
 21
-42.02363135748458
 31
0.0
  0
LINE
  5
3F83
330
18
100
AcDbEntity
  8
DRAW2
100
AcDbLine
 10
1579.230346780642
 20
-47.2235825293596
 30
0.0
 11
1579.786551240846
 21
-46.26019882610029
 31
0.0
  0
LINE
  5
3F84
330
18
100
AcDbEntity
  8
DRAW2
100
AcDbLine
 10
1582.694442849978
 20
-49.22355201178138
 30
0.0
 11
1587.717376809939
 21
-40.52363135748449
 31
0.0
  0
LINE
  5
3F85
330
18
100
AcDbEntity
  8
DRAW2
100
AcDbLine
 10
1581.005482489651
 20
-45.30143832235788
 30
0.0
 11
1583.970550638064
 21
-47.01331641607832
 31
0.0
  0
LINE
  5
3F87
330
18
100
AcDbEntity
  8
DRAW2
100
AcDbLine
 10
1561.528486829288
 20
-79.99999999999997
 30
0.0
 11
1582.528486829288
 21
-79.99999999999992
 31
0.0
  0
LINE
  5
3F88
330
18
100
AcDbEntity
  8
DRAW2
100
AcDbLine
 10
1563.528486829288
 20
-77.99999999999997
 30
0.0
 11
1580.528486829288
 21
-77.99999999999993
 31
0.0
  0
LINE
  5
3F89
330
18
100
AcDbEntity
  8
DRAW2
100
AcDbLine
 10
1561.528486829288
 20
-79.99999999999997
 30
0.0
 11
1563.528486829288
 21
-77.99999999999997
 31
0.0
  0
ARC
  5
3F8A
330
18
100
AcDbEntity
  8
DRAW2
100
AcDbCircle
 10
1522.028486829288
 20
0.0
 30
0.0
 40
74.0
100
AcDbArc
 50
293.2314565050098
 51
295.1220601866318
  0
LINE
  5
3F8B
330
18
100
AcDbEntity
  8
DRAW2
100
AcDbLine
 10
1580.528486829288
 20
-77.99999999999993
 30
0.0
 11
1582.528486829288
 21
-79.99999999999992
 31
0.0
  0
LINE
  5
3F8C
330
18
100
AcDbEntity
  8
DRAW2
100
AcDbLine
 10
1592.630691629274
 20
-52.01325538092203
 30
0.0
 11
1596.094818216188
 21
-54.01331641607828
 31
0.0
  0
LINE
  5
3F8D
330
18
100
AcDbEntity
  8
DRAW2
100
AcDbLine
 10
1594.818710428103
 20
-56.22352149420326
 30
0.0
 11
1599.841598611694
 21
-47.52363135748459
 31
0.0
  0
LINE
  5
3F8E
330
18
100
AcDbEntity
  8
DRAW2
100
AcDbLine
 10
1591.354644876345
 20
-54.22342994146886
 30
0.0
 11
1594.818695169314
 21
-56.22342994146893
 31
0.0
  0
LINE
  5
3F8F
330
18
100
AcDbEntity
  8
DRAW2
100
AcDbLine
 10
1586.568512063845
 20
-48.51319434576579
 30
0.0
 11
1590.032653909548
 21
-50.51316382818768
 31
0.0
  0
LINE
  5
3F90
330
18
100
AcDbEntity
  8
DRAW2
100
AcDbLine
 10
1585.292526346069
 20
-50.72342994146886
 30
0.0
 11
1588.756654429255
 21
-52.7234783090304
 31
0.0
  0
LINE
  5
3F91
330
18
100
AcDbEntity
  8
DRAW2
100
AcDbLine
 10
1579.230362039431
 20
-47.22364356451584
 30
0.0
 11
1582.694381814819
 21
-49.22358252935951
 31
0.0
  0
LINE
  5
3F92
330
18
100
AcDbEntity
  8
DRAW2
100
AcDbLine
 10
1603.478897195681
 20
-61.22355201178138
 30
0.0
 11
1608.501785379274
 21
-52.52357032232832
 31
0.0
  0
LINE
  5
3F93
330
18
100
AcDbEntity
  8
DRAW2
100
AcDbLine
 10
1597.416870218142
 20
-57.72361304693757
 30
0.0
 11
1600.880981546267
 21
-59.72361304693762
 31
0.0
  0
LINE
  5
3F94
330
18
100
AcDbEntity
  8
DRAW2
100
AcDbLine
 10
1600.88092051111
 20
-59.72355201178135
 30
0.0
 11
1605.903793435915
 21
-51.02360083990635
 31
0.0
  0
LINE
  5
3F95
330
18
100
AcDbEntity
  8
DRAW2
100
AcDbLine
 10
1604.755157571657
 20
-59.01334693365638
 30
0.0
 11
1608.219146829469
 21
-61.01328589850018
 31
0.0
  0
LINE
  5
3F96
330
18
100
AcDbEntity
  8
DRAW2
100
AcDbLine
 10
1603.478988748414
 20
-61.22346045904706
 30
0.0
 11
1606.943069558962
 21
-63.2234299414689
 31
0.0
  0
LINE
  5
3F97
330
18
100
AcDbEntity
  8
DRAW2
100
AcDbLine
 10
1602.439727884156
 20
-49.02357032232828
 30
0.0
 11
1605.903839212282
 21
-51.02357032232823
 31
0.0
  0
LINE
  5
3F98
330
18
100
AcDbEntity
  8
DRAW2
100
AcDbLine
 10
1597.416809182985
 20
-57.72358252935953
 30
0.0
 11
1602.439712625368
 21
-49.0236313574845
 31
0.0
  0
LINE
  5
3F99
330
18
100
AcDbEntity
  8
DRAW2
100
AcDbLine
 10
1598.693023782595
 20
-55.51322486334391
 30
0.0
 11
1602.157089334353
 21
-57.51322486334387
 31
0.0
  0
LINE
  5
3F9B
330
18
100
AcDbEntity
  8
DRAW2
100
AcDbLine
 10
1592.56533823572
 20
-38.12638404303136
 30
0.0
 11
1596.029434305056
 21
-40.12638404303133
 31
0.0
  0
LINE
  5
3F9C
330
18
100
AcDbEntity
  8
DRAW2
100
AcDbLine
 10
1597.588379007204
 20
-29.42652442389084
 30
0.0
 11
1592.565475564819
 21
-38.12647559576582
 31
0.0
  0
LINE
  5
3F9D
330
18
100
AcDbEntity
  8
DRAW2
100
AcDbLine
 10
1590.315368753298
 20
-42.02357032232828
 30
0.0
 11
1593.779480081423
 21
-44.02357032232829
 31
0.0
  0
LINE
  5
3F9E
330
18
100
AcDbEntity
  8
DRAW2
100
AcDbLine
 10
1591.526123147828
 20
-25.92655494146884
 30
0.0
 11
1590.970157196187
 21
-26.88951630323385
 31
0.0
  0
LINE
  5
3F9F
330
18
100
AcDbEntity
  8
DRAW2
100
AcDbLine
 10
1594.990249734743
 20
-27.92655494146889
 30
0.0
 11
1589.967346292359
 21
-36.62647559576582
 31
0.0
  0
LINE
  5
3FA0
330
18
100
AcDbEntity
  8
DRAW2
100
AcDbLine
 10
1591.526062112673
 20
-25.92646338873448
 30
0.0
 11
1594.990158182009
 21
-27.92646338873444
 31
0.0
  0
LINE
  5
3FA1
330
18
100
AcDbEntity
  8
DRAW2
100
AcDbLine
 10
1587.209739902704
 20
-35.03432956086425
 30
0.0
 11
1589.967254739625
 21
-36.62638404303136
 31
0.0
  0
LINE
  5
3FA2
330
18
100
AcDbEntity
  8
DRAW2
100
AcDbLine
 10
1590.428217556022
 20
-28.23963237208035
 30
0.0
 11
1593.7140809115
 21
-30.13672950201585
 31
0.0
  0
LINE
  5
3FA3
330
18
100
AcDbEntity
  8
DRAW2
100
AcDbLine
 10
1584.959721161234
 20
-38.93147499720118
 30
0.0
 11
1587.717331033569
 21
-40.52357032232835
 31
0.0
  0
LINE
  5
3FA4
330
18
100
AcDbEntity
  8
DRAW2
100
AcDbLine
 10
1608.436508279664
 20
-38.63672950201577
 30
0.0
 11
1611.900619607789
 21
-40.63672950201572
 31
0.0
  0
LINE
  5
3FA5
330
18
100
AcDbEntity
  8
DRAW2
100
AcDbLine
 10
1607.114563089234
 20
-34.92652442389084
 30
0.0
 11
1602.091659646852
 21
-43.62644507818766
 31
0.0
  0
LINE
  5
3FA6
330
18
100
AcDbEntity
  8
DRAW2
100
AcDbLine
 10
1598.627517801149
 20
-41.62638404303139
 30
0.0
 11
1602.091613870484
 21
-43.62638404303146
 31
0.0
  0
LINE
  5
3FA7
330
18
100
AcDbEntity
  8
DRAW2
100
AcDbLine
 10
1602.374328714236
 20
-35.13672950201589
 30
0.0
 11
1605.83844004236
 21
-37.13672950201585
 31
0.0
  0
LINE
  5
3FA8
330
18
100
AcDbEntity
  8
DRAW2
100
AcDbLine
 10
1603.650451761111
 20
-32.92649390631257
 30
0.0
 11
1607.114517312868
 21
-34.92646338873444
 31
0.0
  0
LINE
  5
3FA9
330
18
100
AcDbEntity
  8
DRAW2
100
AcDbLine
 10
1603.6504670199
 20
-32.92655494146877
 30
0.0
 11
1598.627548318728
 21
-41.62653663092203
 31
0.0
  0
LINE
  5
3FAA
330
18
100
AcDbEntity
  8
DRAW2
100
AcDbLine
 10
1609.712692361696
 20
-36.42655494146889
 30
0.0
 11
1604.689773660525
 21
-45.12650611334378
 31
0.0
  0
LINE
  5
3FAB
330
18
100
AcDbEntity
  8
DRAW2
100
AcDbLine
 10
1597.588241678103
 20
-29.4264633887346
 30
0.0
 11
1601.052375620519
 21
-31.42648525480318
 31
0.0
  0
LINE
  5
3FAC
330
18
100
AcDbEntity
  8
DRAW2
100
AcDbLine
 10
1596.312149148806
 20
-31.63672950201577
 30
0.0
 11
1599.776260476931
 21
-33.63672950201571
 31
0.0
  0
LINE
  5
3FAD
330
18
100
AcDbEntity
  8
DRAW2
100
AcDbLine
 10
1601.052375620519
 20
-31.42648525480318
 30
0.0
 11
1596.029449563845
 21
-40.1264450781876
 31
0.0
  0
LINE
  5
3FAE
330
18
100
AcDbEntity
  8
DRAW2
100
AcDbLine
 10
1619.238937478884
 20
-41.92655494146889
 30
0.0
 11
1614.216034036501
 21
-50.62647559576578
 31
0.0
  0
LINE
  5
3FAF
330
18
100
AcDbEntity
  8
DRAW2
100
AcDbLine
 10
1625.301101785525
 20
-45.42649390631264
 30
0.0
 11
1620.278183084352
 21
-54.12644507818761
 31
0.0
  0
LINE
  5
3FB0
330
18
100
AcDbEntity
  8
DRAW2
100
AcDbLine
 10
1621.837005716188
 20
-43.42649390631261
 30
0.0
 11
1616.814087015017
 21
-52.12644507818761
 31
0.0
  0
LINE
  5
3FB1
330
18
100
AcDbEntity
  8
DRAW2
100
AcDbLine
 10
1620.560836892945
 20
-45.63669898443758
 30
0.0
 11
1624.02494822107
 21
-47.63669898443757
 31
0.0
  0
LINE
  5
3FB2
330
18
100
AcDbEntity
  8
DRAW2
100
AcDbLine
 10
1619.067382913454
 20
-70.22352149420337
 30
0.0
 11
1624.090271097048
 21
-61.52357032232837
 31
0.0
  0
LINE
  5
3FB3
330
18
100
AcDbEntity
  8
DRAW2
100
AcDbLine
 10
1637.094589334352
 20
-51.99973609381252
 30
0.0
 11
1624.594574075563
 21
-73.65037085943763
 31
0.0
  0
LINE
  5
3FB4
330
18
100
AcDbEntity
  8
DRAW2
100
AcDbLine
 10
1637.460571390016
 20
-53.3657028906877
 30
0.0
 11
1625.960586648806
 21
-73.28425147467189
 31
0.0
  0
LINE
  5
3FB5
330
18
100
AcDbEntity
  8
DRAW2
100
AcDbLine
 10
1615.603363138063
 20
-68.22346045904703
 30
0.0
 11
1619.067459207399
 21
-70.22346045904702
 31
0.0
  0
LINE
  5
3FB6
330
18
100
AcDbEntity
  8
DRAW2
100
AcDbLine
 10
1624.594497781617
 20
-73.65024878912499
 30
0.0
 11
1625.960556131228
 21
-73.28422095709393
 31
0.0
  0
LINE
  5
3FB7
330
18
100
AcDbEntity
  8
DRAW2
100
AcDbLine
 10
1627.899124246462
 20
-46.9264633887344
 30
0.0
 11
1631.363235574587
 21
-48.92646338873451
 31
0.0
  0
LINE
  5
3FB8
330
18
100
AcDbEntity
  8
DRAW2
100
AcDbLine
 10
1626.623016458375
 20
-49.1366989844376
 30
0.0
 11
1630.0871277865
 21
-51.13669898443768
 31
0.0
  0
LINE
  5
3FB9
330
18
100
AcDbEntity
  8
DRAW2
100
AcDbLine
 10
1631.363281350955
 20
-48.92655494146889
 30
0.0
 11
1626.340362649782
 21
-57.62650611334385
 31
0.0
  0
LINE
  5
3FBA
330
18
100
AcDbEntity
  8
DRAW2
100
AcDbLine
 10
1615.603378396852
 20
-68.22358252935948
 30
0.0
 11
1620.626281839235
 21
-59.52363135748453
 31
0.0
  0
LINE
  5
3FBB
330
18
100
AcDbEntity
  8
DRAW2
100
AcDbLine
 10
1616.879486184938
 20
-66.01322486334389
 30
0.0
 11
1620.34362803064
 21
-68.01322486334389
 31
0.0
  0
LINE
  5
3FBC
330
18
100
AcDbEntity
  8
DRAW2
100
AcDbLine
 10
1627.899246316775
 20
-46.92652442389088
 30
0.0
 11
1622.876342874392
 21
-55.6264450781876
 31
0.0
  0
LINE
  5
3FBD
330
18
100
AcDbEntity
  8
DRAW2
100
AcDbLine
 10
1622.876205545288
 20
-55.62638404303143
 30
0.0
 11
1626.340301614626
 21
-57.62638404303139
 31
0.0
  0
LINE
  5
3FBE
330
18
100
AcDbEntity
  8
DRAW2
100
AcDbLine
 10
1616.814025979859
 20
-52.12638404303135
 30
0.0
 11
1620.278122049196
 21
-54.1263840430313
 31
0.0
  0
LINE
  5
3FBF
330
18
100
AcDbEntity
  8
DRAW2
100
AcDbLine
 10
1614.564087015017
 20
-56.02357032232837
 30
0.0
 11
1618.028213601931
 21
-58.02357032232825
 31
0.0
  0
LINE
  5
3FC0
330
18
100
AcDbEntity
  8
DRAW2
100
AcDbLine
 10
1620.626266580446
 20
-59.52357032232839
 30
0.0
 11
1624.090393167358
 21
-61.52357032232838
 31
0.0
  0
LINE
  5
3FC1
330
18
100
AcDbEntity
  8
DRAW2
100
AcDbLine
 10
1613.005249124392
 20
-66.72355201178127
 30
0.0
 11
1618.028183084352
 21
-58.02366187506253
 31
0.0
  0
LINE
  5
3FC2
330
18
100
AcDbEntity
  8
DRAW2
100
AcDbLine
 10
1637.094589334352
 20
-51.99973609381252
 30
0.0
 11
1637.460632425173
 21
-53.36576392584383
 31
0.0
  0
LINE
  5
3FC3
330
18
100
AcDbEntity
  8
DRAW2
100
AcDbLine
 10
1615.774795633181
 20
-39.92649390631253
 30
0.0
 11
1619.238906961306
 21
-41.9264939063126
 31
0.0
  0
LINE
  5
3FC4
330
18
100
AcDbEntity
  8
DRAW2
100
AcDbLine
 10
1614.498687845095
 20
-42.13672950201586
 30
0.0
 11
1617.962783914431
 21
-44.13672950201582
 31
0.0
  0
LINE
  5
3FC5
330
18
100
AcDbEntity
  8
DRAW2
100
AcDbLine
 10
1621.836929422243
 20
-43.42646338873453
 30
0.0
 11
1625.301056009157
 21
-45.42646338873446
 31
0.0
  0
LINE
  5
3FC6
330
18
100
AcDbEntity
  8
DRAW2
100
AcDbLine
 10
1266.528486829288
 20
376.4039493392203
 30
0.0
 11
1266.528486829288
 21
359.4039493392202
 31
0.0
  0
LINE
  5
3FC7
330
18
100
AcDbEntity
  8
DRAW2
100
AcDbLine
 10
1264.528486829288
 20
378.4039493392203
 30
0.0
 11
1264.528486829288
 21
357.4039493392202
 31
0.0
  0
LINE
  5
3FC8
330
18
100
AcDbEntity
  8
DRAW2
100
AcDbLine
 10
1244.528486829288
 20
357.4039493392202
 30
0.0
 11
1244.528486829288
 21
378.4039493392203
 31
0.0
  0
LINE
  5
3FC9
330
18
100
AcDbEntity
  8
DRAW2
100
AcDbLine
 10
1195.528486829288
 20
410.9039493392205
 30
0.0
 11
1195.528486829288
 21
370.9039493392205
 31
0.0
  0
LINE
  5
3FCA
330
18
100
AcDbEntity
  8
DRAW2
100
AcDbLine
 10
1244.528486829288
 20
410.9039493392205
 30
0.0
 11
1244.528486829288
 21
262.9039493392204
 31
0.0
  0
LINE
  5
3FCB
330
18
100
AcDbEntity
  8
DRAW2
100
AcDbLine
 10
1234.528486829288
 20
410.9039493392205
 30
0.0
 11
1234.528486829288
 21
262.9039493392204
 31
0.0
  0
LINE
  5
3FCC
330
18
100
AcDbEntity
  8
DRAW2
100
AcDbLine
 10
1234.528486829288
 20
410.9039493392205
 30
0.0
 11
1234.528486829288
 21
262.9039493392204
 31
0.0
  0
LINE
  5
3FCD
330
18
100
AcDbEntity
  8
DRAW2
100
AcDbLine
 10
1194.528486829288
 20
410.9039493392205
 30
0.0
 11
1194.528486829288
 21
262.9039493392204
 31
0.0
  0
LINE
  5
3FD0
330
18
100
AcDbEntity
  8
DRAW2
100
AcDbLine
 10
1262.578486829288
 20
99.4999999999997
 30
0.0
 11
1262.578486829288
 21
68.49999999999969
 31
0.0
  0
LINE
  5
3FD1
330
18
100
AcDbEntity
  8
DRAW2
100
AcDbLine
 10
1234.078486829288
 20
99.99999999999971
 30
0.0
 11
1234.078486829288
 21
67.99999999999967
 31
0.0
  0
LINE
  5
3FD2
330
18
100
AcDbEntity
  8
DRAW2
100
AcDbLine
 10
1264.578486829288
 20
97.49999999999971
 30
0.0
 11
1264.578486829288
 21
70.49999999999968
 31
0.0
  0
LINE
  5
3FD3
330
18
100
AcDbEntity
  8
DRAW2
100
AcDbLine
 10
1195.078486829288
 20
99.99999999999971
 30
0.0
 11
1195.078486829288
 21
67.99999999999967
 31
0.0
  0
LINE
  5
3FD5
330
18
100
AcDbEntity
  8
DRAW2
100
AcDbLine
 10
1195.078486829288
 20
67.99999999999967
 30
0.0
 11
1234.078486829288
 21
67.99999999999967
 31
0.0
  0
CIRCLE
  5
3FD6
330
18
100
AcDbEntity
  8
DRAW2
100
AcDbCircle
 10
1174.028486829288
 20
19.9999999999996
 30
0.0
 40
11.0
  0
CIRCLE
  5
3FD7
330
18
100
AcDbEntity
  8
DRAW3
100
AcDbCircle
 10
1174.028486829288
 20
19.9999999999996
 30
0.0
 40
6.578500006249997
  0
CIRCLE
  5
3FD8
330
18
100
AcDbEntity
  8
DRAW2
100
AcDbCircle
 10
1174.028486829288
 20
19.9999999999996
 30
0.0
 40
5.694887103024191
  0
CIRCLE
  5
3FD9
330
18
100
AcDbEntity
  8
DRAW2
100
AcDbCircle
 10
1174.028486829288
 20
19.9999999999996
 30
0.0
 40
7.0
  0
CIRCLE
  5
3FDA
330
18
100
AcDbEntity
  8
DRAW2
100
AcDbCircle
 10
1174.028486829288
 20
19.9999999999996
 30
0.0
 40
10.5
  0
LINE
  5
3FDC
330
18
100
AcDbEntity
  8
DRAW2
100
AcDbLine
 10
1163.720722765244
 20
21.99999999999959
 30
0.0
 11
1167.320282896789
 21
21.99999999999959
 31
0.0
  0
LINE
  5
3FDD
330
18
100
AcDbEntity
  8
DRAW2
100
AcDbLine
 10
1163.720722765244
 20
17.9999999999996
 30
0.0
 11
1167.320282896789
 21
17.9999999999996
 31
0.0
  0
LINE
  5
3FDE
330
18
100
AcDbEntity
  8
DRAW2
100
AcDbLine
 10
1180.736690761787
 20
17.9999999999996
 30
0.0
 11
1184.336250893332
 21
17.9999999999996
 31
0.0
  0
LINE
  5
3FDF
330
18
100
AcDbEntity
  8
DRAW2
100
AcDbLine
 10
1180.736690761787
 20
21.99999999999959
 30
0.0
 11
1184.336250893332
 21
21.99999999999959
 31
0.0
  0
CIRCLE
  5
3FE0
330
18
100
AcDbEntity
  8
DRAW2
100
AcDbCircle
 10
1174.028486829288
 20
19.9999999999996
 30
0.0
 40
2.5
  0
LINE
  5
3FE2
330
18
100
AcDbEntity
  8
DRAW2
100
AcDbLine
 10
1194.528486829288
 20
3.999999999999778
 30
0.0
 11
1195.528486829288
 21
3.999999999999778
 31
0.0
  0
LINE
  5
3FE3
330
18
100
AcDbEntity
  8
DRAW2
100
AcDbLine
 10
1194.528486829288
 20
57.6935750346352
 30
0.0
 11
1195.528486829288
 21
57.6935750346352
 31
0.0
  0
LINE
  5
3FE4
330
18
100
AcDbEntity
  8
DRAW2
100
AcDbLine
 10
1194.528486829288
 20
49.69357503463522
 30
0.0
 11
1195.528486829288
 21
49.69357503463522
 31
0.0
  0
LINE
  5
3FE5
330
18
100
AcDbEntity
  8
DRAW2
100
AcDbLine
 10
1266.528486829288
 20
62.19357503463522
 30
0.0
 11
1266.528486829288
 21
45.1935750346352
 31
0.0
  0
LINE
  5
3FE6
330
18
100
AcDbEntity
  8
DRAW2
100
AcDbLine
 10
1244.528486829288
 20
43.1935750346352
 30
0.0
 11
1244.528486829288
 21
64.19357503463522
 31
0.0
  0
LINE
  5
3FE7
330
18
100
AcDbEntity
  8
DRAW2
100
AcDbLine
 10
1264.528486829288
 20
64.19357503463522
 30
0.0
 11
1264.528486829288
 21
43.1935750346352
 31
0.0
  0
LINE
  5
3FE8
330
18
100
AcDbEntity
  8
DRAW2
100
AcDbLine
 10
1244.528486829288
 20
10.49999999999975
 30
0.0
 11
1264.528486829288
 21
10.49999999999975
 31
0.0
  0
LINE
  5
3FE9
330
18
100
AcDbEntity
  8
DRAW2
100
AcDbLine
 10
1264.528486829288
 20
43.1935750346352
 30
0.0
 11
1244.528486829288
 21
43.1935750346352
 31
0.0
  0
LINE
  5
3FEA
330
18
100
AcDbEntity
  8
DRAW2
100
AcDbLine
 10
1264.528486829288
 20
10.49999999999975
 30
0.0
 11
1266.528486829288
 21
8.499999999999772
 31
0.0
  0
LINE
  5
3FEB
330
18
100
AcDbEntity
  8
DRAW2
100
AcDbLine
 10
1266.528486829288
 20
45.1935750346352
 30
0.0
 11
1264.528486829288
 21
43.1935750346352
 31
0.0
  0
LINE
  5
3FEC
330
18
100
AcDbEntity
  8
DRAW2
100
AcDbLine
 10
1234.078486829288
 20
68.49999999999969
 30
0.0
 11
1262.578486829288
 21
68.49999999999969
 31
0.0
  0
LINE
  5
3FEE
330
18
100
AcDbEntity
  8
DRAW2
100
AcDbLine
 10
1244.528486829288
 20
64.19357503463522
 30
0.0
 11
1264.528486829288
 21
64.19357503463522
 31
0.0
  0
LINE
  5
3FEF
330
18
100
AcDbEntity
  8
DRAW2
100
AcDbLine
 10
1230.028486829288
 20
67.99999999999974
 30
0.0
 11
1234.528486829288
 21
67.9999999999998
 31
0.0
  0
LINE
  5
3FF0
330
18
100
AcDbEntity
  8
DRAW2
100
AcDbLine
 10
1234.528486829288
 20
66.9999999999998
 30
0.0
 11
1244.528486829288
 21
66.9999999999998
 31
0.0
  0
LINE
  5
3FF1
330
18
100
AcDbEntity
  8
DRAW2
100
AcDbLine
 10
1264.578486829288
 20
70.49999999999968
 30
0.0
 11
1262.578486829288
 21
68.49999999999969
 31
0.0
  0
LINE
  5
3FF2
330
18
100
AcDbEntity
  8
DRAW2
100
AcDbLine
 10
1264.528486829288
 20
64.19357503463522
 30
0.0
 11
1266.528486829288
 21
62.19357503463522
 31
0.0
  0
LINE
  5
3FF3
330
18
100
AcDbEntity
  8
DRAW2
100
AcDbLine
 10
1195.078486829288
 20
99.99999999999971
 30
0.0
 11
1234.078486829288
 21
99.99999999999971
 31
0.0
  0
LINE
  5
3FF4
330
18
100
AcDbEntity
  8
DRAW2
100
AcDbLine
 10
1223.278486829288
 20
128.9999999999996
 30
0.0
 11
1211.278486829288
 21
128.9999999999996
 31
0.0
  0
LINE
  5
3FF5
330
18
100
AcDbEntity
  8
DRAW2
100
AcDbLine
 10
1209.278486829288
 20
126.9999999999997
 30
0.0
 11
1225.278486829288
 21
126.9999999999997
 31
0.0
  0
LINE
  5
3FF6
330
18
100
AcDbEntity
  8
DRAW2
100
AcDbLine
 10
1209.278486829288
 20
109.9999999999996
 30
0.0
 11
1225.278486829288
 21
109.9999999999996
 31
0.0
  0
LINE
  5
3FF7
330
18
100
AcDbEntity
  8
DRAW2
100
AcDbLine
 10
1194.978486829288
 20
99.99999999999971
 30
0.0
 11
1233.978486829288
 21
99.99999999999971
 31
0.0
  0
LINE
  5
3FF8
330
18
100
AcDbEntity
  8
DRAW2
100
AcDbLine
 10
1194.978486829288
 20
109.9999999999996
 30
0.0
 11
1233.978486829288
 21
109.9999999999996
 31
0.0
  0
LINE
  5
3FF9
330
18
100
AcDbEntity
  8
DRAW2
100
AcDbLine
 10
1209.278486829288
 20
126.9999999999997
 30
0.0
 11
1209.278486829288
 21
109.9999999999996
 31
0.0
  0
LINE
  5
3FFA
330
18
100
AcDbEntity
  8
DRAW2
100
AcDbLine
 10
1194.978486829288
 20
99.99999999999971
 30
0.0
 11
1194.978486829288
 21
109.9999999999996
 31
0.0
  0
LINE
  5
3FFC
330
18
100
AcDbEntity
  8
DRAW2
100
AcDbLine
 10
1211.278486829288
 20
128.9999999999996
 30
0.0
 11
1209.278486829288
 21
126.9999999999997
 31
0.0
  0
LINE
  5
3FFD
330
18
100
AcDbEntity
  8
DRAW2
100
AcDbLine
 10
1234.078486829288
 20
99.4999999999997
 30
0.0
 11
1262.578486829288
 21
99.4999999999997
 31
0.0
  0
LINE
  5
3FFE
330
18
100
AcDbEntity
  8
DRAW2
100
AcDbLine
 10
1225.278486829288
 20
109.9999999999996
 30
0.0
 11
1225.278486829288
 21
126.9999999999997
 31
0.0
  0
LINE
  5
3FFF
330
18
100
AcDbEntity
  8
DRAW2
100
AcDbLine
 10
1233.978486829288
 20
99.99999999999971
 30
0.0
 11
1233.978486829288
 21
109.9999999999996
 31
0.0
  0
LINE
  5
4000
330
18
100
AcDbEntity
  8
DRAW2
100
AcDbLine
 10
1223.278486829288
 20
128.9999999999996
 30
0.0
 11
1225.278486829288
 21
126.9999999999997
 31
0.0
  0
LINE
  5
4001
330
18
100
AcDbEntity
  8
DRAW2
100
AcDbLine
 10
1264.578486829288
 20
97.49999999999971
 30
0.0
 11
1262.578486829288
 21
99.4999999999997
 31
0.0
  0
LINE
  5
400D
330
18
100
AcDbEntity
  8
DRAW2
100
AcDbLine
 10
1266.528486829288
 20
283.4039493392203
 30
0.0
 11
1266.528486829288
 21
266.4039493392203
 31
0.0
  0
LINE
  5
400E
330
18
100
AcDbEntity
  8
DRAW2
100
AcDbLine
 10
1264.528486829288
 20
285.4039493392203
 30
0.0
 11
1264.528486829288
 21
264.4039493392203
 31
0.0
  0
LINE
  5
400F
330
18
100
AcDbEntity
  8
DRAW2
100
AcDbLine
 10
1244.528486829288
 20
264.4039493392203
 30
0.0
 11
1244.528486829288
 21
285.4039493392203
 31
0.0
  0
LINE
  5
4010
330
18
100
AcDbEntity
  8
DRAW2
100
AcDbLine
 10
1195.528486829288
 20
302.9039493392204
 30
0.0
 11
1195.528486829288
 21
262.9039493392204
 31
0.0
  0
LINE
  5
4011
330
18
100
AcDbEntity
  8
DRAW2
100
AcDbLine
 10
1195.528486829288
 20
262.9039493392204
 30
0.0
 11
1234.528486829288
 21
262.9039493392204
 31
0.0
  0
LINE
  5
4012
330
18
100
AcDbEntity
  8
DRAW2
100
AcDbLine
 10
1194.528486829288
 20
262.9039493392204
 30
0.0
 11
1184.528486829288
 21
262.9039493392204
 31
0.0
  0
LINE
  5
4013
330
18
100
AcDbEntity
  8
DRAW2
100
AcDbLine
 10
1184.528486829288
 20
267.3214282996033
 30
0.0
 11
1184.528486829288
 21
249.9039493392208
 31
0.0
  0
LINE
  5
4014
330
18
100
AcDbEntity
  8
DRAW2
100
AcDbLine
 10
1163.528486829288
 20
249.9039493392208
 30
0.0
 11
1163.528486829288
 21
267.3214282996033
 31
0.0
  0
LINE
  5
4015
330
18
100
AcDbEntity
  8
DRAW2
100
AcDbLine
 10
1184.528486829288
 20
249.9039493392208
 30
0.0
 11
1163.528486829288
 21
249.9039493392208
 31
0.0
  0
LINE
  5
4018
330
18
100
AcDbEntity
  8
DRAW2
100
AcDbLine
 10
1264.528486829288
 20
264.4039493392203
 30
0.0
 11
1244.528486829288
 21
264.4039493392203
 31
0.0
  0
LINE
  5
4019
330
18
100
AcDbEntity
  8
DRAW2
100
AcDbLine
 10
1244.528486829288
 20
262.9039493392204
 30
0.0
 11
1234.528486829288
 21
262.9039493392204
 31
0.0
  0
LINE
  5
401A
330
18
100
AcDbEntity
  8
DRAW2
100
AcDbLine
 10
1266.528486829288
 20
266.4039493392203
 30
0.0
 11
1264.528486829288
 21
264.4039493392203
 31
0.0
  0
LINE
  5
401B
330
18
100
AcDbEntity
  8
DRAW2
100
AcDbLine
 10
1195.078486829288
 20
366.9039493392202
 30
0.0
 11
1234.078486829288
 21
366.9039493392202
 31
0.0
  0
LINE
  5
401C
330
18
100
AcDbEntity
  8
DRAW2
100
AcDbLine
 10
1234.078486829288
 20
370.9039493392205
 30
0.0
 11
1195.078486829288
 21
370.9039493392205
 31
0.0
  0
LINE
  5
401D
330
18
100
AcDbEntity
  8
DRAW2
100
AcDbLine
 10
1195.078486829288
 20
366.9039493392205
 30
0.0
 11
1234.078486829288
 21
366.9039493392205
 31
0.0
  0
CIRCLE
  5
401E
330
18
100
AcDbEntity
  8
DRAW2
100
AcDbCircle
 10
1217.378486829288
 20
358.9039493392202
 30
0.0
 40
6.0
  0
CIRCLE
  5
401F
330
18
100
AcDbEntity
  8
DRAW2
100
AcDbCircle
 10
1217.378486829288
 20
358.9039493392202
 30
0.0
 40
8.0
  0
LINE
  5
4020
330
18
100
AcDbEntity
  8
DRAW2
100
AcDbLine
 10
1195.078486829288
 20
306.9039493392204
 30
0.0
 11
1234.078486829288
 21
306.9039493392204
 31
0.0
  0
LINE
  5
4021
330
18
100
AcDbEntity
  8
DRAW2
100
AcDbLine
 10
1234.078486829288
 20
302.9039493392204
 30
0.0
 11
1195.078486829288
 21
302.9039493392204
 31
0.0
  0
LINE
  5
4022
330
18
100
AcDbEntity
  8
DRAW2
100
AcDbLine
 10
1234.078486829288
 20
306.9039493392204
 30
0.0
 11
1195.078486829288
 21
306.9039493392204
 31
0.0
  0
CIRCLE
  5
4023
330
18
100
AcDbEntity
  8
DRAW2
100
AcDbCircle
 10
1217.278486829288
 20
314.9039493392205
 30
0.0
 40
8.0
  0
CIRCLE
  5
4024
330
18
100
AcDbEntity
  8
DRAW2
100
AcDbCircle
 10
1217.278486829288
 20
314.9039493392205
 30
0.0
 40
6.0
  0
LINE
  5
4025
330
18
100
AcDbEntity
  8
DRAW2
100
AcDbLine
 10
1195.078486829288
 20
370.9039493392205
 30
0.0
 11
1195.078486829288
 21
302.9039493392204
 31
0.0
  0
LINE
  5
4026
330
18
100
AcDbEntity
  8
DRAW2
100
AcDbLine
 10
1195.078486829288
 20
306.9039493392204
 30
0.0
 11
1195.078486829288
 21
366.9039493392205
 31
0.0
  0
LINE
  5
4027
330
18
100
AcDbEntity
  8
DRAW2
100
AcDbLine
 10
1262.578486829288
 20
352.4039493392205
 30
0.0
 11
1262.578486829288
 21
321.4039493392204
 31
0.0
  0
LINE
  5
4028
330
18
100
AcDbEntity
  8
DRAW2
100
AcDbLine
 10
1264.578486829288
 20
350.4039493392202
 30
0.0
 11
1264.578486829288
 21
323.4039493392204
 31
0.0
  0
LINE
  5
4029
330
18
100
AcDbEntity
  8
DRAW2
100
AcDbLine
 10
1234.078486829288
 20
370.9039493392205
 30
0.0
 11
1234.078486829288
 21
302.9039493392204
 31
0.0
  0
LINE
  5
402A
330
18
100
AcDbEntity
  8
DRAW2
100
AcDbLine
 10
1234.078486829288
 20
366.9039493392205
 30
0.0
 11
1234.078486829288
 21
306.9039493392204
 31
0.0
  0
LINE
  5
402C
330
18
100
AcDbEntity
  8
DRAW2
100
AcDbLine
 10
1244.528486829288
 20
321.4039493392204
 30
0.0
 11
1262.578486829288
 21
321.4039493392204
 31
0.0
  0
LINE
  5
402D
330
18
100
AcDbEntity
  8
DRAW2
100
AcDbLine
 10
1244.528486829288
 20
316.4039493392202
 30
0.0
 11
1264.528486829288
 21
316.4039493392202
 31
0.0
  0
LINE
  5
402E
330
18
100
AcDbEntity
  8
DRAW2
100
AcDbLine
 10
1264.528486829288
 20
295.4039493392203
 30
0.0
 11
1244.528486829288
 21
295.4039493392203
 31
0.0
  0
LINE
  5
402F
330
18
100
AcDbEntity
  8
DRAW2
100
AcDbLine
 10
1244.528486829288
 20
285.4039493392203
 30
0.0
 11
1264.528486829288
 21
285.4039493392203
 31
0.0
  0
LINE
  5
4030
330
18
100
AcDbEntity
  8
DRAW2
100
AcDbLine
 10
1244.528486829288
 20
295.4039493392203
 30
0.0
 11
1244.528486829288
 21
316.4039493392202
 31
0.0
  0
LINE
  5
4031
330
18
100
AcDbEntity
  8
DRAW2
100
AcDbLine
 10
1244.528486829288
 20
305.4873934126541
 30
0.0
 11
1234.528486829288
 21
305.4873934126541
 31
0.0
  0
LINE
  5
4032
330
18
100
AcDbEntity
  8
DRAW2
100
AcDbLine
 10
1264.528486829288
 20
316.4039493392202
 30
0.0
 11
1264.528486829288
 21
295.4039493392203
 31
0.0
  0
LINE
  5
4033
330
18
100
AcDbEntity
  8
DRAW2
100
AcDbLine
 10
1266.528486829288
 20
314.4039493392202
 30
0.0
 11
1266.528486829288
 21
297.4039493392202
 31
0.0
  0
LINE
  5
4034
330
18
100
AcDbEntity
  8
DRAW2
100
AcDbLine
 10
1266.528486829288
 20
297.4039493392202
 30
0.0
 11
1264.528486829288
 21
295.4039493392203
 31
0.0
  0
LINE
  5
4035
330
18
100
AcDbEntity
  8
DRAW2
100
AcDbLine
 10
1264.528486829288
 20
285.4039493392203
 30
0.0
 11
1266.528486829288
 21
283.4039493392203
 31
0.0
  0
LINE
  5
4036
330
18
100
AcDbEntity
  8
DRAW2
100
AcDbLine
 10
1262.578486829288
 20
321.4039493392204
 30
0.0
 11
1264.578486829288
 21
323.4039493392204
 31
0.0
  0
LINE
  5
4037
330
18
100
AcDbEntity
  8
DRAW2
100
AcDbLine
 10
1264.528486829288
 20
316.4039493392202
 30
0.0
 11
1266.528486829288
 21
314.4039493392202
 31
0.0
  0
LINE
  5
4039
330
18
100
AcDbEntity
  8
DRAW2
100
AcDbLine
 10
1244.528486829288
 20
352.4039493392205
 30
0.0
 11
1262.578486829288
 21
352.4039493392205
 31
0.0
  0
LINE
  5
403A
330
18
100
AcDbEntity
  8
DRAW2
100
AcDbLine
 10
1264.528486829288
 20
357.4039493392202
 30
0.0
 11
1244.528486829288
 21
357.4039493392202
 31
0.0
  0
LINE
  5
403B
330
18
100
AcDbEntity
  8
DRAW2
100
AcDbLine
 10
1244.528486829288
 20
368.3205403469004
 30
0.0
 11
1234.528486829288
 21
368.3205403469004
 31
0.0
  0
LINE
  5
403C
330
18
100
AcDbEntity
  8
DRAW2
100
AcDbLine
 10
1262.578486829288
 20
352.4039493392205
 30
0.0
 11
1264.578486829288
 21
350.4039493392202
 31
0.0
  0
LINE
  5
403D
330
18
100
AcDbEntity
  8
DRAW2
100
AcDbLine
 10
1266.528486829288
 20
359.4039493392202
 30
0.0
 11
1264.528486829288
 21
357.4039493392202
 31
0.0
  0
LINE
  5
403E
330
18
100
AcDbEntity
  8
DRAW2
100
AcDbLine
 10
1550.028486829288
 20
128.9999999999996
 30
0.0
 11
1538.028486829288
 21
128.9999999999996
 31
0.0
  0
LINE
  5
403F
330
18
100
AcDbEntity
  8
DRAW2
100
AcDbLine
 10
1536.028486829288
 20
126.9999999999997
 30
0.0
 11
1552.028486829288
 21
126.9999999999997
 31
0.0
  0
LINE
  5
4040
330
18
100
AcDbEntity
  8
DRAW2
100
AcDbLine
 10
1536.028486829288
 20
109.9999999999996
 30
0.0
 11
1552.028486829288
 21
109.9999999999996
 31
0.0
  0
LINE
  5
4041
330
18
100
AcDbEntity
  8
DRAW2
100
AcDbLine
 10
1552.028486829288
 20
100.0
 30
0.0
 11
1492.028486829288
 21
99.99999999999994
 31
0.0
  0
LINE
  5
4042
330
18
100
AcDbEntity
  8
DRAW2
100
AcDbLine
 10
1552.028486829288
 20
109.9999999999997
 30
0.0
 11
1492.028486829288
 21
109.9999999999997
 31
0.0
  0
LINE
  5
4044
330
18
100
AcDbEntity
  8
DRAW2
100
AcDbLine
 10
1552.028486829288
 20
68.0
 30
0.0
 11
1492.028486829288
 21
68.0
 31
0.0
  0
LINE
  5
4045
330
18
100
AcDbEntity
  8
DRAW2
100
AcDbLine
 10
1552.028486829288
 20
99.99999999999994
 30
0.0
 11
1492.028486829288
 21
99.99999999999994
 31
0.0
  0
LINE
  5
4046
330
18
100
AcDbEntity
  8
DRAW2
100
AcDbLine
 10
1553.445042974098
 20
67.0
 30
0.0
 11
1490.611930684478
 21
67.0
 31
0.0
  0
CIRCLE
  5
4047
330
18
100
AcDbEntity
  8
DRAW2
100
AcDbCircle
 10
1553.028486829288
 20
53.69357503463522
 30
0.0
 40
8.5
  0
CIRCLE
  5
4048
330
18
100
AcDbEntity
  8
DRAW2
100
AcDbCircle
 10
1553.028486829288
 20
53.69357503463522
 30
0.0
 40
10.5
  0
LINE
  5
404A
330
18
100
AcDbEntity
  8
DRAW2
100
AcDbLine
 10
1551.217525867941
 20
68.0
 30
0.0
 11
1492.839447790635
 21
68.0
 31
0.0
  0
CIRCLE
  5
404B
330
18
100
AcDbEntity
  8
DRAW2
100
AcDbCircle
 10
1522.028486829288
 20
84.0
 30
0.0
 40
13.5
  0
CIRCLE
  5
404C
330
18
100
AcDbEntity
  8
DRAW2
100
AcDbCircle
 10
1522.028486829288
 20
84.0
 30
0.0
 40
15.5
  0
ARC
  5
404D
330
18
100
AcDbEntity
  8
DRAW2
100
AcDbCircle
 10
1522.028486829288
 20
84.0
 30
0.0
 40
34.0
100
AcDbArc
 50
151.9275130641467
 51
208.072486935853
  0
CIRCLE
  5
404E
330
18
100
AcDbEntity
  8
DRAW2
100
AcDbCircle
 10
1491.028486829288
 20
53.69357503463522
 30
0.0
 40
10.5
  0
LINE
  5
4050
330
18
100
AcDbEntity
  8
DRAW2
100
AcDbLine
 10
1448.640817565303
 20
9.5
 30
0.0
 11
1435.038487029288
 21
9.5
 31
0.0
  0
LINE
  5
4051
330
18
100
AcDbEntity
  8
DRAW2
100
AcDbLine
 10
1454.606309469016
 20
30.5
 30
0.0
 11
1435.038487029288
 21
30.5
 31
0.0
  0
LINE
  5
4052
330
18
100
AcDbEntity
  8
DRAW2
100
AcDbLine
 10
1448.640817565303
 20
9.5
 30
0.0
 11
1435.038487029288
 21
9.5
 31
0.0
  0
LINE
  5
4053
330
18
100
AcDbEntity
  8
DRAW2
100
AcDbLine
 10
1454.606309469016
 20
30.5
 30
0.0
 11
1435.038487029288
 21
30.5
 31
0.0
  0
LINE
  5
4055
330
18
100
AcDbEntity
  8
DRAW2
100
AcDbLine
 10
1435.038487029288
 20
22.0
 30
0.0
 11
1435.038487029288
 21
30.5
 31
0.0
  0
LINE
  5
4056
330
18
100
AcDbEntity
  8
DRAW2
100
AcDbLine
 10
1435.038487029288
 20
22.0
 30
0.0
 11
1435.038487029288
 21
30.5
 31
0.0
  0
LINE
  5
4057
330
18
100
AcDbEntity
  8
DRAW2
100
AcDbLine
 10
1435.038487029288
 20
9.5
 30
0.0
 11
1435.038487029288
 21
18.0
 31
0.0
  0
LINE
  5
4058
330
18
100
AcDbEntity
  8
DRAW2
100
AcDbLine
 10
1437.538487029287
 20
22.0
 30
0.0
 11
1435.038487029288
 21
22.0
 31
0.0
  0
LINE
  5
4059
330
18
100
AcDbEntity
  8
DRAW2
100
AcDbLine
 10
1437.538487029287
 20
18.0
 30
0.0
 11
1435.038487029288
 21
18.0
 31
0.0
  0
LINE
  5
405A
330
18
100
AcDbEntity
  8
DRAW2
100
AcDbLine
 10
1437.538487029287
 20
18.0
 30
0.0
 11
1437.538487029287
 21
22.0
 31
0.0
  0
LINE
  5
405B
330
18
100
AcDbEntity
  8
DRAW2
100
AcDbLine
 10
1435.038487029288
 20
9.5
 30
0.0
 11
1435.038487029288
 21
18.0
 31
0.0
  0
LINE
  5
405C
330
18
100
AcDbEntity
  8
DRAW2
100
AcDbLine
 10
1437.538487029287
 20
22.0
 30
0.0
 11
1435.038487029288
 21
22.0
 31
0.0
  0
LINE
  5
405D
330
18
100
AcDbEntity
  8
DRAW2
100
AcDbLine
 10
1437.538487029287
 20
18.0
 30
0.0
 11
1435.038487029288
 21
18.0
 31
0.0
  0
LINE
  5
405E
330
18
100
AcDbEntity
  8
DRAW2
100
AcDbLine
 10
1437.538487029287
 20
18.0
 30
0.0
 11
1437.538487029287
 21
22.0
 31
0.0
  0
CIRCLE
  5
4061
330
18
100
AcDbEntity
  8
DRAW2
100
AcDbCircle
 10
1491.028486829288
 20
53.69357503463522
 30
0.0
 40
8.5
  0
ARC
  5
4063
330
18
100
AcDbEntity
  8
DRAW2
100
AcDbCircle
 10
1522.028486829288
 20
0.0
 30
0.0
 40
74.0
100
AcDbArc
 50
113.2314565050098
 51
115.1220601866318
  0
CIRCLE
  5
4064
330
18
100
AcDbEntity
  8
DRAW3
100
AcDbCircle
 10
1522.028486829288
 20
84.0
 30
0.0
 40
8.331000000000017
  0
CIRCLE
  5
4065
330
18
100
AcDbEntity
  8
DRAW2
100
AcDbCircle
 10
1522.028486829288
 20
84.0
 30
0.0
 40
7.447387096774207
  0
LINE
  5
4066
330
18
100
AcDbEntity
  8
DRAW2
100
AcDbLine
 10
1508.028486829288
 20
109.9999999999996
 30
0.0
 11
1508.028486829288
 21
126.9999999999997
 31
0.0
  0
LINE
  5
4067
330
18
100
AcDbEntity
  8
DRAW2
100
AcDbLine
 10
1492.028486829288
 20
126.9999999999997
 30
0.0
 11
1492.028486829288
 21
109.9999999999996
 31
0.0
  0
LINE
  5
4069
330
18
100
AcDbEntity
  8
DRAW2
100
AcDbLine
 10
1492.028486829288
 20
109.9999999999996
 30
0.0
 11
1508.028486829288
 21
109.9999999999996
 31
0.0
  0
LINE
  5
406A
330
18
100
AcDbEntity
  8
DRAW2
100
AcDbLine
 10
1492.028486829288
 20
109.9999999999997
 30
0.0
 11
1492.028486829288
 21
99.99999999999994
 31
0.0
  0
LINE
  5
406B
330
18
100
AcDbEntity
  8
DRAW2
100
AcDbLine
 10
1506.028486829288
 20
128.9999999999996
 30
0.0
 11
1494.028486829288
 21
128.9999999999996
 31
0.0
  0
LINE
  5
406C
330
18
100
AcDbEntity
  8
DRAW2
100
AcDbLine
 10
1492.028486829288
 20
126.9999999999997
 30
0.0
 11
1508.028486829288
 21
126.9999999999997
 31
0.0
  0
LINE
  5
406D
330
18
100
AcDbEntity
  8
DRAW2
100
AcDbLine
 10
1494.028486829288
 20
128.9999999999996
 30
0.0
 11
1492.028486829288
 21
126.9999999999997
 31
0.0
  0
LINE
  5
406E
330
18
100
AcDbEntity
  8
DRAW2
100
AcDbLine
 10
1506.028486829288
 20
128.9999999999996
 30
0.0
 11
1508.028486829288
 21
126.9999999999997
 31
0.0
  0
LINE
  5
406F
330
18
100
AcDbEntity
  8
DRAW2
100
AcDbLine
 10
1536.028486829288
 20
126.9999999999997
 30
0.0
 11
1536.028486829288
 21
109.9999999999996
 31
0.0
  0
LINE
  5
4071
330
18
100
AcDbEntity
  8
DRAW2
100
AcDbLine
 10
1538.028486829288
 20
128.9999999999996
 30
0.0
 11
1536.028486829288
 21
126.9999999999997
 31
0.0
  0
ARC
  5
4072
330
18
100
AcDbEntity
  8
DRAW2
100
AcDbCircle
 10
1522.028486829288
 20
84.0
 30
0.0
 40
34.0
100
AcDbArc
 50
331.9275130641468
 51
28.07248693585305
  0
ARC
  5
4074
330
18
100
AcDbEntity
  8
DRAW2
100
AcDbCircle
 10
1522.028486829288
 20
0.0
 30
0.0
 40
74.0
100
AcDbArc
 50
64.87793981336814
 51
66.76854349499016
  0
LINE
  5
4075
330
18
100
AcDbEntity
  8
DRAW2
100
AcDbLine
 10
1552.028486829288
 20
109.9999999999996
 30
0.0
 11
1552.028486829288
 21
126.9999999999997
 31
0.0
  0
LINE
  5
4076
330
18
100
AcDbEntity
  8
DRAW2
100
AcDbLine
 10
1552.028486829288
 20
109.9999999999997
 30
0.0
 11
1552.028486829288
 21
100.0
 31
0.0
  0
LINE
  5
4077
330
18
100
AcDbEntity
  8
DRAW2
100
AcDbLine
 10
1550.028486829288
 20
128.9999999999996
 30
0.0
 11
1552.028486829288
 21
126.9999999999997
 31
0.0
  0
LINE
  5
4078
330
18
100
AcDbEntity
  8
DRAW2
100
AcDbLine
 10
1234.528486829288
 20
410.9039493392205
 30
0.0
 11
1195.528486829288
 21
410.9039493392205
 31
0.0
  0
LWPOLYLINE
  5
4079
330
18
100
AcDbEntity
  8
DRAW2
100
AcDbPolyline
 90
       17
 70
     0
 43
0.0
 10
1164.528486829288
 20
411.1221493392206
 42
0.035781046
 10
1164.464276829288
 20
412.0164793392206
 42
0.034735135
 10
1164.274756829286
 20
412.8932093392206
 42
0.032808914
 10
1163.969076829288
 20
413.7356293392207
 42
0.030443274
 10
1163.559186829288
 20
414.5333793392206
 42
0.027895236
 10
1163.058946829288
 20
415.2784093392206
 42
0.025377859
 10
1162.482916829288
 20
415.9654093392206
 42
0.023117483
 10
1161.842526829288
 20
416.5940193392207
 42
0.02111344
 10
1161.148846829288
 20
417.1639193392207
 42
0.019360746
 10
1160.412166829287
 20
417.6753693392206
 42
0.017915758
 10
1159.638636829288
 20
418.1310893392206
 42
0.016694044
 10
1158.835246829288
 20
418.5323693392207
 42
0.015678837
 10
1158.007586829288
 20
418.8808893392206
 42
0.014848642
 10
1157.160196829287
 20
419.1782993392206
 42
0.014179833
 10
1156.296946829288
 20
419.4260793392206
 42
0.013652758
 10
1155.421216829288
 20
419.6254993392206
 42
0.01325184
 10
1154.535996829288
 20
419.7775593392206
  0
LWPOLYLINE
  5
407A
330
18
100
AcDbEntity
  8
DRAW2
100
AcDbPolyline
 90
       17
 70
     0
 43
0.0
 10
1164.529096829288
 20
413.2434593392206
 42
0.035781242
 10
1164.464886829287
 20
414.1377893392206
 42
0.034735274
 10
1164.275366829288
 20
415.0145193392206
 42
0.032808988
 10
1163.969686829288
 20
415.8569293392206
 42
0.030443292
 10
1163.559786829287
 20
416.6546793392206
 42
0.027895209
 10
1163.059556829288
 20
417.3997093392206
 42
0.0253778
 10
1162.483516829287
 20
418.0867093392206
 42
0.023117406
 10
1161.843136829288
 20
418.7153193392206
 42
0.021113353
 10
1161.149446829288
 20
419.2852093392207
 42
0.019360656
 10
1160.412776829288
 20
419.7966693392206
 42
0.017915667
 10
1159.639246829287
 20
420.2523893392206
 42
0.016693956
 10
1158.835846829288
 20
420.6536693392206
 42
0.015678752
 10
1158.008186829287
 20
421.0021793392206
 42
0.014848562
 10
1157.160796829288
 20
421.2995893392206
 42
0.014179757
 10
1156.297556829287
 20
421.5473793392206
 42
0.013652686
 10
1155.421826829287
 20
421.7467993392206
 42
0.013251772
 10
1154.536606829288
 20
421.8988593392206
  0
LWPOLYLINE
  5
407B
330
18
100
AcDbEntity
  8
DRAW2
100
AcDbPolyline
 90
       17
 70
     0
 43
0.0
 10
1164.529096829288
 20
416.0719193392206
 42
0.035781046
 10
1164.464886829287
 20
416.9662493392206
 42
0.034735135
 10
1164.275366829288
 20
417.8429793392206
 42
0.032808914
 10
1163.969686829288
 20
418.6853893392206
 42
0.030443274
 10
1163.559796829287
 20
419.4831393392206
 42
0.027895236
 10
1163.059556829288
 20
420.2281793392207
 42
0.025377859
 10
1162.483526829288
 20
420.9151793392207
 42
0.023117483
 10
1161.843136829288
 20
421.5437893392206
 42
0.02111344
 10
1161.149456829288
 20
422.1136793392206
 42
0.019360746
 10
1160.412776829288
 20
422.6251393392206
 42
0.017915758
 10
1159.639246829287
 20
423.0808593392206
 42
0.016694044
 10
1158.835856829288
 20
423.4821393392206
 42
0.015678837
 10
1158.008196829288
 20
423.8306493392206
 42
0.014848642
 10
1157.160806829288
 20
424.1280593392207
 42
0.014179833
 10
1156.297556829287
 20
424.3758493392206
 42
0.013652758
 10
1155.421826829287
 20
424.5752693392206
 42
0.01325184
 10
1154.536606829288
 20
424.7273293392206
  0
LINE
  5
407C
330
18
100
AcDbEntity
  8
DRAW2
100
AcDbLine
 10
1164.528486829288
 20
410.9039493392205
 30
0.0
 11
1164.528486829288
 21
442.9419193392205
 31
0.0
  0
LINE
  5
407D
330
18
100
AcDbEntity
  8
DRAW2
100
AcDbLine
 10
1163.029096829288
 20
415.3184993392206
 30
0.0
 11
1163.029096829288
 21
417.4398393392206
 31
0.0
  0
LINE
  5
407E
330
18
100
AcDbEntity
  8
DRAW2
100
AcDbLine
 10
1163.028486829288
 20
410.9039493392205
 30
0.0
 11
1163.028486829288
 21
412.4900693392206
 31
0.0
  0
LINE
  5
407F
330
18
100
AcDbEntity
  8
DRAW2
100
AcDbLine
 10
1154.528486829288
 20
414.8288493392206
 30
0.0
 11
1154.528486829288
 21
416.9501893392206
 31
0.0
  0
LWPOLYLINE
  5
4080
330
18
100
AcDbEntity
  8
DRAW2
100
AcDbPolyline
 90
       15
 70
     0
 43
0.0
 10
1163.970476308233
 20
410.9039493392205
 42
0.0001273941962443
 10
1163.969076829288
 20
410.9071393392206
 42
0.03044317
 10
1163.559176829288
 20
411.7048893392206
 42
0.027895097
 10
1163.058946829288
 20
412.4499193392207
 42
0.025377711
 10
1162.482906829287
 20
413.1369193392206
 42
0.023117342
 10
1161.842526829288
 20
413.7655293392207
 42
0.021113315
 10
1161.148836829288
 20
414.3354293392206
 42
0.019360642
 10
1160.412166829287
 20
414.8468893392206
 42
0.017915674
 10
1159.638636829288
 20
415.3025993392208
 42
0.016693981
 10
1158.835236829288
 20
415.7038893392206
 42
0.015678793
 10
1158.007576829287
 20
416.0524093392206
 42
0.014848616
 10
1157.160196829287
 20
416.3498193392205
 42
0.014179824
 10
1156.296946829288
 20
416.5976093392206
 42
0.013652765
 10
1155.421216829288
 20
416.7970293392206
 42
0.013251861
 10
1154.535996829288
 20
416.9490893392207
  0
LWPOLYLINE
  5
4081
330
18
100
AcDbEntity
  8
DRAW2
100
AcDbPolyline
 90
       12
 70
     0
 43
0.0
 10
1162.584799323033
 20
410.9039493392205
 42
0.0042748718387551
 10
1162.482906829287
 20
411.0155493392206
 42
0.023117406
 10
1161.842526829288
 20
411.6441493392206
 42
0.021113353
 10
1161.148836829288
 20
412.2140493392207
 42
0.019360656
 10
1160.412166829287
 20
412.7254993392206
 42
0.017915667
 10
1159.638636829288
 20
413.1812193392206
 42
0.016693956
 10
1158.835236829288
 20
413.5825093392206
 42
0.015678752
 10
1158.007576829287
 20
413.9310193392206
 42
0.014848562
 10
1157.160186829288
 20
414.2284293392206
 42
0.014179757
 10
1156.296946829288
 20
414.4762093392206
 42
0.013652686
 10
1155.421216829288
 20
414.6756293392206
 42
0.013251772
 10
1154.535996829288
 20
414.8276993392206
  0
LINE
  5
4082
330
18
100
AcDbEntity
  8
DRAW2
100
AcDbLine
 10
1163.032146829288
 20
440.0673393392207
 30
0.0
 11
1163.032146829288
 21
442.1887093392206
 31
0.0
  0
LINE
  5
4083
330
18
100
AcDbEntity
  8
DRAW2
100
AcDbLine
 10
1154.531536829286
 20
439.5776893392207
 30
0.0
 11
1154.531536829286
 21
441.6990293392204
 31
0.0
  0
LWPOLYLINE
  5
4084
330
18
100
AcDbEntity
  8
DRAW2
100
AcDbPolyline
 90
       17
 70
     0
 43
0.0
 10
1164.531536829287
 20
433.0424993392206
 42
0.035781241
 10
1164.467326829287
 20
433.9368293392206
 42
0.034735204
 10
1164.277806829288
 20
434.8135593392206
 42
0.032808878
 10
1163.972126829288
 20
435.6559793392206
 42
0.03044317
 10
1163.562226829288
 20
436.4537293392206
 42
0.027895097
 10
1163.061996829288
 20
437.1987593392206
 42
0.025377711
 10
1162.485956829288
 20
437.8857593392208
 42
0.023117342
 10
1161.845576829288
 20
438.5143693392206
 42
0.021113315
 10
1161.151896829288
 20
439.0842693392206
 42
0.019360642
 10
1160.415216829288
 20
439.5957293392206
 42
0.017915674
 10
1159.641686829288
 20
440.0514393392207
 42
0.016693981
 10
1158.838296829288
 20
440.4527293392206
 42
0.015678793
 10
1158.010636829287
 20
440.8012493392206
 42
0.014848616
 10
1157.163246829288
 20
441.0986593392206
 42
0.014179824
 10
1156.299996829287
 20
441.3464493392206
 42
0.013652765
 10
1155.424266829288
 20
441.5458693392206
 42
0.013251861
 10
1154.539046829288
 20
441.6979293392206
  0
LWPOLYLINE
  5
4085
330
18
100
AcDbEntity
  8
DRAW2
100
AcDbPolyline
 90
       17
 70
     0
 43
0.0
 10
1164.538366829287
 20
437.9933593392206
 42
0.035781241
 10
1164.474156829288
 20
438.8876893392207
 42
0.034735204
 10
1164.284636829288
 20
439.7644193392206
 42
0.032808878
 10
1163.978956829288
 20
440.6068393392206
 42
0.03044317
 10
1163.569056829288
 20
441.4045893392206
 42
0.027895097
 10
1163.068826829288
 20
442.1496193392206
 42
0.025377711
 10
1162.492786829288
 20
442.8366193392206
 42
0.023117342
 10
1161.852406829287
 20
443.4652293392207
 42
0.021113315
 10
1161.158726829288
 20
444.0351293392206
 42
0.019360642
 10
1160.422046829288
 20
444.5465893392206
 42
0.017915674
 10
1159.648516829288
 20
445.0022993392208
 42
0.016693981
 10
1158.845126829288
 20
445.4035893392206
 42
0.015678793
 10
1158.017466829287
 20
445.7521093392208
 42
0.014848616
 10
1157.170076829288
 20
446.0495193392206
 42
0.014179824
 10
1156.306826829287
 20
446.2973093392206
 42
0.013652765
 10
1155.431096829288
 20
446.4967293392207
 42
0.013251861
 10
1154.545876829288
 20
446.6487893392207
  0
LWPOLYLINE
  5
4086
330
18
100
AcDbEntity
  8
DRAW2
100
AcDbPolyline
 90
       17
 70
     0
 43
0.0
 10
1164.537696829288
 20
435.8720893392207
 42
0.035781046
 10
1164.473486829288
 20
436.7664193392206
 42
0.034735064
 10
1164.283966829287
 20
437.6431493392208
 42
0.032808804
 10
1163.978286829288
 20
438.4855593392207
 42
0.030443153
 10
1163.568396829288
 20
439.2833093392206
 42
0.027895124
 10
1163.068156829287
 20
440.0283493392207
 42
0.02537777
 10
1162.492126829288
 20
440.7153493392207
 42
0.023117419
 10
1161.851746829288
 20
441.3439593392206
 42
0.021113402
 10
1161.158056829288
 20
441.9138593392206
 42
0.019360733
 10
1160.421376829287
 20
442.4253193392206
 42
0.017915764
 10
1159.647856829288
 20
442.8810393392206
 42
0.016694069
 10
1158.844456829288
 20
443.2823293392206
 42
0.015678877
 10
1158.016796829288
 20
443.6308393392206
 42
0.014848697
 10
1157.169406829287
 20
443.9282493392206
 42
0.0141799
 10
1156.306156829288
 20
444.1760393392207
 42
0.013652836
 10
1155.430426829288
 20
444.3754593392206
 42
0.013251928
 10
1154.545206829288
 20
444.5275193392206
  0
LINE
  5
4087
330
18
100
AcDbEntity
  8
DRAW2
100
AcDbLine
 10
1163.031536829288
 20
435.1175793392206
 30
0.0
 11
1163.031536829288
 21
437.2389093392206
 31
0.0
  0
LINE
  5
4088
330
18
100
AcDbEntity
  8
DRAW2
100
AcDbLine
 10
1163.030316829288
 20
425.2180393392206
 30
0.0
 11
1163.030316829288
 21
427.3393793392206
 31
0.0
  0
LINE
  5
4089
330
18
100
AcDbEntity
  8
DRAW2
100
AcDbLine
 10
1163.030926829288
 20
430.1678093392206
 30
0.0
 11
1163.030926829288
 21
432.2891793392206
 31
0.0
  0
LINE
  5
408A
330
18
100
AcDbEntity
  8
DRAW2
100
AcDbLine
 10
1154.530926829288
 20
434.6279193392207
 30
0.0
 11
1154.530926829288
 21
436.7492593392206
 31
0.0
  0
LINE
  5
408B
330
18
100
AcDbEntity
  8
DRAW2
100
AcDbLine
 10
1154.529706829288
 20
424.7283893392205
 30
0.0
 11
1154.529706829288
 21
426.8497193392208
 31
0.0
  0
LINE
  5
408C
330
18
100
AcDbEntity
  8
DRAW2
100
AcDbLine
 10
1154.530256829288
 20
429.6781493392208
 30
0.0
 11
1154.530256829288
 21
431.7994893392206
 31
0.0
  0
LWPOLYLINE
  5
408D
330
18
100
AcDbEntity
  8
DRAW2
100
AcDbPolyline
 90
       17
 70
     0
 43
0.0
 10
1164.530866829288
 20
430.9212293392206
 42
0.035781046
 10
1164.466656829288
 20
431.8155593392206
 42
0.034735064
 10
1164.277136829288
 20
432.6922893392207
 42
0.032808804
 10
1163.971456829288
 20
433.5346993392206
 42
0.030443153
 10
1163.561566829288
 20
434.3324493392207
 42
0.027895124
 10
1163.061326829287
 20
435.0774893392206
 42
0.02537777
 10
1162.485296829288
 20
435.7644893392206
 42
0.023117419
 10
1161.844916829288
 20
436.3930993392206
 42
0.021113402
 10
1161.151226829288
 20
436.9629993392206
 42
0.019360733
 10
1160.414546829287
 20
437.4744593392206
 42
0.017915764
 10
1159.641026829288
 20
437.9301793392206
 42
0.016694069
 10
1158.837626829287
 20
438.3314693392206
 42
0.015678877
 10
1158.009966829288
 20
438.6799793392206
 42
0.014848697
 10
1157.162576829288
 20
438.9773893392207
 42
0.0141799
 10
1156.299326829288
 20
439.2251793392206
 42
0.013652836
 10
1155.423596829288
 20
439.4245993392206
 42
0.013251928
 10
1154.538376829288
 20
439.5766593392206
  0
LWPOLYLINE
  5
408E
330
18
100
AcDbEntity
  8
DRAW2
100
AcDbPolyline
 90
       17
 70
     0
 43
0.0
 10
1164.530316829287
 20
425.9714593392206
 42
0.035781046
 10
1164.466106829288
 20
426.8657893392206
 42
0.034735135
 10
1164.276586829288
 20
427.7425193392207
 42
0.032808914
 10
1163.970906829288
 20
428.5849293392206
 42
0.030443274
 10
1163.561016829288
 20
429.3826793392206
 42
0.027895236
 10
1163.060776829286
 20
430.1277093392206
 42
0.025377859
 10
1162.484746829288
 20
430.8147193392206
 42
0.023117483
 10
1161.844356829287
 20
431.4433193392206
 42
0.02111344
 10
1161.150676829288
 20
432.0132193392206
 42
0.019360746
 10
1160.413996829288
 20
432.5246793392206
 42
0.017915758
 10
1159.640466829288
 20
432.9803893392206
 42
0.016694044
 10
1158.837076829286
 20
433.3816793392206
 42
0.015678837
 10
1158.009416829288
 20
433.7301893392206
 42
0.014848642
 10
1157.162026829287
 20
434.0275993392206
 42
0.014179833
 10
1156.298776829288
 20
434.2753893392206
 42
0.013652758
 10
1155.423046829288
 20
434.4747993392206
 42
0.01325184
 10
1154.537826829286
 20
434.6268593392206
  0
LWPOLYLINE
  5
408F
330
18
100
AcDbEntity
  8
DRAW2
100
AcDbPolyline
 90
       17
 70
     0
 43
0.0
 10
1164.530866829288
 20
428.0927393392206
 42
0.035781241
 10
1164.466656829288
 20
428.9870593392206
 42
0.034735204
 10
1164.277136829288
 20
429.8637993392206
 42
0.032808878
 10
1163.971456829288
 20
430.7062093392207
 42
0.03044317
 10
1163.561556829288
 20
431.5039593392206
 42
0.027895097
 10
1163.061326829287
 20
432.2489893392206
 42
0.025377711
 10
1162.485286829288
 20
432.9359893392206
 42
0.023117342
 10
1161.844906829288
 20
433.5645993392208
 42
0.021113315
 10
1161.151216829287
 20
434.1344993392207
 42
0.019360642
 10
1160.414546829287
 20
434.6459593392206
 42
0.017915674
 10
1159.641016829288
 20
435.1016793392206
 42
0.016693981
 10
1158.837616829286
 20
435.5029693392206
 42
0.015678793
 10
1158.009956829288
 20
435.8514793392206
 42
0.014848616
 10
1157.162576829288
 20
436.1488893392206
 42
0.014179824
 10
1156.299326829288
 20
436.3966793392206
 42
0.013652765
 10
1155.423596829288
 20
436.5960993392206
 42
0.013251861
 10
1154.538376829288
 20
436.7481693392206
  0
LINE
  5
4090
330
18
100
AcDbEntity
  8
DRAW2
100
AcDbLine
 10
1163.029706829288
 20
420.2682693392206
 30
0.0
 11
1163.029706829288
 21
422.3896393392206
 31
0.0
  0
LINE
  5
4091
330
18
100
AcDbEntity
  8
DRAW2
100
AcDbLine
 10
1154.529096829288
 20
419.7786193392206
 30
0.0
 11
1154.529096829288
 21
421.8999593392206
 31
0.0
  0
LWPOLYLINE
  5
4092
330
18
100
AcDbEntity
  8
DRAW2
100
AcDbPolyline
 90
       17
 70
     0
 43
0.0
 10
1164.529706829288
 20
421.0216893392206
 42
0.035781046
 10
1164.465496829288
 20
421.9160193392206
 42
0.034735135
 10
1164.275976829288
 20
422.7927493392206
 42
0.032808914
 10
1163.970296829287
 20
423.6351593392206
 42
0.030443274
 10
1163.560406829286
 20
424.4329093392206
 42
0.027895236
 10
1163.060166829287
 20
425.1779493392207
 42
0.025377859
 10
1162.484136829288
 20
425.8649493392208
 42
0.023117483
 10
1161.843746829288
 20
426.4935493392208
 42
0.02111344
 10
1161.150066829288
 20
427.0634493392206
 42
0.019360746
 10
1160.413386829288
 20
427.5749093392206
 42
0.017915758
 10
1159.639856829288
 20
428.0306193392206
 42
0.016694044
 10
1158.836466829286
 20
428.4319093392206
 42
0.015678837
 10
1158.008806829288
 20
428.7804193392206
 42
0.014848642
 10
1157.161416829288
 20
429.0778293392206
 42
0.014179833
 10
1156.298166829286
 20
429.3256193392206
 42
0.013652758
 10
1155.422436829288
 20
429.5250293392206
 42
0.01325184
 10
1154.537216829288
 20
429.6770993392208
  0
LWPOLYLINE
  5
4093
330
18
100
AcDbEntity
  8
DRAW2
100
AcDbPolyline
 90
       17
 70
     0
 43
0.0
 10
1164.529706829288
 20
418.1931993392206
 42
0.035781241
 10
1164.465496829288
 20
419.0875293392206
 42
0.034735204
 10
1164.275976829288
 20
419.9642593392206
 42
0.032808878
 10
1163.970296829287
 20
420.8066693392206
 42
0.03044317
 10
1163.560396829288
 20
421.6044193392206
 42
0.027895097
 10
1163.060166829287
 20
422.3494593392206
 42
0.025377711
 10
1162.484126829288
 20
423.0364593392206
 42
0.023117342
 10
1161.843746829288
 20
423.6650693392206
 42
0.021113315
 10
1161.150056829288
 20
424.2349593392206
 42
0.019360642
 10
1160.413386829288
 20
424.7464193392207
 42
0.017915674
 10
1159.639856829288
 20
425.2021393392206
 42
0.016693981
 10
1158.836456829287
 20
425.6034293392207
 42
0.015678793
 10
1158.008806829288
 20
425.9519393392206
 42
0.014848616
 10
1157.161416829288
 20
426.2493593392206
 42
0.014179824
 10
1156.298166829286
 20
426.4971393392206
 42
0.013652765
 10
1155.422436829288
 20
426.6965593392206
 42
0.013251861
 10
1154.537216829288
 20
426.8486293392206
  0
LWPOLYLINE
  5
4094
330
18
100
AcDbEntity
  8
DRAW2
100
AcDbPolyline
 90
       17
 70
     0
 43
0.0
 10
1164.530316829287
 20
423.1429693392206
 42
0.035781241
 10
1164.466116829288
 20
424.0372993392206
 42
0.034735204
 10
1164.276596829288
 20
424.9140293392208
 42
0.032808878
 10
1163.970906829288
 20
425.7564393392208
 42
0.03044317
 10
1163.561016829288
 20
426.5541893392207
 42
0.027895097
 10
1163.060786829288
 20
427.2992193392206
 42
0.025377711
 10
1162.484746829288
 20
427.9862293392206
 42
0.023117342
 10
1161.844366829287
 20
428.6148293392206
 42
0.021113315
 10
1161.150676829288
 20
429.1847293392207
 42
0.019360642
 10
1160.413996829288
 20
429.6961893392206
 42
0.017915674
 10
1159.640476829288
 20
430.1519093392206
 42
0.016693981
 10
1158.837076829286
 20
430.5531993392206
 42
0.015678793
 10
1158.009416829288
 20
430.9017093392206
 42
0.014848616
 10
1157.162026829287
 20
431.1991193392207
 42
0.014179824
 10
1156.298786829288
 20
431.4469093392206
 42
0.013652765
 10
1155.423046829288
 20
431.6463293392206
 42
0.013251861
 10
1154.537826829286
 20
431.7983993392208
  0
LINE
  5
4095
330
18
100
AcDbEntity
  8
DRAW2
100
AcDbLine
 10
1154.538366829288
 20
444.5285493392206
 30
0.0
 11
1154.538366829288
 21
446.6498893392206
 31
0.0
  0
LINE
  5
4097
330
18
100
AcDbEntity
  8
DRAW2
100
AcDbLine
 10
1244.528486829288
 20
409.4039493392203
 30
0.0
 11
1264.528486829288
 21
409.4039493392203
 31
0.0
  0
LINE
  5
4098
330
18
100
AcDbEntity
  8
DRAW2
100
AcDbLine
 10
1264.528486829288
 20
388.4039493392202
 30
0.0
 11
1244.528486829288
 21
388.4039493392202
 31
0.0
  0
LINE
  5
4099
330
18
100
AcDbEntity
  8
DRAW2
100
AcDbLine
 10
1244.528486829288
 20
378.4039493392203
 30
0.0
 11
1264.528486829288
 21
378.4039493392203
 31
0.0
  0
LINE
  5
409A
330
18
100
AcDbEntity
  8
DRAW2
100
AcDbLine
 10
1244.528486829288
 20
388.4039493392202
 30
0.0
 11
1244.528486829288
 21
409.4039493392203
 31
0.0
  0
LINE
  5
409B
330
18
100
AcDbEntity
  8
DRAW2
100
AcDbLine
 10
1244.528486829288
 20
410.9039493392205
 30
0.0
 11
1234.528486829288
 21
410.9039493392205
 31
0.0
  0
LINE
  5
409C
330
18
100
AcDbEntity
  8
DRAW2
100
AcDbLine
 10
1264.528486829288
 20
409.4039493392203
 30
0.0
 11
1264.528486829288
 21
388.4039493392202
 31
0.0
  0
LINE
  5
409D
330
18
100
AcDbEntity
  8
DRAW2
100
AcDbLine
 10
1266.528486829288
 20
407.4039493392202
 30
0.0
 11
1266.528486829288
 21
390.4039493392202
 31
0.0
  0
LINE
  5
409E
330
18
100
AcDbEntity
  8
DRAW2
100
AcDbLine
 10
1266.528486829288
 20
390.4039493392202
 30
0.0
 11
1264.528486829288
 21
388.4039493392202
 31
0.0
  0
LINE
  5
409F
330
18
100
AcDbEntity
  8
DRAW2
100
AcDbLine
 10
1264.528486829288
 20
378.4039493392203
 30
0.0
 11
1266.528486829288
 21
376.4039493392203
 31
0.0
  0
LINE
  5
40A0
330
18
100
AcDbEntity
  8
DRAW2
100
AcDbLine
 10
1264.528486829288
 20
409.4039493392203
 30
0.0
 11
1266.528486829288
 21
407.4039493392202
 31
0.0
  0
ELLIPSE
  5
419D
330
18
100
AcDbEntity
  8
DRAW2
100
AcDbEllipse
 10
1130.028486829288
 20
266.3070744845558
 30
0.0
 11
11.0
 21
0.0
 31
0.0
210
0.0
220
0.0
230
1.0
 40
0.3093750132123163
 41
5.980520033225152
 42
9.727443234723812
  0
ELLIPSE
  5
419E
330
18
100
AcDbEntity
  8
DRAW2
100
AcDbEllipse
 10
1174.028486829288
 20
266.3070744845558
 30
0.0
 11
11.0
 21
0.0
 31
0.0
210
0.0
220
0.0
230
1.0
 40
0.3093750132123163
 41
5.980520033225152
 42
9.727443234723812
  0
VIEWPORT
  5
37
330
15
100
AcDbEntity
 67
     1
  8
0
100
AcDbViewport
 10
296.9950122070311
 20
209.9950000476836
 30
0.0
 40
632.1056339387389
 41
423.1939163498099
 68
     1
 69
     1
 12
296.9950122070311
 22
209.9950000476836
 13
0.0
 23
0.0
 14
5.0
 24
5.0
 15
10.0
 25
10.0
 16
0.0
 26
0.0
 36
1.0
 17
0.0
 27
0.0
 37
0.0
 42
50.0
 43
0.0
 44
0.0
 45
423.1939163498099
 50
0.0
 51
0.0
 72
   100
 90
    32768
  1

281
     0
 71
     1
 74
     0
110
0.0
120
0.0
130
0.0
111
1.0
121
0.0
131
0.0
112
0.0
122
1.0
132
0.0
 79
     0
146
0.0
  0
ENDSEC
  0
SECTION
  2
OBJECTS
  0
DICTIONARY
  5
C
330
0
100
AcDbDictionary
281
     1
  3
ACAD_GROUP
350
D
  3
ACAD_IMAGE_VARS
350
7A9
  3
ACAD_LAYOUT
350
1AD
  3
ACAD_MLINESTYLE
350
1B
  3
ACAD_PLOTSETTINGS
350
1AE
  3
ACAD_PLOTSTYLENAME
350
1AB
  0
DICTIONARY
  5
D
102
{ACAD_REACTORS
330
C
102
}
330
C
100
AcDbDictionary
281
     1
  0
RASTERVARIABLES
  5
7A9
102
{ACAD_REACTORS
330
C
102
}
330
C
100
AcDbRasterVariables
 90
        0
 70
     1
 71
     1
 72
     0
  0
DICTIONARY
  5
1AD
102
{ACAD_REACTORS
330
C
102
}
330
C
100
AcDbDictionary
281
     1
  3
Model
350
1AF
  3
ﾚｲｱｳﾄ1
350
1B0
  0
DICTIONARY
  5
1B
102
{ACAD_REACTORS
330
C
102
}
330
C
100
AcDbDictionary
281
     1
  3
STANDARD
350
1C
  0
DICTIONARY
  5
1AE
102
{ACAD_REACTORS
330
C
102
}
330
C
100
AcDbDictionary
281
     1
  3
AdobePDF_A2
350
2E45
  3
トレース紙Ａ１
350
7A0
  3
トレース紙Ａ２
350
79E
  3
トレース紙Ａ３
350
79C
  3
トレース紙Ａ４
350
794
  3
モデル
350
91D
  3
モデル XL-5810
350
92C
  3
普通紙Ａ１からＡ３
350
705
  3
普通紙Ａ１からＡ３ XL-5810
350
A53
  3
普通紙Ａ２からＡ３
350
7A2
  3
普通紙Ａ２からＡ３ XL-5810
350
A52
  3
普通紙Ａ３
350
66A
  3
普通紙Ａ３ XL-5810
350
A51
  3
普通紙Ａ４
350
66B
  3
普通紙Ａ４ XL-5810
350
A50
  0
ACDBDICTIONARYWDFLT
  5
1AB
102
{ACAD_REACTORS
330
C
102
}
330
C
100
AcDbDictionary
281
     1
  3
Normal
350
1AC
100
AcDbDictionaryWithDefault
340
1AC
  0
LAYOUT
  5
1AF
102
{ACAD_REACTORS
330
1AD
102
}
330
1AD
100
AcDbPlotSettings
  1

  2
FUJITSU XL-5800
  4
A4
  6

 40
5.873749732971191
 41
5.704405784606932
 42
5.873748779296875
 43
5.873748779296875
 44
210.0579986572264
 45
296.9259948730469
 46
10.44999999999999
 47
86.37999999999998
 48
0.0
 49
0.0
140
0.0
141
0.0
142
1.0
143
4.0
 70
 11956
 72
     1
 73
     0
 74
     0
  7
LineScale_10.ctb
 75
    18
147
0.25
148
165.0831941459583
149
241.33600038081
100
AcDbLayout
  1
Model
 70
     1
 71
     0
 10
0.0
 20
0.0
 11
12.0
 21
9.0
 12
0.0
 22
0.0
 32
0.0
 14
0.0
 24
0.0
 34
0.0
 15
0.0
 25
0.0
 35
0.0
146
0.0
 13
0.0
 23
0.0
 33
0.0
 16
1.0
 26
0.0
 36
0.0
 17
0.0
 27
1.0
 37
0.0
 76
     0
330
18
  0
LAYOUT
  5
1B0
102
{ACAD_REACTORS
330
1AD
102
}
330
1AD
100
AcDbPlotSettings
  1
AdobePDF_A2
  2
Adobe PDF
  4
User66
  6
A1
 40
3.174999952316282
 41
3.174999952316282
 42
3.17498779296875
 43
3.17498779296875
 44
420.0
 45
594.0
 46
-3.169999999999998
 47
-3.169999999999998
 48
0.0
 49
0.0
140
594.0
141
420.0
142
1.0
143
1.0
 70
   692
 72
     1
 73
     1
 74
     4
  7
LineScale_10.ctb
 75
    16
147
1.0
148
0.0
149
0.0
100
AcDbLayout
  1
ﾚｲｱｳﾄ1
 70
     1
 71
     1
 10
-0.0049877929687501
 20
-0.0049999523162843
 11
593.9950122070312
 21
419.9950000476837
 12
0.0
 22
0.0
 32
0.0
 14
1.000000000000000E+20
 24
1.000000000000000E+20
 34
1.000000000000000E+20
 15
-1.000000000000000E+20
 25
-1.000000000000000E+20
 35
-1.000000000000000E+20
146
0.0
 13
0.0
 23
0.0
 33
0.0
 16
1.0
 26
0.0
 36
0.0
 17
0.0
 27
1.0
 37
0.0
 76
     0
330
15
331
37
  0
MLINESTYLE
  5
1C
102
{ACAD_REACTORS
330
1B
102
}
330
1B
100
AcDbMlineStyle
  2
STANDARD
 70
     0
  3

 62
   256
 51
90.0
 52
90.0
 71
     2
 49
0.5
 62
   256
  6
BYLAYER
 49
-0.5
 62
   256
  6
BYLAYER
  0
PLOTSETTINGS
  5
2E45
102
{ACAD_REACTORS
330
1AE
102
}
330
1AE
100
AcDbPlotSettings
  1
AdobePDF_A2
  2
Adobe PDF
  4
User66
  6
A1
 40
3.174999952316282
 41
3.174999952316282
 42
3.17498779296875
 43
3.17498779296875
 44
420.0
 45
594.0
 46
-3.169999999999998
 47
-3.169999999999998
 48
0.0
 49
0.0
140
594.0
141
420.0
142
1.0
143
1.0
 70
   692
 72
     1
 73
     1
 74
     4
  7
LineScale_10.ctb
 75
    16
147
1.0
148
0.0
149
0.0
  0
PLOTSETTINGS
  5
7A0
102
{ACAD_REACTORS
330
1AE
102
}
330
1AE
100
AcDbPlotSettings
  1
トレース紙Ａ１
  2
SII LP-2150 (D-SCAN)
  4
User117
  6
A1
 40
3.174999952316282
 41
3.174999952316282
 42
3.17498779296875
 43
3.17498779296875
 44
840.9939575195313
 45
593.97900390625
 46
1.0
 47
-7.0
 48
0.0
 49
0.0
140
841.0
141
594.0
142
1.0
143
1.0
 70
   688
 72
     1
 73
     0
 74
     4
  7
LineScale_10.ctb
 75
    16
147
1.0
148
0.0
149
0.0
  0
PLOTSETTINGS
  5
79E
102
{ACAD_REACTORS
330
1AE
102
}
330
1AE
100
AcDbPlotSettings
  1
トレース紙Ａ２
  2
SII LP-2150 (D-SCAN)
  4
User118
  6
A1
 40
3.174999952316282
 41
3.174999952316282
 42
3.17498779296875
 43
3.17498779296875
 44
593.97900390625
 45
419.9889831542968
 46
0.5
 47
-6.5
 48
0.0
 49
0.0
140
594.0
141
420.0
142
1.0
143
1.0
 70
   688
 72
     1
 73
     0
 74
     4
  7
LineScale_10.ctb
 75
    16
147
1.0
148
0.0
149
0.0
  0
PLOTSETTINGS
  5
79C
102
{ACAD_REACTORS
330
1AE
102
}
330
1AE
100
AcDbPlotSettings
  1
トレース紙Ａ３
  2
SII LP-2150 (D-SCAN)
  4
User257
  6
A1
 40
3.174999952316282
 41
3.174999952316282
 42
3.17498779296875
 43
3.17498779296875
 44
419.9889831542968
 45
296.989501953125
 46
1.0
 47
-6.0
 48
0.0
 49
0.0
140
420.0
141
297.0
142
1.0
143
1.0
 70
   688
 72
     1
 73
     0
 74
     4
  7
LineScale_10.ctb
 75
    16
147
1.0
148
0.0
149
0.0
  0
PLOTSETTINGS
  5
794
102
{ACAD_REACTORS
330
1AE
102
}
330
1AE
100
AcDbPlotSettings
  1
トレース紙Ａ４
  2
SII LP-2150 (D-SCAN)
  4
User258
  6
A1
 40
3.174999952316282
 41
3.174999952316282
 42
3.17498779296875
 43
3.175003051757812
 44
296.989501953125
 45
209.9944915771484
 46
0.8
 47
-2.0
 48
0.0
 49
0.0
140
210.0
141
297.0
142
1.0
143
1.0
 70
   688
 72
     1
 73
     1
 74
     4
  7
LineScale_10.ctb
 75
    16
147
1.0
148
0.0
149
0.0
  0
PLOTSETTINGS
  5
91D
102
{ACAD_REACTORS
330
1AE
102
}
330
1AE
100
AcDbPlotSettings
  1
モデル
  2
FUJITSU XL-5800
  4
A4
  6

 40
5.873749732971191
 41
5.704405784606932
 42
5.873748779296875
 43
5.873748779296875
 44
210.0579986572264
 45
296.9259948730469
 46
-934.06
 47
-482.3299999999998
 48
0.0
 49
0.0
140
0.0
141
0.0
142
1.0
143
1.0
 70
  1716
 72
     1
 73
     0
 74
     0
  7
LineScale_10.ctb
 75
    16
147
1.0
148
1033.210332103321
149
625.0
  0
PLOTSETTINGS
  5
92C
102
{ACAD_REACTORS
330
1AE
102
}
330
1AE
100
AcDbPlotSettings
  1
モデル XL-5810
  2
\\PROLIANT1500\FUJITSU XL-5810
  4
A4
  6

 40
5.873749732971191
 41
5.704405784606932
 42
5.873748779296875
 43
5.873748779296875
 44
210.0579986572264
 45
296.9259948730469
 46
-588.8099999999997
 47
-890.54
 48
0.0
 49
0.0
140
0.0
141
0.0
142
1.0
143
1.0
 70
  1716
 72
     1
 73
     1
 74
     0
  7
LineScale_10.ctb
 75
    16
147
1.0
148
1033.210332103321
149
625.0
  0
PLOTSETTINGS
  5
705
102
{ACAD_REACTORS
330
1AE
102
}
330
1AE
100
AcDbPlotSettings
  1
普通紙Ａ１からＡ３
  2
FUJITSU XL-5800
  4
A3
  6
A1
 40
5.873749732971191
 41
5.873747825622557
 42
5.70440673828125
 43
5.873748779296875
 44
296.9259948730469
 45
420.1159973144531
 46
-4.129999999999999
 47
-7.07
 48
0.0
 49
0.0
140
841.0
141
594.0
142
1.0
143
2.0
 70
   688
 72
     1
 73
     1
 74
     4
  7
LineScale_05.ctb
 75
    17
147
0.5
148
0.0
149
0.0
  0
PLOTSETTINGS
  5
A53
102
{ACAD_REACTORS
330
1AE
102
}
330
1AE
100
AcDbPlotSettings
  1
普通紙Ａ１からＡ３ XL-5810
  2
\\PROLIANT1500\FUJITSU XL-5810
  4
A3
  6
A1
 40
5.873749732971191
 41
5.873747825622557
 42
5.70440673828125
 43
5.873748779296875
 44
296.9259948730469
 45
420.1159973144531
 46
-4.129999999999999
 47
-7.07
 48
0.0
 49
0.0
140
841.0
141
594.0
142
1.0
143
2.0
 70
   688
 72
     1
 73
     1
 74
     4
  7
LineScale_05.ctb
 75
    17
147
0.5
148
0.0
149
0.0
  0
PLOTSETTINGS
  5
7A2
102
{ACAD_REACTORS
330
1AE
102
}
330
1AE
100
AcDbPlotSettings
  1
普通紙Ａ２からＡ３
  2
FUJITSU XL-5800
  4
A3
  6
A1
 40
5.873749732971191
 41
5.873747825622557
 42
5.70440673828125
 43
5.873748779296875
 44
296.9259948730469
 45
420.1159973144531
 46
-5.0
 47
-7.0
 48
0.0
 49
0.0
140
594.0
141
420.0
142
0.7071066999999999
143
1.0
 70
   672
 72
     1
 73
     1
 74
     4
  7
LineScale_07.ctb
 75
     0
147
0.7071066999999999
148
0.0
149
0.0
  0
PLOTSETTINGS
  5
A52
102
{ACAD_REACTORS
330
1AE
102
}
330
1AE
100
AcDbPlotSettings
  1
普通紙Ａ２からＡ３ XL-5810
  2
\\PROLIANT1500\FUJITSU XL-5810
  4
A3
  6
A1
 40
5.873749732971191
 41
5.873747825622557
 42
5.70440673828125
 43
5.873748779296875
 44
296.9259948730469
 45
420.1159973144531
 46
-5.0
 47
-7.0
 48
0.0
 49
0.0
140
594.0
141
420.0
142
0.7071066999999999
143
1.0
 70
   672
 72
     1
 73
     1
 74
     4
  7
LineScale_07.ctb
 75
     0
147
0.7071066999999999
148
0.0
149
0.0
  0
PLOTSETTINGS
  5
66A
102
{ACAD_REACTORS
330
1AE
102
}
330
1AE
100
AcDbPlotSettings
  1
普通紙Ａ３
  2
FUJITSU XL-5800
  4
A3
  6
A1
 40
5.873749732971191
 41
5.873747825622557
 42
5.70440673828125
 43
5.873748779296875
 44
296.9259948730469
 45
420.1159973144531
 46
-3.83
 47
-6.82
 48
0.0
 49
0.0
140
420.0
141
297.0
142
1.0
143
1.0
 70
   688
 72
     1
 73
     1
 74
     4
  7
LineScale_10.ctb
 75
    16
147
1.0
148
0.0
149
0.0
  0
PLOTSETTINGS
  5
A51
102
{ACAD_REACTORS
330
1AE
102
}
330
1AE
100
AcDbPlotSettings
  1
普通紙Ａ３ XL-5810
  2
\\PROLIANT1500\FUJITSU XL-5810
  4
A3
  6
A1
 40
5.873749732971191
 41
5.873747825622557
 42
5.70440673828125
 43
5.873748779296875
 44
296.9259948730469
 45
420.1159973144531
 46
-3.83
 47
-6.82
 48
0.0
 49
0.0
140
420.0
141
297.0
142
1.0
143
1.0
 70
   688
 72
     1
 73
     1
 74
     4
  7
LineScale_10.ctb
 75
    16
147
1.0
148
0.0
149
0.0
  0
PLOTSETTINGS
  5
66B
102
{ACAD_REACTORS
330
1AE
102
}
330
1AE
100
AcDbPlotSettings
  1
普通紙Ａ４
  2
FUJITSU XL-5800
  4
A4
  6
A1
 40
5.873749732971191
 41
5.704405784606932
 42
5.873748779296875
 43
5.873748779296875
 44
210.0579986572264
 45
296.9259948730469
 46
-6.82
 47
-3.83
 48
0.0
 49
0.0
140
420.0
141
297.0
142
1.0
143
1.0
 70
   688
 72
     1
 73
     0
 74
     4
  7
LineScale_10.ctb
 75
    16
147
1.0
148
0.0
149
0.0
  0
PLOTSETTINGS
  5
A50
102
{ACAD_REACTORS
330
1AE
102
}
330
1AE
100
AcDbPlotSettings
  1
普通紙Ａ４ XL-5810
  2
\\PROLIANT1500\FUJITSU XL-5810
  4
A4
  6
A1
 40
5.873749732971191
 41
5.704405784606932
 42
5.873748779296875
 43
5.873748779296875
 44
210.0579986572264
 45
296.9259948730469
 46
-6.82
 47
-3.83
 48
0.0
 49
0.0
140
420.0
141
297.0
142
1.0
143
1.0
 70
   688
 72
     1
 73
     0
 74
     4
  7
LineScale_10.ctb
 75
    16
147
1.0
148
0.0
149
0.0
  0
ACDBPLACEHOLDER
  5
1AC
102
{ACAD_REACTORS
330
1AB
102
}
330
1AB
  0
ENDSEC
  0
EOF
