  0
SECTION
  2
HEADER
  9
$ACADVER
  1
AC1015
  9
$ACADMAINTVER
 70
     6
  9
$DWGCODEPAGE
  3
ANSI_932
  9
$INSBASE
 10
0.0
 20
0.0
 30
0.0
  9
$EXTMIN
 10
923.1402500159274
 20
47.76581161861031
 30
-0.0000000100019835
  9
$EXTMAX
 10
1650.957897929523
 20
540.4696682310541
 30
0.0000000100019837
  9
$LIMMIN
 10
-841.0
 20
-594.0
  9
$LIMMAX
 10
841.0
 20
594.0
  9
$ORTHOMODE
 70
     0
  9
$REGENMODE
 70
     1
  9
$FILLMODE
 70
     1
  9
$QTEXTMODE
 70
     0
  9
$MIRRTEXT
 70
     0
  9
$LTSCALE
 40
7.0
  9
$ATTMODE
 70
     1
  9
$TEXTSIZE
 40
3.2
  9
$TRACEWID
 40
1.0
  9
$TEXTSTYLE
  7
DIMFONT
  9
$CLAYER
  8
DRAW2
  9
$CELTYPE
  6
BYLAYER
  9
$CECOLOR
 62
   256
  9
$CELTSCALE
 40
1.0
  9
$DISPSILH
 70
     0
  9
$DIMSCALE
 40
2.0
  9
$DIMASZ
 40
3.0
  9
$DIMEXO
 40
0.0
  9
$DIMDLI
 40
10.0
  9
$DIMRND
 40
0.0
  9
$DIMDLE
 40
0.0
  9
$DIMEXE
 40
1.0
  9
$DIMTP
 40
0.0
  9
$DIMTM
 40
0.0
  9
$DIMTXT
 40
3.2
  9
$DIMCEN
 40
0.0
  9
$DIMTSZ
 40
0.0
  9
$DIMTOL
 70
     0
  9
$DIMLIM
 70
     0
  9
$DIMTIH
 70
     0
  9
$DIMTOH
 70
     0
  9
$DIMSE1
 70
     0
  9
$DIMSE2
 70
     0
  9
$DIMTAD
 70
     3
  9
$DIMZIN
 70
     8
  9
$DIMBLK
  1

  9
$DIMASO
 70
     1
  9
$DIMSHO
 70
     1
  9
$DIMPOST
  1

  9
$DIMAPOST
  1

  9
$DIMALT
 70
     0
  9
$DIMALTD
 70
     2
  9
$DIMALTF
 40
25.4
  9
$DIMLFAC
 40
1.0
  9
$DIMTOFL
 70
     1
  9
$DIMTVP
 40
0.0
  9
$DIMTIX
 70
     0
  9
$DIMSOXD
 70
     0
  9
$DIMSAH
 70
     1
  9
$DIMBLK1
  1
OPEN
  9
$DIMBLK2
  1
OPEN
  9
$DIMSTYLE
  2
1_2
  9
$DIMCLRD
 70
     0
  9
$DIMCLRE
 70
     0
  9
$DIMCLRT
 70
     0
  9
$DIMTFAC
 40
0.75
  9
$DIMGAP
 40
1.0
  9
$DIMJUST
 70
     0
  9
$DIMSD1
 70
     0
  9
$DIMSD2
 70
     0
  9
$DIMTOLJ
 70
     1
  9
$DIMTZIN
 70
     8
  9
$DIMALTZ
 70
     0
  9
$DIMALTTZ
 70
     0
  9
$DIMUPT
 70
     0
  9
$DIMDEC
 70
     4
  9
$DIMTDEC
 70
     4
  9
$DIMALTU
 70
     2
  9
$DIMALTTD
 70
     2
  9
$DIMTXSTY
  7
DIMFONT
  9
$DIMAUNIT
 70
     0
  9
$DIMADEC
 70
     2
  9
$DIMALTRND
 40
0.0
  9
$DIMAZIN
 70
     2
  9
$DIMDSEP
 70
    46
  9
$DIMATFIT
 70
     1
  9
$DIMFRAC
 70
     0
  9
$DIMLDRBLK
  1
OPEN
  9
$DIMLUNIT
 70
     2
  9
$DIMLWD
 70
    -2
  9
$DIMLWE
 70
    -2
  9
$DIMTMOVE
 70
     0
  9
$LUNITS
 70
     2
  9
$LUPREC
 70
     4
  9
$SKETCHINC
 40
1.0
  9
$FILLETRAD
 40
0.0
  9
$AUNITS
 70
     0
  9
$AUPREC
 70
     4
  9
$MENU
  1
acad
  9
$ELEVATION
 40
0.0
  9
$PELEVATION
 40
0.0
  9
$THICKNESS
 40
0.0
  9
$LIMCHECK
 70
     0
  9
$CHAMFERA
 40
0.0
  9
$CHAMFERB
 40
0.0
  9
$CHAMFERC
 40
0.0
  9
$CHAMFERD
 40
0.0
  9
$SKPOLY
 70
     0
  9
$TDCREATE
 40
2452311.864408912
  9
$TDUCREATE
 40
2452311.489408912
  9
$TDUPDATE
 40
2454973.582255127
  9
$TDUUPDATE
 40
2454973.207255127
  9
$TDINDWG
 40
1.2758969676
  9
$TDUSRTIMER
 40
1.2758968519
  9
$USRTIMER
 70
     1
  9
$ANGBASE
 50
0.0
  9
$ANGDIR
 70
     0
  9
$PDMODE
 70
    35
  9
$PDSIZE
 40
0.5
  9
$PLINEWID
 40
0.0
  9
$SPLFRAME
 70
     0
  9
$SPLINETYPE
 70
     6
  9
$SPLINESEGS
 70
     8
  9
$HANDSEED
  5
D958
  9
$SURFTAB1
 70
     6
  9
$SURFTAB2
 70
     6
  9
$SURFTYPE
 70
     6
  9
$SURFU
 70
     6
  9
$SURFV
 70
     6
  9
$UCSBASE
  2

  9
$UCSNAME
  2

  9
$UCSORG
 10
0.0
 20
0.0
 30
0.0
  9
$UCSXDIR
 10
1.0
 20
0.0
 30
0.0
  9
$UCSYDIR
 10
0.0
 20
1.0
 30
0.0
  9
$UCSORTHOREF
  2

  9
$UCSORTHOVIEW
 70
     0
  9
$UCSORGTOP
 10
0.0
 20
0.0
 30
0.0
  9
$UCSORGBOTTOM
 10
0.0
 20
0.0
 30
0.0
  9
$UCSORGLEFT
 10
0.0
 20
0.0
 30
0.0
  9
$UCSORGRIGHT
 10
0.0
 20
0.0
 30
0.0
  9
$UCSORGFRONT
 10
0.0
 20
0.0
 30
0.0
  9
$UCSORGBACK
 10
0.0
 20
0.0
 30
0.0
  9
$PUCSBASE
  2

  9
$PUCSNAME
  2

  9
$PUCSORG
 10
0.0
 20
0.0
 30
0.0
  9
$PUCSXDIR
 10
1.0
 20
0.0
 30
0.0
  9
$PUCSYDIR
 10
0.0
 20
1.0
 30
0.0
  9
$PUCSORTHOREF
  2

  9
$PUCSORTHOVIEW
 70
     0
  9
$PUCSORGTOP
 10
0.0
 20
0.0
 30
0.0
  9
$PUCSORGBOTTOM
 10
0.0
 20
0.0
 30
0.0
  9
$PUCSORGLEFT
 10
0.0
 20
0.0
 30
0.0
  9
$PUCSORGRIGHT
 10
0.0
 20
0.0
 30
0.0
  9
$PUCSORGFRONT
 10
0.0
 20
0.0
 30
0.0
  9
$PUCSORGBACK
 10
0.0
 20
0.0
 30
0.0
  9
$USERI1
 70
     0
  9
$USERI2
 70
     0
  9
$USERI3
 70
     0
  9
$USERI4
 70
     0
  9
$USERI5
 70
     0
  9
$USERR1
 40
0.0
  9
$USERR2
 40
0.0
  9
$USERR3
 40
0.0
  9
$USERR4
 40
0.0
  9
$USERR5
 40
0.0
  9
$WORLDVIEW
 70
     1
  9
$SHADEDGE
 70
     3
  9
$SHADEDIF
 70
    70
  9
$TILEMODE
 70
     1
  9
$MAXACTVP
 70
    48
  9
$PINSBASE
 10
0.0
 20
0.0
 30
0.0
  9
$PLIMCHECK
 70
     0
  9
$PEXTMIN
 10
1.000000000000000E+20
 20
1.000000000000000E+20
 30
1.000000000000000E+20
  9
$PEXTMAX
 10
-1.000000000000000E+20
 20
-1.000000000000000E+20
 30
-1.000000000000000E+20
  9
$PLIMMIN
 10
-0.0049877929687501
 20
-0.0049999523162843
  9
$PLIMMAX
 10
593.9950122070312
 20
419.9950000476837
  9
$UNITMODE
 70
     0
  9
$VISRETAIN
 70
     0
  9
$PLINEGEN
 70
     1
  9
$PSLTSCALE
 70
     1
  9
$TREEDEPTH
 70
  3020
  9
$CMLSTYLE
  2
STANDARD
  9
$CMLJUST
 70
     0
  9
$CMLSCALE
 40
20.0
  9
$PROXYGRAPHICS
 70
     1
  9
$MEASUREMENT
 70
     1
  9
$CELWEIGHT
370
    -1
  9
$ENDCAPS
280
     0
  9
$JOINSTYLE
280
     0
  9
$LWDISPLAY
290
     0
  9
$INSUNITS
 70
     0
  9
$HYPERLINKBASE
  1

  9
$STYLESHEET
  1

  9
$XEDIT
290
     1
  9
$CEPSNTYPE
380
     0
  9
$PSTYLEMODE
290
     1
  9
$FINGERPRINTGUID
  2
{7FD28A7C-F8BA-11D3-9BCC-00A0C977751D}
  9
$VERSIONGUID
  2
{52029B51-C541-43B1-A34B-9255E978DEDC}
  9
$EXTNAMES
290
     1
  9
$PSVPSCALE
 40
0.0
  9
$OLESTARTUP
290
     0
  0
ENDSEC
  0
SECTION
  2
CLASSES
  0
CLASS
  1
LWPOLYLINE
  2
AcDbPolyline
  3
AutoCAD 2000
 90
    32768
280
     0
281
     1
  0
CLASS
  1
ACDBDICTIONARYWDFLT
  2
AcDbDictionaryWithDefault
  3
AutoCAD 2000
 90
        0
280
     0
281
     0
  0
CLASS
  1
ACDBPLACEHOLDER
  2
AcDbPlaceHolder
  3
AutoCAD 2000
 90
        0
280
     0
281
     0
  0
CLASS
  1
LAYOUT
  2
AcDbLayout
  3
AutoCAD 2000
 90
        0
280
     0
281
     0
  0
CLASS
  1
PLOTSETTINGS
  2
AcDbPlotSettings
  3
AutoCAD 2000
 90
        0
280
     0
281
     0
  0
CLASS
  1
RASTERVARIABLES
  2
AcDbRasterVariables
  3
ISM
 90
        0
280
     0
281
     0
  0
ENDSEC
  0
SECTION
  2
TABLES
  0
TABLE
  2
VPORT
  5
8
330
0
100
AcDbSymbolTable
 70
     2
  0
VPORT
  5
D957
330
8
100
AcDbSymbolTableRecord
100
AcDbViewportTableRecord
  2
*Active
 70
     0
 10
0.0
 20
0.0
 11
1.0
 21
1.0
 12
1287.049073972725
 22
294.1177399248322
 13
0.0
 23
0.0
 14
5.0
 24
5.0
 15
10.0
 25
10.0
 16
0.0
 26
0.0
 36
1.0
 17
0.0
 27
0.0
 37
0.0
 40
496.4506540011316
 41
1.493654822335025
 42
50.0
 43
0.0
 44
0.0
 50
0.0
 51
0.0
 71
     0
 72
   100
 73
     1
 74
     0
 75
     0
 76
     0
 77
     0
 78
     1
281
     0
 65
     1
110
0.0
120
0.0
130
0.0
111
1.0
121
0.0
131
0.0
112
0.0
122
1.0
132
0.0
 79
     0
146
0.0
  0
ENDTAB
  0
TABLE
  2
LTYPE
  5
5
330
0
100
AcDbSymbolTable
 70
     2
  0
LTYPE
  5
12
330
5
100
AcDbSymbolTableRecord
100
AcDbLinetypeTableRecord
  2
BYBLOCK
 70
     0
  3

 72
    65
 73
     0
 40
0.0
  0
LTYPE
  5
13
330
5
100
AcDbSymbolTableRecord
100
AcDbLinetypeTableRecord
  2
BYLAYER
 70
     0
  3

 72
    65
 73
     0
 40
0.0
  0
LTYPE
  5
14
330
5
100
AcDbSymbolTableRecord
100
AcDbLinetypeTableRecord
  2
CONTINUOUS
 70
     0
  3
Solid line
 72
    65
 73
     0
 40
0.0
  0
LTYPE
  5
23
330
5
100
AcDbSymbolTableRecord
100
AcDbLinetypeTableRecord
  2
HIDDEN
 70
     0
  3
__ __ __ __ __ __ __ __ __ __ __ __ __ __ __ __
 72
    65
 73
     2
 40
0.375
 49
0.25
 74
     0
 49
-0.125
 74
     0
  0
ENDTAB
  0
TABLE
  2
LAYER
  5
2
330
0
100
AcDbSymbolTable
 70
     6
  0
LAYER
  5
E
330
2
100
AcDbSymbolTableRecord
100
AcDbLayerTableRecord
  2
0
 70
     0
 62
     7
  6
CONTINUOUS
370
    -3
390
1AC
  0
LAYER
  5
29
330
2
100
AcDbSymbolTableRecord
100
AcDbLayerTableRecord
  2
DRAW2
 70
     0
 62
     4
  6
CONTINUOUS
370
    -3
390
1AC
  0
LAYER
  5
2A
330
2
100
AcDbSymbolTableRecord
100
AcDbLayerTableRecord
  2
DRAW3
 70
     0
 62
     1
  6
CONTINUOUS
370
    -3
390
1AC
  0
LAYER
  5
2B
330
2
100
AcDbSymbolTableRecord
100
AcDbLayerTableRecord
  2
DRAW4
 70
     0
 62
     2
  6
CONTINUOUS
370
    -3
390
1AC
  0
LAYER
  5
2C
330
2
100
AcDbSymbolTableRecord
100
AcDbLayerTableRecord
  2
HIDDEN
 70
     0
 62
     7
  6
HIDDEN
370
    -3
390
1AC
  0
LAYER
  5
133
330
2
100
AcDbSymbolTableRecord
100
AcDbLayerTableRecord
  2
DEFPOINTS
 70
     0
 62
     7
  6
CONTINUOUS
290
     0
370
    -3
390
1AC
  0
ENDTAB
  0
TABLE
  2
STYLE
  5
3
330
0
100
AcDbSymbolTable
 70
     2
  0
STYLE
  5
F
330
3
100
AcDbSymbolTableRecord
100
AcDbTextStyleTableRecord
  2
STANDARD
 70
     0
 40
0.0
 41
1.0
 50
0.0
 71
     0
 42
2.5
  3
txt
  4

  0
STYLE
  5
30
330
3
100
AcDbSymbolTableRecord
100
AcDbTextStyleTableRecord
  2
DIMFONT
 70
     0
 40
0.0
 41
1.0
 50
10.0
 71
     0
 42
3.2
  3
romans.shx
  4
extfont.shx
  0
ENDTAB
  0
TABLE
  2
VIEW
  5
6
330
0
100
AcDbSymbolTable
 70
     5
  0
VIEW
  5
C27
330
6
100
AcDbSymbolTableRecord
100
AcDbViewTableRecord
  2
View1
 70
     0
 40
1250.0
 10
0.0
 20
0.0
 41
2066.420664206642
 11
0.0
 21
0.0
 31
1.0
 12
0.0
 22
0.0
 32
0.0
 42
50.0
 43
0.0
 44
0.0
 50
0.0
 71
     0
281
     0
 72
     1
110
0.0
120
0.0
130
0.0
111
1.0
121
0.0
131
0.0
112
0.0
122
1.0
132
0.0
 79
     0
146
0.0
  0
VIEW
  5
C2A
330
6
100
AcDbSymbolTableRecord
100
AcDbViewTableRecord
  2
A4
 70
     1
 40
314.2148930664061
 10
103.8222427368164
 20
144.5197510242462
 41
519.4401184271216
 11
0.0
 21
0.0
 31
1.0
 12
0.0
 22
0.0
 32
0.0
 42
50.0
 43
0.0
 44
0.0
 50
0.0
 71
     0
281
     0
 72
     1
110
0.0
120
0.0
130
0.0
111
1.0
121
0.0
131
0.0
112
0.0
122
1.0
132
0.0
 79
     0
146
0.0
  0
VIEW
  5
C2B
330
6
100
AcDbSymbolTableRecord
100
AcDbViewTableRecord
  2
A3
 70
     1
 40
314.2148930664061
 10
205.819491624832
 20
151.3197510242461
 41
519.4401184271216
 11
0.0
 21
0.0
 31
1.0
 12
0.0
 22
0.0
 32
0.0
 42
50.0
 43
0.0
 44
0.0
 50
0.0
 71
     0
281
     0
 72
     1
110
0.0
120
0.0
130
0.0
111
1.0
121
0.0
131
0.0
112
0.0
122
1.0
132
0.0
 79
     0
146
0.0
  0
VIEW
  5
C2C
330
6
100
AcDbSymbolTableRecord
100
AcDbViewTableRecord
  2
A2
 70
     1
 40
444.348344177246
 10
293.3145020008086
 20
213.319491624832
 41
734.5684804110931
 11
0.0
 21
0.0
 31
1.0
 12
0.0
 22
0.0
 32
0.0
 42
50.0
 43
0.0
 44
0.0
 50
0.0
 71
     0
281
     0
 72
     1
110
0.0
120
0.0
130
0.0
111
1.0
121
0.0
131
0.0
112
0.0
122
1.0
132
0.0
 79
     0
146
0.0
  0
VIEW
  5
C2D
330
6
100
AcDbSymbolTableRecord
100
AcDbViewTableRecord
  2
A1
 70
     1
 40
628.2954051513671
 10
422.5084997558592
 20
293.4384954071043
 41
1038.658086744695
 11
0.0
 21
0.0
 31
1.0
 12
0.0
 22
0.0
 32
0.0
 42
50.0
 43
0.0
 44
0.0
 50
0.0
 71
     0
281
     0
 72
     1
110
0.0
120
0.0
130
0.0
111
1.0
121
0.0
131
0.0
112
0.0
122
1.0
132
0.0
 79
     0
146
0.0
  0
ENDTAB
  0
TABLE
  2
UCS
  5
7
330
0
100
AcDbSymbolTable
 70
     0
  0
ENDTAB
  0
TABLE
  2
APPID
  5
9
330
0
100
AcDbSymbolTable
 70
     1
  0
APPID
  5
10
330
9
100
AcDbSymbolTableRecord
100
AcDbRegAppTableRecord
  2
ACAD
 70
     0
  0
ENDTAB
  0
TABLE
  2
DIMSTYLE
  5
A
330
0
100
AcDbSymbolTable
 70
     2
100
AcDbDimStyleTable
 71
     1
340
4B
  0
DIMSTYLE
105
4B
330
A
100
AcDbSymbolTableRecord
100
AcDbDimStyleTableRecord
  2
1_2
 70
     0
 40
2.0
 41
3.0
 42
0.0
 43
10.0
 44
1.0
 73
     0
 74
     0
 77
     3
 78
     8
 79
     2
140
3.2
141
0.0
146
0.75
147
1.0
172
     1
173
     1
179
     2
284
     8
289
     1
340
30
341
125
343
125
344
125
  0
DIMSTYLE
105
26A3
330
A
100
AcDbSymbolTableRecord
100
AcDbDimStyleTableRecord
  2
STANDARD
 70
     0
340
F
  0
ENDTAB
  0
TABLE
  2
BLOCK_RECORD
  5
1
330
0
100
AcDbSymbolTable
 70
     1
  0
BLOCK_RECORD
  5
18
330
1
100
AcDbSymbolTableRecord
100
AcDbBlockTableRecord
  2
*MODEL_SPACE
340
1AF
  0
BLOCK_RECORD
  5
15
330
1
100
AcDbSymbolTableRecord
100
AcDbBlockTableRecord
  2
*PAPER_SPACE
340
1B0
  0
BLOCK_RECORD
  5
125
330
1
100
AcDbSymbolTableRecord
100
AcDbBlockTableRecord
  2
_OPEN
340
0
102
{BLKREFS
331
2665
331
2666
331
2671
331
2672
331
267D
331
267E
331
D6E9
331
D6EA
331
D71F
331
D720
331
D728
331
D729
331
D84F
331
D850
331
D861
331
D862
331
D87C
331
D87D
331
D885
331
D886
331
D8A9
331
D8AA
331
D8B2
331
D8B3
331
D8C4
331
D8C5
331
D8CD
331
D8CE
331
D8D6
331
D8D7
331
D8DF
331
D8E0
331
D8E8
331
D8E9
331
D903
331
D904
331
D90C
331
D90D
331
D91E
331
D91F
331
D940
331
D941
102
}
  0
ENDTAB
  0
ENDSEC
  0
SECTION
  2
BLOCKS
  0
BLOCK
  5
19
330
18
100
AcDbEntity
  8
0
100
AcDbBlockBegin
  2
*MODEL_SPACE
 70
     0
 10
0.0
 20
0.0
 30
0.0
  3
*MODEL_SPACE
  1

  0
ENDBLK
  5
1A
330
18
100
AcDbEntity
  8
0
100
AcDbBlockEnd
  0
BLOCK
  5
16
330
15
100
AcDbEntity
 67
     1
  8
0
100
AcDbBlockBegin
  2
*PAPER_SPACE
 70
     0
 10
0.0
 20
0.0
 30
0.0
  3
*PAPER_SPACE
  1

  0
ENDBLK
  5
17
330
15
100
AcDbEntity
 67
     1
  8
0
100
AcDbBlockEnd
  0
BLOCK
  5
126
330
125
100
AcDbEntity
  8
0
100
AcDbBlockBegin
  2
_OPEN
 70
     0
 10
0.0
 20
0.0
 30
0.0
  3
_OPEN
  1

  0
LINE
  5
127
330
125
100
AcDbEntity
  8
0
  6
ByBlock
 62
     0
100
AcDbLine
 10
-1.0
 20
0.1666666666666666
 30
0.0
 11
0.0
 21
0.0
 31
0.0
  0
LINE
  5
128
330
125
100
AcDbEntity
  8
0
  6
ByBlock
 62
     0
100
AcDbLine
 10
0.0
 20
0.0
 30
0.0
 11
-1.0
 21
-0.1666666666666666
 31
0.0
  0
LINE
  5
129
330
125
100
AcDbEntity
  8
0
  6
ByBlock
 62
     0
100
AcDbLine
 10
0.0
 20
0.0
 30
0.0
 11
-1.0
 21
0.0
 31
0.0
  0
ENDBLK
  5
12A
330
125
100
AcDbEntity
  8
0
100
AcDbBlockEnd
  0
ENDSEC
  0
SECTION
  2
ENTITIES
  0
TEXT
  5
2783
330
18
100
AcDbEntity
  8
0
100
AcDbText
 10
289.9791188454981
 20
596.5343442442899
 30
0.0
 40
3.2
  1

 51
10.0
  7
DIMFONT
100
AcDbText
  0
TEXT
  5
2791
330
18
100
AcDbEntity
  8
0
100
AcDbText
 10
399.046620988657
 20
559.3598774521149
 30
0.0
 40
3.2
  1

 51
10.0
  7
DIMFONT
100
AcDbText
  0
ELLIPSE
  5
D27F
330
18
100
AcDbEntity
  8
DRAW2
100
AcDbEllipse
 10
1037.742688602013
 20
403.1935496438611
 30
0.0
 11
-21.75
 21
0.0
 31
0.0
210
0.0
220
0.0
230
1.0
 40
0.5000000000000027
 41
2.767217855209881
 42
4.578347251794396
  0
ELLIPSE
  5
D280
330
18
100
AcDbEntity
  8
DRAW2
100
AcDbEllipse
 10
1037.742688602013
 20
403.1935496438611
 30
0.0
 11
-21.75
 21
0.0
 31
0.0
210
0.0
220
0.0
230
1.0
 40
0.5000000000000027
 41
6.835031884408377
 42
7.622022058419167
  0
ELLIPSE
  5
D281
330
18
100
AcDbEntity
  8
DRAW2
100
AcDbEllipse
 10
1037.742688602013
 20
403.1935496438611
 30
0.0
 11
-21.75
 21
0.0
 31
0.0
210
0.0
220
0.0
230
1.0
 40
0.5000000000000027
 41
4.84643070897505
 42
6.67026306227921
  0
ELLIPSE
  5
D282
330
18
100
AcDbEntity
  8
DRAW2
100
AcDbEllipse
 10
1037.742688602013
 20
405.7916258552144
 30
0.0
 11
-24.0
 21
0.0
 31
0.0
210
0.0
220
0.0
230
1.0
 40
0.5
 41
2.960941467285354
 42
6.463836493482722
  0
ELLIPSE
  5
D283
330
18
100
AcDbEntity
  8
DRAW2
100
AcDbEllipse
 10
1037.742688602013
 20
403.1935496438611
 30
0.0
 11
-21.75
 21
0.0
 31
0.0
210
0.0
220
0.0
230
1.0
 40
0.5000000000000027
 41
1.802755902350159
 42
2.589746076361
  0
ELLIPSE
  5
D284
330
18
100
AcDbEntity
  8
DRAW2
100
AcDbEllipse
 10
1037.742688602013
 20
404.9256004514301
 30
0.0
 11
-23.75
 21
0.0
 31
0.0
210
0.0
220
0.0
230
1.0
 40
0.5
 41
2.465218882673238
 42
6.959559078096138
  0
ELLIPSE
  5
D285
330
18
100
AcDbEntity
  8
DRAW2
100
AcDbEllipse
 10
1037.742688602013
 20
218.0105988059465
 30
0.0
 11
-24.0
 21
0.0
 31
0.0
210
0.0
220
0.0
230
1.0
 40
0.8660254037844396
 41
5.824482302477295
 42
9.883480965471667
  0
ELLIPSE
  5
D286
330
18
100
AcDbEntity
  8
DRAW2
100
AcDbEllipse
 10
1037.742688602013
 20
415.1951048267344
 30
0.0
 11
-3.5
 21
0.0
 31
0.0
210
0.0
220
0.0
230
1.0
 40
0.5
 41
0.6934695556939233
 42
2.448123097895869
  0
ELLIPSE
  5
D287
330
18
100
AcDbEntity
  8
DRAW2
100
AcDbEllipse
 10
1037.742688602013
 20
412.5970286153807
 30
0.0
 11
-4.0
 21
0.0
 31
0.0
210
0.0
220
0.0
230
1.0
 40
0.5
 41
0.0
 42
6.283185307179585
  0
ELLIPSE
  5
D288
330
18
100
AcDbEntity
  8
DRAW2
100
AcDbEllipse
 10
1054.297161273917
 20
398.4435286153807
 30
0.0
 11
-4.0
 21
0.0
 31
0.0
210
0.0
220
0.0
230
1.0
 40
0.5
 41
3.380623135873761
 42
7.973399468990139
  0
ELLIPSE
  5
D289
330
18
100
AcDbEntity
  8
DRAW2
100
AcDbEllipse
 10
1054.297161273917
 20
401.0416048267341
 30
0.0
 11
-3.5
 21
0.0
 31
0.0
210
0.0
220
0.0
230
1.0
 40
0.5
 41
0.6934695556939233
 42
2.448123097895869
  0
ELLIPSE
  5
D28A
330
18
100
AcDbEntity
  8
DRAW2
100
AcDbEllipse
 10
1021.388195930108
 20
401.0416048267341
 30
0.0
 11
-3.5
 21
0.0
 31
0.0
210
0.0
220
0.0
230
1.0
 40
0.5
 41
0.6934695556939233
 42
2.448123097895869
  0
ELLIPSE
  5
D28B
330
18
100
AcDbEntity
  8
DRAW2
100
AcDbEllipse
 10
1021.388195930108
 20
398.4435286153807
 30
0.0
 11
-4.0
 21
0.0
 31
0.0
210
0.0
220
0.0
230
1.0
 40
0.5
 41
1.367290287171156
 42
6.137050603052133
  0
ELLIPSE
  5
D28C
330
18
100
AcDbEntity
  8
DRAW2
100
AcDbEllipse
 10
1037.742688602013
 20
219.5105988059462
 30
0.0
 11
-21.75
 21
0.0
 31
0.0
210
0.0
220
0.0
230
1.0
 40
0.8660254037844406
 41
6.949795470482996
 42
8.758167797466008
  0
ELLIPSE
  5
D28D
330
18
100
AcDbEntity
  8
DRAW2
100
AcDbEllipse
 10
1037.742688602013
 20
219.5105988059462
 30
0.0
 11
-21.75
 21
0.0
 31
0.0
210
0.0
220
0.0
230
1.0
 40
0.8660254037844406
 41
9.044190572876507
 42
10.78108767968245
  0
ELLIPSE
  5
D28E
330
18
100
AcDbEntity
  8
DRAW2
100
AcDbEllipse
 10
1054.197171273916
 20
211.2833574700023
 30
0.0
 11
4.0
 21
0.0
 31
0.0
210
0.0
220
0.0
230
-1.0
 40
0.8660254037844481
 41
0.0
 42
6.283185307179585
  0
ELLIPSE
  5
D28F
330
18
100
AcDbEntity
  8
DRAW2
100
AcDbEllipse
 10
1054.197171273916
 20
209.7833574700024
 30
0.0
 11
3.5
 21
0.0
 31
0.0
210
0.0
220
0.0
230
-1.0
 40
0.8660254037844358
 41
3.079694177223776
 42
6.345083783545602
  0
ELLIPSE
  5
D290
330
18
100
AcDbEntity
  8
DRAW2
100
AcDbEllipse
 10
1021.288205930108
 20
211.2833574700023
 30
0.0
 11
-4.0
 21
0.0
 31
0.0
210
0.0
220
0.0
230
1.0
 40
0.8660254037844481
 41
0.0
 42
6.283185307179585
  0
ELLIPSE
  5
D291
330
18
100
AcDbEntity
  8
DRAW2
100
AcDbEllipse
 10
1021.288205930108
 20
209.7833574700024
 30
0.0
 11
-3.5
 21
0.0
 31
0.0
210
0.0
220
0.0
230
1.0
 40
0.8660254037844358
 41
3.079694177223776
 42
6.345083783545602
  0
ELLIPSE
  5
D292
330
18
100
AcDbEntity
  8
DRAW2
100
AcDbEllipse
 10
1037.742688602013
 20
404.6935496438614
 30
0.0
 11
-4.991934599524255
 21
0.0
 31
0.0
210
0.0
220
0.0
230
1.0
 40
0.4871858698292514
 41
3.141592653589792
 42
6.283185307179585
  0
ELLIPSE
  5
D293
330
18
100
AcDbEntity
  8
DRAW2
100
AcDbEllipse
 10
1037.742688602013
 20
395.1412894401188
 30
0.0
 11
-4.200000000000073
 21
0.0
 31
0.0
210
0.0
220
0.0
230
1.0
 40
0.5000000000000103
 41
3.141592653589792
 42
6.283185307179585
  0
ELLIPSE
  5
D294
330
18
100
AcDbEntity
  8
DRAW2
100
AcDbEllipse
 10
1037.742688602013
 20
393.4092386325501
 30
0.0
 11
-4.323499999999953
 21
0.0
 31
0.0
210
0.0
220
0.0
230
1.0
 40
0.5000000000000148
 41
3.650258012205201
 42
5.774519948564178
  0
ELLIPSE
  5
D295
330
18
100
AcDbEntity
  8
DRAW2
100
AcDbEllipse
 10
1037.742688602013
 20
392.8233724468899
 30
0.0
 11
-5.000000000000262
 21
0.0
 31
0.0
210
0.0
220
0.0
230
1.0
 40
0.4999999999999851
 41
3.141592653589792
 42
6.283185307179585
  0
SPLINE
  5
D296
330
18
100
AcDbEntity
  8
DRAW3
100
AcDbSpline
210
0.0
220
0.0
230
1.0
 70
     8
 71
     3
 72
    10
 73
     6
 74
     4
 42
0.0000000001
 43
0.0000000001
 44
0.0000000001
 40
0.0
 40
0.0
 40
0.0
 40
0.0
 40
1.972684243528778
 40
4.621558289201604
 40
6.679776794359074
 40
6.679776794359074
 40
6.679776794359074
 40
6.679776794359074
 10
1040.695558528831
 20
362.0913026595997
 30
0.0
 10
1040.119286531356
 20
361.6317578725642
 30
0.0
 10
1038.769210037614
 20
360.5551471444407
 30
0.0
 10
1036.586660301125
 20
362.8355957035834
 30
0.0
 10
1035.270890635612
 20
361.6217547794591
 30
0.0
 10
1034.695558528831
 20
361.0909919305516
 30
0.0
 11
1040.695558528831
 21
362.0913026595997
 31
0.0
 11
1038.937596480547
 21
361.1962872622687
 31
0.0
 11
1036.464043323545
 21
362.1439520180371
 31
0.0
 11
1034.695558528831
 21
361.0909919305516
 31
0.0
  0
ELLIPSE
  5
D297
330
18
100
AcDbEntity
  8
DRAW2
100
AcDbEllipse
 10
1037.695558528831
 20
382.3763529824908
 30
0.0
 11
-3.0
 21
0.0
 31
0.0
210
0.0
220
0.0
230
1.0
 40
0.4999999999999621
 41
3.141592653589792
 42
6.283185307179585
  0
ELLIPSE
  5
D298
330
18
100
AcDbEntity
  8
DRAW2
100
AcDbEllipse
 10
1037.695558528831
 20
385.3293974391137
 30
0.0
 11
-5.75
 21
0.0
 31
0.0
210
0.0
220
0.0
230
1.0
 40
0.4382663921270626
 41
3.141592653589792
 42
6.283185307179585
  0
ELLIPSE
  5
D299
330
18
100
AcDbEntity
  8
DRAW2
100
AcDbEllipse
 10
1037.695558528831
 20
382.8093656843831
 30
0.0
 11
-5.75
 21
0.0
 31
0.0
210
0.0
220
0.0
230
1.0
 40
0.5000000000000099
 41
2.729778632910681
 42
6.69499932785875
  0
ELLIPSE
  5
D29A
330
18
100
AcDbEntity
  8
DRAW2
100
AcDbEllipse
 10
1037.695558528831
 20
382.3763529824909
 30
0.0
 11
-5.461325000000458
 21
0.0
 31
0.0
210
0.0
220
0.0
230
1.0
 40
0.4999999999999777
 41
2.152343274395303
 42
7.272434686374075
  0
ELLIPSE
  5
D29B
330
18
100
AcDbEntity
  8
DRAW2
100
AcDbEllipse
 10
1037.742688602013
 20
222.1086751338626
 30
0.0
 11
-4.212347564007528
 21
0.0
 31
0.0
210
0.0
220
0.0
230
1.0
 40
1.0
 41
0.3487073177418718
 42
2.838258533819106
  0
ELLIPSE
  5
D29C
330
18
100
AcDbEntity
  8
DRAW2
100
AcDbEllipse
 10
1037.742688602013
 20
228.1236751338627
 30
0.0
 11
-4.199999999999987
 21
0.0
 31
0.0
210
0.0
220
0.0
230
1.0
 40
0.9850730228320859
 41
0.5638493951521996
 42
2.577743258217048
  0
ELLIPSE
  5
D29D
330
18
100
AcDbEntity
  8
DRAW2
100
AcDbEllipse
 10
1037.742688602216
 20
228.9619251338626
 30
0.0
 11
-5.0
 21
0.0
 31
0.0
210
0.0
220
0.0
230
1.0
 40
0.8660254037844367
 41
7.985152868264627
 42
8.749774919590343
  0
ELLIPSE
  5
D29E
330
18
100
AcDbEntity
  8
DRAW2
100
AcDbEllipse
 10
1037.742688602216
 20
228.9619251338626
 30
0.0
 11
-5.0
 21
0.0
 31
0.0
210
0.0
220
0.0
230
1.0
 40
0.8660254037844367
 41
6.958188348496994
 42
7.722810399494485
  0
SPLINE
  5
D29F
330
18
100
AcDbEntity
  8
DRAW3
100
AcDbSpline
210
0.0
220
0.0
230
1.0
 70
     8
 71
     3
 72
    10
 73
     6
 74
     4
 42
0.0000000001
 43
0.0000000001
 44
0.0000000001
 40
0.0
 40
0.0
 40
0.0
 40
0.0
 40
1.972684243528778
 40
4.621558289201816
 40
6.679776794359091
 40
6.679776794359091
 40
6.679776794359091
 40
6.679776794359091
 10
1040.742688602013
 20
258.9657304101533
 30
0.0
 10
1040.166416604538
 20
258.5061856231178
 30
0.0
 10
1038.816340110797
 20
257.4295748949944
 30
0.0
 10
1036.633790374306
 20
259.7100234541369
 30
0.0
 10
1035.318020708794
 20
258.4961825300126
 30
0.0
 10
1034.742688602013
 20
257.9654196811052
 30
0.0
 11
1040.742688602013
 21
258.9657304101533
 31
0.0
 11
1038.984726553729
 21
258.0707150128223
 31
0.0
 11
1036.511173396726
 21
259.0183797685907
 31
0.0
 11
1034.742688602013
 21
257.9654196811052
 31
0.0
  0
ELLIPSE
  5
D2A0
330
18
100
AcDbEntity
  8
DRAW2
100
AcDbEllipse
 10
1037.742688602013
 20
234.9935145172999
 30
0.0
 11
-3.0
 21
0.0
 31
0.0
210
0.0
220
0.0
230
1.0
 40
0.8660254037844387
 41
0.0
 42
3.141592653589792
  0
ELLIPSE
  5
D2A1
330
18
100
AcDbEntity
  8
DRAW2
100
AcDbEllipse
 10
1037.742688602013
 20
233.4935145172996
 30
0.0
 11
-5.749999999999943
 21
0.0
 31
0.0
210
0.0
220
0.0
230
1.0
 40
0.8660254037844431
 41
6.283185307179585
 42
9.424777960769381
  0
ELLIPSE
  5
D2A2
330
18
100
AcDbEntity
  8
DRAW2
100
AcDbEllipse
 10
1037.742688602013
 20
234.7435145172998
 30
0.0
 11
-5.75
 21
0.0
 31
0.0
210
0.0
220
0.0
230
1.0
 40
0.8660254037844346
 41
5.26127725202778
 42
10.44668601592118
  0
ELLIPSE
  5
D2A3
330
18
100
AcDbEntity
  8
DRAW2
100
AcDbEllipse
 10
1037.742688602013
 20
234.9935145172997
 30
0.0
 11
-5.461324999999987
 21
0.0
 31
0.0
210
0.0
220
0.0
230
1.0
 40
0.8660254037844396
 41
5.293935927985153
 42
10.41402733996381
  0
ELLIPSE
  5
D2A4
330
18
100
AcDbEntity
  8
DRAW2
100
AcDbEllipse
 10
1037.742688602013
 20
218.5105988059461
 30
0.0
 11
-23.75
 21
0.0
 31
0.0
210
0.0
220
0.0
230
1.0
 40
0.8660254037844422
 41
4.858184900257283
 42
10.84977662706195
  0
ELLIPSE
  5
D2A5
330
18
100
AcDbEntity
  8
DRAW2
100
AcDbEllipse
 10
1037.742688602013
 20
219.5105988059462
 30
0.0
 11
-21.75
 21
0.0
 31
0.0
210
0.0
220
0.0
230
1.0
 40
0.8660254037844406
 41
4.92687369411719
 42
6.663772695071953
  0
ELLIPSE
  5
D2A6
330
18
100
AcDbEntity
  8
DRAW2
100
AcDbEllipse
 10
1029.742688602013
 20
136.4412047622695
 30
0.0
 11
5.000000000000028
 21
0.0000000006902672
 31
0.0
210
0.0
220
0.0
230
-1.0
 40
0.5655789432460123
 41
3.141592653833853
 42
6.283185307423647
  0
ELLIPSE
  5
D2A7
330
18
100
AcDbEntity
  8
DRAW2
100
AcDbEllipse
 10
1029.742688602013
 20
135.4443156891427
 30
0.0
 11
4.999999999999943
 21
-0.0000000000000804
 31
0.0
210
0.0
220
0.0
230
-1.0
 40
0.6192927609469807
 41
0.0
 42
6.283185307179585
  0
ELLIPSE
  5
D2A8
330
18
100
AcDbEntity
  8
DRAW2
100
AcDbEllipse
 10
1045.742688602013
 20
135.4443156891427
 30
0.0
 11
4.999999999999943
 21
-0.0000000000000804
 31
0.0
210
0.0
220
0.0
230
-1.0
 40
0.6192927609469807
 41
0.0
 42
6.283185307179585
  0
ELLIPSE
  5
D2A9
330
18
100
AcDbEntity
  8
DRAW2
100
AcDbEllipse
 10
1045.742688602013
 20
136.4412047622695
 30
0.0
 11
5.000000000000028
 21
0.0000000006902672
 31
0.0
210
0.0
220
0.0
230
-1.0
 40
0.5655789432460123
 41
3.141592653833853
 42
6.283185307423647
  0
LINE
  5
D2AC
330
18
100
AcDbEntity
  8
DRAW2
100
AcDbLine
 10
1034.742701823166
 20
250.0105688059458
 30
0.0
 11
995.2427136020132
 21
250.0105688059458
 31
0.0
  0
LINE
  5
D2AD
330
18
100
AcDbEntity
  8
DRAW2
100
AcDbLine
 10
1080.242663602013
 20
116.0106288059457
 30
0.0
 11
995.2427136020132
 21
116.0106288059457
 31
0.0
  0
LINE
  5
D2AE
330
18
100
AcDbEntity
  8
DRAW2
100
AcDbLine
 10
994.7926786020131
 20
254.5105688059459
 30
0.0
 11
1034.742701823166
 21
254.510568805946
 31
0.0
  0
LINE
  5
D2AF
330
18
100
AcDbEntity
  8
DRAW2
100
AcDbLine
 10
994.7926786020131
 20
279.5105688059458
 30
0.0
 11
1080.692698602013
 21
279.5105688059458
 31
0.0
  0
LINE
  5
D2B1
330
18
100
AcDbEntity
  8
DRAW2
100
AcDbLine
 10
994.7926786020131
 20
86.51050880594583
 30
0.0
 11
1080.692698602013
 21
86.51050880594583
 31
0.0
  0
LINE
  5
D2B2
330
18
100
AcDbEntity
  8
DRAW2
100
AcDbLine
 10
994.7926786020131
 20
111.5105388059457
 30
0.0
 11
1080.692698602013
 21
111.5105388059457
 31
0.0
  0
CIRCLE
  5
D2B4
330
18
100
AcDbEntity
  8
DRAW2
100
AcDbCircle
 10
1015.742688602012
 20
163.0105988059465
 30
0.0
 40
10.5
  0
CIRCLE
  5
D2B5
330
18
100
AcDbEntity
  8
DRAW2
100
AcDbCircle
 10
1015.742688602012
 20
163.0105988059465
 30
0.0
 40
7.0
  0
CIRCLE
  5
D2B6
330
18
100
AcDbEntity
  8
DRAW2
100
AcDbCircle
 10
1015.742688602012
 20
163.0105988059465
 30
0.0
 40
5.694887103024191
  0
CIRCLE
  5
D2B7
330
18
100
AcDbEntity
  8
DRAW3
100
AcDbCircle
 10
1015.742688602012
 20
163.0105988059465
 30
0.0
 40
6.578500006249994
  0
CIRCLE
  5
D2B8
330
18
100
AcDbEntity
  8
DRAW2
100
AcDbCircle
 10
1015.742688602012
 20
163.0105988059465
 30
0.0
 40
11.0
  0
LINE
  5
D2BA
330
18
100
AcDbEntity
  8
DRAW2
100
AcDbLine
 10
995.242713602013
 20
250.0105688059458
 30
0.0
 11
995.242713602013
 21
116.0106288059457
 31
0.0
  0
LINE
  5
D2BB
330
18
100
AcDbEntity
  8
DRAW2
100
AcDbLine
 10
994.2426886020133
 20
251.0105388059459
 30
0.0
 11
994.2426886020133
 21
115.0105388059456
 31
0.0
  0
LINE
  5
D2BC
330
18
100
AcDbEntity
  8
DRAW2
100
AcDbLine
 10
945.2427486020132
 20
250.0105688059459
 30
0.0
 11
945.2427486020132
 21
116.0105388059456
 31
0.0
  0
LINE
  5
D2BD
330
18
100
AcDbEntity
  8
DRAW2
100
AcDbLine
 10
955.2426286020132
 20
251.0105388059459
 30
0.0
 11
955.2426286020132
 21
115.0105388059456
 31
0.0
  0
LINE
  5
D2C0
330
18
100
AcDbEntity
  8
DRAW2
100
AcDbLine
 10
987.6203686020133
 20
48.86222880594596
 30
0.0
 11
990.4926286020133
 21
68.01056880594592
 31
0.0
  0
LINE
  5
D2C2
330
18
100
AcDbEntity
  8
DRAW2
100
AcDbLine
 10
954.4926886020132
 20
68.01056880594592
 30
0.0
 11
957.3649386020132
 21
48.86223880594593
 31
0.0
  0
LINE
  5
D2C3
330
18
100
AcDbEntity
  8
DRAW2
100
AcDbLine
 10
986.6314786020131
 20
48.01050880594584
 30
0.0
 11
958.3538286020132
 21
48.01050880594584
 31
0.0
  0
ARC
  5
D2C4
330
18
100
AcDbEntity
  8
DRAW2
100
AcDbCircle
 10
958.3538286020132
 20
49.010538805946
 30
0.0
 40
1.0
100
AcDbArc
 50
188.5310499999986
 51
270.0000200000018
  0
ARC
  5
D2C5
330
18
100
AcDbEntity
  8
DRAW2
100
AcDbCircle
 10
986.6314786020131
 20
49.010538805946
 30
0.0
 40
1.0
100
AcDbArc
 50
270.0000200000018
 51
351.4689300000039
  0
LINE
  5
D2C6
330
18
100
AcDbEntity
  8
DRAW2
100
AcDbLine
 10
945.2427486020132
 20
116.0105388059456
 30
0.0
 11
955.2426286020132
 21
116.0105388059456
 31
0.0
  0
LINE
  5
D2C7
330
18
100
AcDbEntity
  8
DRAW2
100
AcDbLine
 10
992.4926886020132
 20
68.01050880594584
 30
0.0
 11
952.4926886020129
 21
68.01050880594584
 31
0.0
  0
LINE
  5
D2C8
330
18
100
AcDbEntity
  8
DRAW2
100
AcDbLine
 10
994.7926786020131
 20
83.01050880594585
 30
0.0
 11
952.4926886020129
 21
83.01050880594585
 31
0.0
  0
LINE
  5
D2C9
330
18
100
AcDbEntity
  8
DRAW2
100
AcDbLine
 10
952.4926886020129
 20
83.01050880594585
 30
0.0
 11
952.4926886020129
 21
68.01053880594577
 31
0.0
  0
LINE
  5
D2CB
330
18
100
AcDbEntity
  8
DRAW2
100
AcDbLine
 10
925.2426886020131
 20
139.8205388059459
 30
0.0
 11
925.2426886020131
 21
118.8205388059459
 31
0.0
  0
LINE
  5
D2CC
330
18
100
AcDbEntity
  8
DRAW2
100
AcDbLine
 10
923.2426886020132
 20
137.8205388059459
 30
0.0
 11
923.2426886020132
 21
120.8205388059459
 31
0.0
  0
LINE
  5
D2CD
330
18
100
AcDbEntity
  8
DRAW2
100
AcDbLine
 10
925.2426886020131
 20
118.8205388059459
 30
0.0
 11
945.2427486020132
 21
118.8205388059459
 31
0.0
  0
LINE
  5
D2CE
330
18
100
AcDbEntity
  8
DRAW2
100
AcDbLine
 10
923.2426886020132
 20
120.8204788059457
 30
0.0
 11
925.2426886020131
 21
118.8205088059457
 31
0.0
  0
LINE
  5
D2CF
330
18
100
AcDbEntity
  8
DRAW2
100
AcDbLine
 10
925.2426886020131
 20
139.8205388059459
 30
0.0
 11
945.2427486020132
 21
139.8205388059459
 31
0.0
  0
LINE
  5
D2D0
330
18
100
AcDbEntity
  8
DRAW2
100
AcDbLine
 10
925.2427486020131
 20
139.8205088059457
 30
0.0
 11
923.2427486020132
 21
137.8205088059457
 31
0.0
  0
LINE
  5
D2D1
330
18
100
AcDbEntity
  8
DRAW2
100
AcDbLine
 10
994.7926786020131
 20
115.0105388059458
 30
0.0
 11
994.7926786020131
 21
83.01050880594585
 31
0.0
  0
LINE
  5
D2D2
330
18
100
AcDbEntity
  8
DRAW2
100
AcDbLine
 10
955.7926786020132
 20
115.0105388059456
 30
0.0
 11
955.7926786020132
 21
83.01050880594585
 31
0.0
  0
LINE
  5
D2D3
330
18
100
AcDbEntity
  8
DRAW2
100
AcDbLine
 10
961.9926286020133
 20
83.01050880594585
 30
0.0
 11
961.9926286020133
 21
103.0105088059457
 31
0.0
  0
LINE
  5
D2D4
330
18
100
AcDbEntity
  8
DRAW2
100
AcDbLine
 10
982.9926286020132
 20
83.01050880594585
 30
0.0
 11
982.9926286020132
 21
103.0105088059457
 31
0.0
  0
LINE
  5
D2D5
330
18
100
AcDbEntity
  8
DRAW2
100
AcDbLine
 10
961.9926286020133
 20
103.0104788059459
 30
0.0
 11
982.9926286020132
 21
103.0104788059459
 31
0.0
  0
LINE
  5
D2D6
330
18
100
AcDbEntity
  8
DRAW2
100
AcDbLine
 10
963.9926586020132
 20
105.0105088059458
 30
0.0
 11
980.9926586020132
 21
105.010448805946
 31
0.0
  0
LINE
  5
D2D7
330
18
100
AcDbEntity
  8
DRAW2
100
AcDbLine
 10
961.9925986020133
 20
103.010448805946
 30
0.0
 11
963.9925986020132
 21
105.010448805946
 31
0.0
  0
LINE
  5
D2D8
330
18
100
AcDbEntity
  8
DRAW2
100
AcDbLine
 10
982.9926586020132
 20
103.010448805946
 30
0.0
 11
980.9926586020132
 21
105.010448805946
 31
0.0
  0
LINE
  5
D2D9
330
18
100
AcDbEntity
  8
DRAW2
100
AcDbLine
 10
992.4926886020132
 20
83.01050880594585
 30
0.0
 11
992.4926886020132
 21
68.01053880594577
 31
0.0
  0
LINE
  5
D2DA
330
18
100
AcDbEntity
  8
DRAW2
100
AcDbLine
 10
994.7926786020131
 20
115.0105388059456
 30
0.0
 11
955.2426286020132
 21
115.0105388059456
 31
0.0
  0
LINE
  5
D2DB
330
18
100
AcDbEntity
  8
DRAW2
100
AcDbLine
 10
995.2426836020132
 20
128.0105688059458
 30
0.0
 11
994.242653602013
 21
128.0105688059458
 31
0.0
  0
LINE
  5
D2DC
330
18
100
AcDbEntity
  8
DRAW2
100
AcDbLine
 10
994.7926786020131
 20
251.0105388059459
 30
0.0
 11
994.7926786020131
 21
293.0105688059459
 31
0.0
  0
LINE
  5
D2DE
330
18
100
AcDbEntity
  8
DRAW2
100
AcDbLine
 10
955.7926786020132
 20
251.0105388059459
 30
0.0
 11
955.7926786020132
 21
293.0105688059459
 31
0.0
  0
LINE
  5
D2DF
330
18
100
AcDbEntity
  8
DRAW2
100
AcDbLine
 10
945.2427486020132
 20
250.0105688059459
 30
0.0
 11
955.2426286020132
 21
250.0105688059459
 31
0.0
  0
LINE
  5
D2E1
330
18
100
AcDbEntity
  8
DRAW2
100
AcDbLine
 10
925.2426886020131
 20
193.5105688059459
 30
0.0
 11
925.2426886020131
 21
172.5105088059458
 31
0.0
  0
LINE
  5
D2E2
330
18
100
AcDbEntity
  8
DRAW2
100
AcDbLine
 10
923.2426886020132
 20
191.5105388059457
 30
0.0
 11
923.2426886020132
 21
174.5105688059458
 31
0.0
  0
LINE
  5
D2E3
330
18
100
AcDbEntity
  8
DRAW2
100
AcDbLine
 10
925.2426886020131
 20
172.5105088059458
 30
0.0
 11
945.2427486020132
 21
172.5105088059458
 31
0.0
  0
LINE
  5
D2E4
330
18
100
AcDbEntity
  8
DRAW2
100
AcDbLine
 10
925.2427486020131
 20
172.5104788059458
 30
0.0
 11
923.2427486020132
 21
174.5105088059458
 31
0.0
  0
LINE
  5
D2E5
330
18
100
AcDbEntity
  8
DRAW2
100
AcDbLine
 10
925.2426886020131
 20
193.5105688059459
 30
0.0
 11
945.2427486020132
 21
193.5105688059459
 31
0.0
  0
LINE
  5
D2E6
330
18
100
AcDbEntity
  8
DRAW2
100
AcDbLine
 10
925.2426286020133
 20
193.5105688059459
 30
0.0
 11
923.2426286020132
 21
191.5105688059458
 31
0.0
  0
LINE
  5
D2E7
330
18
100
AcDbEntity
  8
DRAW2
100
AcDbLine
 10
923.2426886020132
 20
245.2005688059458
 30
0.0
 11
923.2426886020132
 21
228.2005388059458
 31
0.0
  0
LINE
  5
D2E8
330
18
100
AcDbEntity
  8
DRAW2
100
AcDbLine
 10
925.2426886020131
 20
247.2005688059458
 30
0.0
 11
925.2426886020131
 21
226.2005688059459
 31
0.0
  0
LINE
  5
D2E9
330
18
100
AcDbEntity
  8
DRAW2
100
AcDbLine
 10
925.2426886020131
 20
226.2005688059459
 30
0.0
 11
945.2427486020132
 21
226.2005688059459
 31
0.0
  0
LINE
  5
D2EA
330
18
100
AcDbEntity
  8
DRAW2
100
AcDbLine
 10
923.2426886020132
 20
228.2005388059458
 30
0.0
 11
925.2426886020131
 21
226.2005388059458
 31
0.0
  0
LINE
  5
D2EB
330
18
100
AcDbEntity
  8
DRAW2
100
AcDbLine
 10
925.2426886020131
 20
247.2005688059458
 30
0.0
 11
945.2427486020132
 21
247.2005688059458
 31
0.0
  0
LINE
  5
D2EC
330
18
100
AcDbEntity
  8
DRAW2
100
AcDbLine
 10
925.2426886020131
 20
247.2005388059458
 30
0.0
 11
923.2426886020132
 21
245.2005088059459
 31
0.0
  0
CIRCLE
  5
D2ED
330
18
100
AcDbEntity
  8
DRAW2
100
AcDbCircle
 10
1015.742688602012
 20
163.0105988059465
 30
0.0
 40
2.5
  0
LINE
  5
D2EE
330
18
100
AcDbEntity
  8
DRAW2
100
AcDbLine
 10
1009.034484669514
 20
165.010598805947
 30
0.0
 11
1005.434924537969
 21
165.010598805947
 31
0.0
  0
LINE
  5
D2EF
330
18
100
AcDbEntity
  8
DRAW2
100
AcDbLine
 10
1009.034484669512
 20
161.0105988059468
 30
0.0
 11
1005.434924537967
 21
161.0105988059468
 31
0.0
  0
LINE
  5
D2F0
330
18
100
AcDbEntity
  8
DRAW2
100
AcDbLine
 10
994.7926786020131
 20
251.0105388059459
 30
0.0
 11
955.2426286020132
 21
251.0105388059459
 31
0.0
  0
LINE
  5
D2F1
330
18
100
AcDbEntity
  8
DRAW2
100
AcDbLine
 10
1013.992688602012
 20
215.0105988059463
 30
0.0
 11
1013.992688602012
 21
218.5105988059461
 31
0.0
  0
LINE
  5
D2F2
330
18
100
AcDbEntity
  8
DRAW2
100
AcDbLine
 10
995.2426836020132
 20
238.0105788059458
 30
0.0
 11
994.242653602013
 21
238.0105788059458
 31
0.0
  0
LINE
  5
D2F3
330
18
100
AcDbEntity
  8
DRAW2
100
AcDbLine
 10
964.4926286020133
 20
293.0105688059459
 30
0.0
 11
964.4926286020133
 21
310.0105688059458
 31
0.0
  0
LINE
  5
D2F4
330
18
100
AcDbEntity
  8
DRAW2
100
AcDbLine
 10
980.4926886020131
 20
293.0105688059459
 30
0.0
 11
980.4926886020131
 21
310.0105688059458
 31
0.0
  0
LINE
  5
D2F5
330
18
100
AcDbEntity
  8
DRAW2
100
AcDbLine
 10
994.7926786020131
 20
283.0105988059457
 30
0.0
 11
955.7926786020132
 21
283.0105988059457
 31
0.0
  0
LINE
  5
D2F6
330
18
100
AcDbEntity
  8
DRAW2
100
AcDbLine
 10
994.7926786020131
 20
293.0105688059459
 30
0.0
 11
955.7926786020132
 21
293.0105688059459
 31
0.0
  0
LINE
  5
D2F7
330
18
100
AcDbEntity
  8
DRAW2
100
AcDbLine
 10
980.4926886020131
 20
310.0105688059458
 30
0.0
 11
964.4926286020133
 21
310.0105688059458
 31
0.0
  0
LINE
  5
D2F8
330
18
100
AcDbEntity
  8
DRAW2
100
AcDbLine
 10
978.4926886020128
 20
312.010538805946
 30
0.0
 11
966.4926886020133
 21
312.010538805946
 31
0.0
  0
LINE
  5
D2F9
330
18
100
AcDbEntity
  8
DRAW2
100
AcDbLine
 10
966.4926886020133
 20
312.0105688059458
 30
0.0
 11
964.4926886020131
 21
310.0105688059458
 31
0.0
  0
LINE
  5
D2FA
330
18
100
AcDbEntity
  8
DRAW2
100
AcDbLine
 10
978.4927486020132
 20
312.0104788059458
 30
0.0
 11
980.4927486020131
 21
310.0104788059458
 31
0.0
  0
LINE
  5
D2FC
330
18
100
AcDbEntity
  8
DRAW2
100
AcDbLine
 10
1080.242663602013
 20
250.0105688059458
 30
0.0
 11
1080.242663602013
 21
116.0106288059457
 31
0.0
  0
LINE
  5
D2FD
330
18
100
AcDbEntity
  8
DRAW2
100
AcDbLine
 10
1081.242688602013
 20
251.0105388059459
 30
0.0
 11
1081.242688602013
 21
115.0105388059456
 31
0.0
  0
LINE
  5
D2FE
330
18
100
AcDbEntity
  8
DRAW2
100
AcDbLine
 10
1130.242688602013
 20
250.0105688059459
 30
0.0
 11
1130.242688602013
 21
116.0105388059456
 31
0.0
  0
LINE
  5
D300
330
18
100
AcDbEntity
  8
DRAW2
100
AcDbLine
 10
1120.242628602013
 20
251.0105388059459
 30
0.0
 11
1120.242628602013
 21
115.0105388059456
 31
0.0
  0
CIRCLE
  5
D301
330
18
100
AcDbEntity
  8
DRAW2
100
AcDbCircle
 10
1059.742688602013
 20
163.0105988059465
 30
0.0
 40
5.694887103024191
  0
CIRCLE
  5
D302
330
18
100
AcDbEntity
  8
DRAW3
100
AcDbCircle
 10
1059.742688602013
 20
163.0105988059465
 30
0.0
 40
6.578500006249994
  0
CIRCLE
  5
D303
330
18
100
AcDbEntity
  8
DRAW2
100
AcDbCircle
 10
1059.742688602013
 20
163.0105988059465
 30
0.0
 40
7.0
  0
CIRCLE
  5
D304
330
18
100
AcDbEntity
  8
DRAW2
100
AcDbCircle
 10
1059.742688602013
 20
163.0105988059465
 30
0.0
 40
11.0
  0
CIRCLE
  5
D305
330
18
100
AcDbEntity
  8
DRAW2
100
AcDbCircle
 10
1059.742688602013
 20
163.0105988059465
 30
0.0
 40
10.5
  0
LINE
  5
D307
330
18
100
AcDbEntity
  8
DRAW2
100
AcDbLine
 10
1119.692698602013
 20
114.5105388059457
 30
0.0
 11
1167.692728602012
 21
114.5105388059457
 31
0.0
  0
LINE
  5
D308
330
18
100
AcDbEntity
  8
DRAW2
100
AcDbLine
 10
1119.692698602013
 20
83.51053880594577
 30
0.0
 11
1167.692728602012
 21
83.51053880594577
 31
0.0
  0
LINE
  5
D309
330
18
100
AcDbEntity
  8
DRAW2
100
AcDbLine
 10
1130.242628602012
 20
139.8205388059459
 30
0.0
 11
1150.242688602012
 21
139.8205388059459
 31
0.0
  0
LINE
  5
D30A
330
18
100
AcDbEntity
  8
DRAW2
100
AcDbLine
 10
1130.242628602012
 20
118.8205388059459
 30
0.0
 11
1150.242688602012
 21
118.8205388059459
 31
0.0
  0
LINE
  5
D30C
330
18
100
AcDbEntity
  8
DRAW2
100
AcDbLine
 10
1087.864938602012
 20
48.86222880594596
 30
0.0
 11
1084.992688602013
 21
68.01053880594577
 31
0.0
  0
LINE
  5
D30D
330
18
100
AcDbEntity
  8
DRAW2
100
AcDbLine
 10
1118.120498602013
 20
48.8621988059458
 30
0.0
 11
1120.992748602013
 21
68.01053880594577
 31
0.0
  0
LINE
  5
D30F
330
18
100
AcDbEntity
  8
DRAW2
100
AcDbLine
 10
1117.131478602013
 20
48.01050880594584
 30
0.0
 11
1088.853828602013
 21
48.01050880594584
 31
0.0
  0
ARC
  5
D310
330
18
100
AcDbEntity
  8
DRAW2
100
AcDbCircle
 10
1088.853828602013
 20
49.010538805946
 30
0.0
 40
1.0
100
AcDbArc
 50
188.5310499999986
 51
270.0000200000018
  0
ARC
  5
D311
330
18
100
AcDbEntity
  8
DRAW2
100
AcDbCircle
 10
1117.131478602013
 20
49.010538805946
 30
0.0
 40
1.0
100
AcDbArc
 50
270.0000200000018
 51
351.4689300000039
  0
LINE
  5
D312
330
18
100
AcDbEntity
  8
DRAW2
100
AcDbLine
 10
1080.692698602013
 20
115.0105388059456
 30
0.0
 11
1120.242688602013
 21
115.0105388059456
 31
0.0
  0
LINE
  5
D313
330
18
100
AcDbEntity
  8
DRAW2
100
AcDbLine
 10
1082.992688602013
 20
68.01050880594584
 30
0.0
 11
1122.992688602013
 21
68.01050880594584
 31
0.0
  0
LINE
  5
D314
330
18
100
AcDbEntity
  8
DRAW2
100
AcDbLine
 10
1080.692698602013
 20
83.01050880594585
 30
0.0
 11
1122.992688602013
 21
83.01050880594585
 31
0.0
  0
LINE
  5
D315
330
18
100
AcDbEntity
  8
DRAW2
100
AcDbLine
 10
1080.692698602013
 20
115.0105388059456
 30
0.0
 11
1080.692698602013
 21
83.01050880594585
 31
0.0
  0
LINE
  5
D316
330
18
100
AcDbEntity
  8
DRAW2
100
AcDbLine
 10
1082.992688602013
 20
83.01050880594585
 30
0.0
 11
1082.992688602013
 21
68.01053880594577
 31
0.0
  0
LINE
  5
D31B
330
18
100
AcDbEntity
  8
DRAW2
100
AcDbLine
 10
1024.742688602013
 20
136.4412047622697
 30
0.0
 11
1024.742688602013
 21
135.4443156891425
 31
0.0
  0
LINE
  5
D31C
330
18
100
AcDbEntity
  8
DRAW2
100
AcDbLine
 10
1024.87480415353
 20
136.1514224703292
 30
0.0
 11
1034.610573050495
 21
136.1514224703292
 31
0.0
  0
LINE
  5
D31D
330
18
100
AcDbEntity
  8
DRAW2
100
AcDbLine
 10
1024.87480415353
 20
134.737208907956
 30
0.0
 11
1034.610573050495
 21
134.737208907956
 31
0.0
  0
LINE
  5
D31E
330
18
100
AcDbEntity
  8
DRAW2
100
AcDbLine
 10
1034.742688602013
 20
136.4412047622697
 30
0.0
 11
1034.742688602013
 21
135.4443156891425
 31
0.0
  0
LINE
  5
D31F
330
18
100
AcDbEntity
  8
DRAW2
100
AcDbLine
 10
1040.87480415353
 20
136.1514224703292
 30
0.0
 11
1050.610573050495
 21
136.1514224703292
 31
0.0
  0
LINE
  5
D320
330
18
100
AcDbEntity
  8
DRAW2
100
AcDbLine
 10
1040.87480415353
 20
134.737208907956
 30
0.0
 11
1050.610573050495
 21
134.737208907956
 31
0.0
  0
LINE
  5
D321
330
18
100
AcDbEntity
  8
DRAW2
100
AcDbLine
 10
1050.742688602013
 20
136.4412047622697
 30
0.0
 11
1050.742688602013
 21
135.4443156891425
 31
0.0
  0
LINE
  5
D322
330
18
100
AcDbEntity
  8
DRAW2
100
AcDbLine
 10
1040.742688602013
 20
136.4412047622697
 30
0.0
 11
1040.742688602013
 21
135.4443156891425
 31
0.0
  0
LINE
  5
D323
330
18
100
AcDbEntity
  8
DRAW2
100
AcDbLine
 10
1080.242693602013
 20
128.0105688059458
 30
0.0
 11
1081.242723602013
 21
128.0105688059458
 31
0.0
  0
LINE
  5
D324
330
18
100
AcDbEntity
  8
DRAW2
100
AcDbLine
 10
1119.692698602013
 20
115.0105388059456
 30
0.0
 11
1119.692698602013
 21
83.01050880594583
 31
0.0
  0
LINE
  5
D325
330
18
100
AcDbEntity
  8
DRAW2
100
AcDbLine
 10
1113.492628602013
 20
83.01050880594585
 30
0.0
 11
1113.492628602013
 21
103.0105088059457
 31
0.0
  0
LINE
  5
D326
330
18
100
AcDbEntity
  8
DRAW2
100
AcDbLine
 10
1092.492628602012
 20
83.01050880594585
 30
0.0
 11
1092.492628602012
 21
103.0105088059457
 31
0.0
  0
LINE
  5
D327
330
18
100
AcDbEntity
  8
DRAW2
100
AcDbLine
 10
1092.492628602012
 20
103.0104788059459
 30
0.0
 11
1113.492628602013
 21
103.0104788059459
 31
0.0
  0
LINE
  5
D328
330
18
100
AcDbEntity
  8
DRAW2
100
AcDbLine
 10
1094.492658602012
 20
105.0105088059458
 30
0.0
 11
1111.492658602012
 21
105.010448805946
 31
0.0
  0
LINE
  5
D329
330
18
100
AcDbEntity
  8
DRAW2
100
AcDbLine
 10
1092.492598602013
 20
103.010448805946
 30
0.0
 11
1094.492598602013
 21
105.010448805946
 31
0.0
  0
LINE
  5
D32A
330
18
100
AcDbEntity
  8
DRAW2
100
AcDbLine
 10
1113.492658602012
 20
103.010448805946
 30
0.0
 11
1111.492658602012
 21
105.010448805946
 31
0.0
  0
LINE
  5
D32B
330
18
100
AcDbEntity
  8
DRAW2
100
AcDbLine
 10
1122.992688602013
 20
83.01050880594585
 30
0.0
 11
1122.992688602013
 21
68.01053880594577
 31
0.0
  0
LINE
  5
D32C
330
18
100
AcDbEntity
  8
DRAW2
100
AcDbLine
 10
1120.242688602013
 20
116.0105388059456
 30
0.0
 11
1130.242628602012
 21
116.0105388059456
 31
0.0
  0
LINE
  5
D32D
330
18
100
AcDbEntity
  8
DRAW2
100
AcDbLine
 10
1169.692728602012
 20
99.01053880594588
 30
0.0
 11
1169.692728602012
 21
55.01053880594578
 31
0.0
  0
LINE
  5
D32E
330
18
100
AcDbEntity
  8
DRAW2
100
AcDbLine
 10
1167.692728602012
 20
99.01053880594588
 30
0.0
 11
1167.692728602012
 21
55.01053880594578
 31
0.0
  0
LINE
  5
D32F
330
18
100
AcDbEntity
  8
DRAW2
100
AcDbLine
 10
1186.692698602013
 20
144.0105388059456
 30
0.0
 11
1186.692698602013
 21
54.01053880594577
 31
0.0
  0
LINE
  5
D330
330
18
100
AcDbEntity
  8
DRAW2
100
AcDbLine
 10
1171.692698602013
 20
99.01053880594576
 30
0.0
 11
1171.692698602013
 21
54.01053880594577
 31
0.0
  0
LINE
  5
D332
330
18
100
AcDbEntity
  8
DRAW2
100
AcDbLine
 10
1171.692698602013
 20
54.01053880594577
 30
0.0
 11
1186.692698602013
 21
54.01053880594577
 31
0.0
  0
LINE
  5
D333
330
18
100
AcDbEntity
  8
DRAW2
100
AcDbLine
 10
1167.692728602012
 20
55.01056880594592
 30
0.0
 11
1171.692758602012
 21
55.01056880594592
 31
0.0
  0
LINE
  5
D334
330
18
100
AcDbEntity
  8
DRAW2
100
AcDbLine
 10
1167.692728602012
 20
99.01053880594576
 30
0.0
 11
1167.692728602012
 21
143.0105988059458
 31
0.0
  0
LINE
  5
D335
330
18
100
AcDbEntity
  8
DRAW2
100
AcDbLine
 10
1169.692728602012
 20
99.01053880594576
 30
0.0
 11
1169.692728602012
 21
143.0105988059458
 31
0.0
  0
LINE
  5
D336
330
18
100
AcDbEntity
  8
DRAW2
100
AcDbLine
 10
1171.692698602013
 20
144.0105388059456
 30
0.0
 11
1171.692698602013
 21
99.01053880594576
 31
0.0
  0
LINE
  5
D338
330
18
100
AcDbEntity
  8
DRAW2
100
AcDbLine
 10
1171.692698602013
 20
144.0105388059456
 30
0.0
 11
1186.692698602013
 21
144.0105388059456
 31
0.0
  0
LINE
  5
D339
330
18
100
AcDbEntity
  8
DRAW2
100
AcDbLine
 10
1152.242688602012
 20
137.8205388059459
 30
0.0
 11
1152.242688602012
 21
120.8205388059459
 31
0.0
  0
LINE
  5
D33A
330
18
100
AcDbEntity
  8
DRAW2
100
AcDbLine
 10
1150.242688602012
 20
139.8205388059459
 30
0.0
 11
1150.242688602012
 21
118.8205388059459
 31
0.0
  0
LINE
  5
D33B
330
18
100
AcDbEntity
  8
DRAW2
100
AcDbLine
 10
1152.242688602012
 20
120.8205688059458
 30
0.0
 11
1150.242718602012
 21
118.8205688059458
 31
0.0
  0
LINE
  5
D33C
330
18
100
AcDbEntity
  8
DRAW2
100
AcDbLine
 10
1150.242688602012
 20
139.8205388059459
 30
0.0
 11
1152.242688602012
 21
137.8205388059459
 31
0.0
  0
LINE
  5
D33D
330
18
100
AcDbEntity
  8
DRAW2
100
AcDbLine
 10
1167.692728602012
 20
143.0105688059455
 30
0.0
 11
1171.692758602012
 21
143.0105688059455
 31
0.0
  0
LINE
  5
D33E
330
18
100
AcDbEntity
  8
DRAW2
100
AcDbLine
 10
1119.692698602013
 20
282.5105388059458
 30
0.0
 11
1167.692728602012
 21
282.5105388059458
 31
0.0
  0
LINE
  5
D33F
330
18
100
AcDbEntity
  8
DRAW2
100
AcDbLine
 10
1119.692698602013
 20
251.5105388059458
 30
0.0
 11
1167.692728602012
 21
251.5105388059458
 31
0.0
  0
LINE
  5
D341
330
18
100
AcDbEntity
  8
DRAW2
100
AcDbLine
 10
1130.242628602012
 20
247.2005688059458
 30
0.0
 11
1150.242688602012
 21
247.2005688059458
 31
0.0
  0
LINE
  5
D342
330
18
100
AcDbEntity
  8
DRAW2
100
AcDbLine
 10
1130.242628602012
 20
226.2005688059459
 30
0.0
 11
1150.242688602012
 21
226.2005688059459
 31
0.0
  0
LINE
  5
D343
330
18
100
AcDbEntity
  8
DRAW2
100
AcDbLine
 10
1130.242628602012
 20
193.5105688059459
 30
0.0
 11
1150.242688602012
 21
193.5105688059459
 31
0.0
  0
LINE
  5
D344
330
18
100
AcDbEntity
  8
DRAW2
100
AcDbLine
 10
1130.242628602012
 20
172.5105088059458
 30
0.0
 11
1150.242688602012
 21
172.5105088059458
 31
0.0
  0
LINE
  5
D345
330
18
100
AcDbEntity
  8
DRAW2
100
AcDbLine
 10
1040.742688602013
 20
234.9935145172999
 30
0.0
 11
1040.742688602013
 21
258.9657304101533
 31
0.0
  0
LINE
  5
D346
330
18
100
AcDbEntity
  8
DRAW2
100
AcDbLine
 10
1034.742688602013
 20
234.9935145172999
 30
0.0
 11
1034.742688602013
 21
257.9654196811052
 31
0.0
  0
LINE
  5
D347
330
18
100
AcDbEntity
  8
DRAW2
100
AcDbLine
 10
1119.692698602013
 20
251.0105388059459
 30
0.0
 11
1119.692698602013
 21
293.0105688059459
 31
0.0
  0
LINE
  5
D348
330
18
100
AcDbEntity
  8
DRAW2
100
AcDbLine
 10
1080.692698602013
 20
251.0105388059459
 30
0.0
 11
1080.692698602013
 21
293.0105688059459
 31
0.0
  0
LINE
  5
D34A
330
18
100
AcDbEntity
  8
DRAW2
100
AcDbLine
 10
1080.692698602013
 20
251.0105388059459
 30
0.0
 11
1120.242688602013
 21
251.0105388059459
 31
0.0
  0
LINE
  5
D34B
330
18
100
AcDbEntity
  8
DRAW2
100
AcDbLine
 10
1053.034484669512
 20
161.0105988059468
 30
0.0
 11
1049.434924537969
 21
161.0105988059468
 31
0.0
  0
LINE
  5
D34C
330
18
100
AcDbEntity
  8
DRAW2
100
AcDbLine
 10
1053.034484669512
 20
165.010598805947
 30
0.0
 11
1049.434924537969
 21
165.010598805947
 31
0.0
  0
LINE
  5
D34D
330
18
100
AcDbEntity
  8
DRAW2
100
AcDbLine
 10
1022.450892534511
 20
161.0105988059468
 30
0.0
 11
1026.050452666056
 21
161.0105988059468
 31
0.0
  0
LINE
  5
D34E
330
18
100
AcDbEntity
  8
DRAW2
100
AcDbLine
 10
1022.450892534511
 20
165.010598805947
 30
0.0
 11
1026.050452666056
 21
165.010598805947
 31
0.0
  0
LINE
  5
D34F
330
18
100
AcDbEntity
  8
DRAW2
100
AcDbLine
 10
1066.450892534511
 20
161.0105988059468
 30
0.0
 11
1070.050452666057
 21
161.0105988059468
 31
0.0
  0
LINE
  5
D350
330
18
100
AcDbEntity
  8
DRAW2
100
AcDbLine
 10
1066.450892534511
 20
165.010598805947
 30
0.0
 11
1070.050452666057
 21
165.010598805947
 31
0.0
  0
CIRCLE
  5
D351
330
18
100
AcDbEntity
  8
DRAW2
100
AcDbCircle
 10
1059.742688602013
 20
163.0105988059465
 30
0.0
 40
2.5
  0
LINE
  5
D352
330
18
100
AcDbEntity
  8
DRAW2
100
AcDbLine
 10
1080.242663602013
 20
250.0105688059458
 30
0.0
 11
1040.742701823166
 21
250.0105688059458
 31
0.0
  0
LINE
  5
D353
330
18
100
AcDbEntity
  8
DRAW2
100
AcDbLine
 10
1037.742688602013
 20
227.2069862625651
 30
0.0
 11
1043.631661347747
 21
230.0830774763534
 31
0.0
  0
LINE
  5
D354
330
18
100
AcDbEntity
  8
DRAW2
100
AcDbLine
 10
1031.853715856279
 20
230.0830774763535
 30
0.0
 11
1037.742688601658
 21
227.2069862625651
 31
0.0
  0
LINE
  5
D355
330
18
100
AcDbEntity
  8
DRAW2
100
AcDbLine
 10
1043.631661347747
 20
236.2505102910478
 30
0.0
 11
1043.631661347747
 21
227.2256946443334
 31
0.0
  0
LINE
  5
D356
330
18
100
AcDbEntity
  8
DRAW2
100
AcDbLine
 10
1031.853715856279
 20
227.2256946443334
 30
0.0
 11
1031.853715856279
 21
236.2505102910476
 31
0.0
  0
LINE
  5
D357
330
18
100
AcDbEntity
  8
DRAW2
100
AcDbLine
 10
1034.326073811657
 20
220.2935479983776
 30
0.0
 11
1040.959323392368
 21
220.2935479983776
 31
0.0
  0
LINE
  5
D358
330
18
100
AcDbEntity
  8
DRAW2
100
AcDbLine
 10
1034.326073811657
 20
223.2935479983776
 30
0.0
 11
1040.959323392368
 21
223.2935479983777
 31
0.0
  0
LINE
  5
D359
330
18
100
AcDbEntity
  8
DRAW2
100
AcDbLine
 10
1031.853715856279
 20
227.2256946443334
 30
0.0
 11
1037.742688601658
 21
224.3496034305453
 31
0.0
  0
LINE
  5
D35A
330
18
100
AcDbEntity
  8
DRAW2
100
AcDbLine
 10
1019.788205930109
 20
209.0333574700023
 30
0.0
 11
1019.788205930109
 21
210.5333574700021
 31
0.0
  0
LINE
  5
D35B
330
18
100
AcDbEntity
  8
DRAW2
100
AcDbLine
 10
1022.788205930108
 20
210.5333574700021
 30
0.0
 11
1022.788205930108
 21
209.0333574700023
 31
0.0
  0
LINE
  5
D35C
330
18
100
AcDbEntity
  8
DRAW2
100
AcDbLine
 10
1019.788205930109
 20
210.5333574700021
 30
0.0
 11
1021.288205930108
 21
211.2833574700021
 31
0.0
  0
LINE
  5
D35D
330
18
100
AcDbEntity
  8
DRAW2
100
AcDbLine
 10
1021.288205930108
 20
211.2833574700021
 30
0.0
 11
1022.788205930108
 21
210.5333574700021
 31
0.0
  0
LINE
  5
D35E
330
18
100
AcDbEntity
  8
DRAW2
100
AcDbLine
 10
1019.788205930109
 20
209.0333574700023
 30
0.0
 11
1021.288205930108
 21
208.2833574700023
 31
0.0
  0
LINE
  5
D35F
330
18
100
AcDbEntity
  8
DRAW2
100
AcDbLine
 10
1021.288205930108
 20
208.2833574700023
 30
0.0
 11
1022.788205930108
 21
209.0333574700023
 31
0.0
  0
LINE
  5
D360
330
18
100
AcDbEntity
  8
DRAW2
100
AcDbLine
 10
1034.326073811657
 20
220.2935479983776
 30
0.0
 11
1032.642698602012
 21
221.4603902788681
 31
0.0
  0
LINE
  5
D361
330
18
100
AcDbEntity
  8
DRAW2
100
AcDbLine
 10
1034.326073811657
 20
220.2935479983776
 30
0.0
 11
1034.326073811657
 21
223.2935479983777
 31
0.0
  0
LINE
  5
D362
330
18
100
AcDbEntity
  8
DRAW2
100
AcDbLine
 10
1032.642698602012
 20
221.4603902788681
 30
0.0
 11
1032.642698602012
 21
224.4603902788683
 31
0.0
  0
LINE
  5
D363
330
18
100
AcDbEntity
  8
DRAW2
100
AcDbLine
 10
1034.326073811657
 20
223.2935479983776
 30
0.0
 11
1032.642698602012
 21
224.4603902788683
 31
0.0
  0
LINE
  5
D364
330
18
100
AcDbEntity
  8
DRAW2
100
AcDbLine
 10
1032.642698602012
 20
224.4603902788683
 30
0.0
 11
1032.642698602012
 21
226.8403666014048
 31
0.0
  0
LINE
  5
D365
330
18
100
AcDbEntity
  8
DRAW2
100
AcDbLine
 10
1040.959323392368
 20
220.2935479983776
 30
0.0
 11
1042.642698602012
 21
221.4603902788681
 31
0.0
  0
LINE
  5
D366
330
18
100
AcDbEntity
  8
DRAW2
100
AcDbLine
 10
1042.642698602012
 20
221.4603902788681
 30
0.0
 11
1042.642698602012
 21
224.4603902788683
 31
0.0
  0
LINE
  5
D367
330
18
100
AcDbEntity
  8
DRAW2
100
AcDbLine
 10
1040.959323392368
 20
220.2935479983776
 30
0.0
 11
1040.959323392368
 21
223.2935479983777
 31
0.0
  0
LINE
  5
D368
330
18
100
AcDbEntity
  8
DRAW2
100
AcDbLine
 10
1040.959323392368
 20
223.2935479983776
 30
0.0
 11
1042.642698602012
 21
224.4603902788683
 31
0.0
  0
LINE
  5
D369
330
18
100
AcDbEntity
  8
DRAW2
100
AcDbLine
 10
1042.642698602012
 20
224.4603902788683
 30
0.0
 11
1042.642698602012
 21
226.7426991905288
 31
0.0
  0
LINE
  5
D36B
330
18
100
AcDbEntity
  8
DRAW2
100
AcDbLine
 10
1037.742688602013
 20
227.2069862625651
 30
0.0
 11
1037.742688602013
 21
224.3496034305453
 31
0.0
  0
LINE
  5
D36C
330
18
100
AcDbEntity
  8
DRAW2
100
AcDbLine
 10
1037.742688602013
 20
224.3496034305453
 30
0.0
 11
1043.631661347747
 21
227.2256946443334
 31
0.0
  0
LINE
  5
D36D
330
18
100
AcDbEntity
  8
DRAW2
100
AcDbLine
 10
1034.425831878238
 20
238.8111577053713
 30
0.0
 11
1034.742688602013
 21
239.1266016213986
 31
0.0
  0
LINE
  5
D36E
330
18
100
AcDbEntity
  8
DRAW2
100
AcDbLine
 10
1031.853715856279
 20
236.2505102910476
 30
0.0
 11
1032.631722704274
 21
237.0250481449539
 31
0.0
  0
LINE
  5
D36F
330
18
100
AcDbEntity
  8
DRAW2
100
AcDbLine
 10
1031.992688602013
 20
234.7435145172998
 30
0.0
 11
1031.992688602013
 21
233.4935145172996
 31
0.0
  0
LINE
  5
D370
330
18
100
AcDbEntity
  8
DRAW2
100
AcDbLine
 10
1041.059545325786
 20
238.8111577053713
 30
0.0
 11
1040.742688602013
 21
239.1266016213986
 31
0.0
  0
LINE
  5
D371
330
18
100
AcDbEntity
  8
DRAW2
100
AcDbLine
 10
1043.631661347747
 20
236.2505102910478
 30
0.0
 11
1042.853654499751
 21
237.0250481449541
 31
0.0
  0
LINE
  5
D372
330
18
100
AcDbEntity
  8
DRAW2
100
AcDbLine
 10
1043.492688602013
 20
233.4935145172996
 30
0.0
 11
1043.492688602013
 21
234.7435145172998
 31
0.0
  0
LINE
  5
D373
330
18
100
AcDbEntity
  8
DRAW2
100
AcDbLine
 10
1052.697171273916
 20
209.0333574700023
 30
0.0
 11
1052.697171273916
 21
210.5333574700021
 31
0.0
  0
LINE
  5
D374
330
18
100
AcDbEntity
  8
DRAW2
100
AcDbLine
 10
1055.697171273916
 20
210.5333574700021
 30
0.0
 11
1055.697171273916
 21
209.0333574700023
 31
0.0
  0
LINE
  5
D375
330
18
100
AcDbEntity
  8
DRAW2
100
AcDbLine
 10
1054.197171273916
 20
208.2833574700023
 30
0.0
 11
1055.697171273916
 21
209.0333574700023
 31
0.0
  0
LINE
  5
D376
330
18
100
AcDbEntity
  8
DRAW2
100
AcDbLine
 10
1052.697171273916
 20
209.0333574700023
 30
0.0
 11
1054.197171273916
 21
208.2833574700023
 31
0.0
  0
LINE
  5
D377
330
18
100
AcDbEntity
  8
DRAW2
100
AcDbLine
 10
1054.197171273916
 20
211.2833574700021
 30
0.0
 11
1055.697171273916
 21
210.5333574700021
 31
0.0
  0
LINE
  5
D378
330
18
100
AcDbEntity
  8
DRAW2
100
AcDbLine
 10
1052.697171273916
 20
210.5333574700021
 30
0.0
 11
1054.197171273916
 21
211.2833574700021
 31
0.0
  0
LINE
  5
D379
330
18
100
AcDbEntity
  8
DRAW2
100
AcDbLine
 10
1061.492688602013
 20
215.0105988059463
 30
0.0
 11
1061.492688602013
 21
218.5105988059461
 31
0.0
  0
LINE
  5
D37A
330
18
100
AcDbEntity
  8
DRAW2
100
AcDbLine
 10
1080.242693602013
 20
238.0105788059458
 30
0.0
 11
1081.242723602013
 21
238.0105788059458
 31
0.0
  0
LINE
  5
D37B
330
18
100
AcDbEntity
  8
DRAW2
100
AcDbLine
 10
1120.242688602013
 20
250.0105688059459
 30
0.0
 11
1130.242628602012
 21
250.0105688059459
 31
0.0
  0
LINE
  5
D37C
330
18
100
AcDbEntity
  8
DRAW2
100
AcDbLine
 10
1080.692698602013
 20
283.0105988059457
 30
0.0
 11
1119.692698602013
 21
283.0105988059457
 31
0.0
  0
LINE
  5
D37D
330
18
100
AcDbEntity
  8
DRAW2
100
AcDbLine
 10
1080.692698602013
 20
293.0105688059459
 30
0.0
 11
1119.692698602013
 21
293.0105688059459
 31
0.0
  0
LINE
  5
D37E
330
18
100
AcDbEntity
  8
DRAW2
100
AcDbLine
 10
1040.742701823166
 20
254.5105688059459
 30
0.0
 11
1080.692698602013
 21
254.5105688059459
 31
0.0
  0
LINE
  5
D37F
330
18
100
AcDbEntity
  8
DRAW2
100
AcDbLine
 10
1110.992688602012
 20
293.0105688059459
 30
0.0
 11
1110.992688602012
 21
310.0105688059458
 31
0.0
  0
LINE
  5
D380
330
18
100
AcDbEntity
  8
DRAW2
100
AcDbLine
 10
1094.992688602012
 20
293.0105688059459
 30
0.0
 11
1094.992688602012
 21
310.0105688059458
 31
0.0
  0
LINE
  5
D381
330
18
100
AcDbEntity
  8
DRAW2
100
AcDbLine
 10
1094.992688602012
 20
310.0105688059458
 30
0.0
 11
1110.992688602012
 21
310.0105688059458
 31
0.0
  0
LINE
  5
D382
330
18
100
AcDbEntity
  8
DRAW2
100
AcDbLine
 10
1096.992688602013
 20
312.010538805946
 30
0.0
 11
1108.992688602013
 21
312.010538805946
 31
0.0
  0
LINE
  5
D383
330
18
100
AcDbEntity
  8
DRAW2
100
AcDbLine
 10
1096.992688602013
 20
312.0105688059458
 30
0.0
 11
1094.992688602012
 21
310.0105688059458
 31
0.0
  0
LINE
  5
D384
330
18
100
AcDbEntity
  8
DRAW2
100
AcDbLine
 10
1108.992748602012
 20
312.0105088059458
 30
0.0
 11
1110.992628602013
 21
310.0105988059457
 31
0.0
  0
LINE
  5
D385
330
18
100
AcDbEntity
  8
DRAW2
100
AcDbLine
 10
1186.692698602013
 20
312.010538805946
 30
0.0
 11
1186.692698602013
 21
222.0105388059459
 31
0.0
  0
LINE
  5
D386
330
18
100
AcDbEntity
  8
DRAW2
100
AcDbLine
 10
1171.692698602013
 20
267.010538805946
 30
0.0
 11
1171.692698602013
 21
222.0105388059459
 31
0.0
  0
LINE
  5
D387
330
18
100
AcDbEntity
  8
DRAW2
100
AcDbLine
 10
1169.692728602012
 20
267.010538805946
 30
0.0
 11
1169.692728602012
 21
223.010538805946
 31
0.0
  0
LINE
  5
D388
330
18
100
AcDbEntity
  8
DRAW2
100
AcDbLine
 10
1167.692728602012
 20
267.010538805946
 30
0.0
 11
1167.692728602012
 21
223.010538805946
 31
0.0
  0
LINE
  5
D389
330
18
100
AcDbEntity
  8
DRAW2
100
AcDbLine
 10
1150.242688602012
 20
193.5105688059459
 30
0.0
 11
1150.242688602012
 21
172.5105088059458
 31
0.0
  0
LINE
  5
D38A
330
18
100
AcDbEntity
  8
DRAW2
100
AcDbLine
 10
1152.242688602012
 20
191.5105388059457
 30
0.0
 11
1152.242688602012
 21
174.5105688059458
 31
0.0
  0
LINE
  5
D38B
330
18
100
AcDbEntity
  8
DRAW2
100
AcDbLine
 10
1152.242688602012
 20
174.5105088059458
 30
0.0
 11
1150.242688602012
 21
172.5105088059458
 31
0.0
  0
LINE
  5
D38C
330
18
100
AcDbEntity
  8
DRAW2
100
AcDbLine
 10
1150.242748602012
 20
193.5105088059458
 30
0.0
 11
1152.242748602013
 21
191.5105088059458
 31
0.0
  0
LINE
  5
D38D
330
18
100
AcDbEntity
  8
DRAW2
100
AcDbLine
 10
1171.692698602013
 20
222.0105388059459
 30
0.0
 11
1186.692698602013
 21
222.0105388059459
 31
0.0
  0
LINE
  5
D38F
330
18
100
AcDbEntity
  8
DRAW2
100
AcDbLine
 10
1152.242688602012
 20
245.2005688059458
 30
0.0
 11
1152.242688602012
 21
228.2005388059458
 31
0.0
  0
LINE
  5
D390
330
18
100
AcDbEntity
  8
DRAW2
100
AcDbLine
 10
1150.242688602012
 20
247.2005688059458
 30
0.0
 11
1150.242688602012
 21
226.2005688059459
 31
0.0
  0
LINE
  5
D391
330
18
100
AcDbEntity
  8
DRAW2
100
AcDbLine
 10
1152.242658602012
 20
228.2005388059458
 30
0.0
 11
1150.242688602012
 21
226.2005688059459
 31
0.0
  0
LINE
  5
D392
330
18
100
AcDbEntity
  8
DRAW2
100
AcDbLine
 10
1167.692728602012
 20
223.010568805946
 30
0.0
 11
1171.692758602012
 21
223.010568805946
 31
0.0
  0
LINE
  5
D393
330
18
100
AcDbEntity
  8
DRAW2
100
AcDbLine
 10
1150.242718602012
 20
247.2005388059458
 30
0.0
 11
1152.242748602013
 21
245.2005088059459
 31
0.0
  0
LINE
  5
D394
330
18
100
AcDbEntity
  8
DRAW2
100
AcDbLine
 10
1171.692698602013
 20
312.010538805946
 30
0.0
 11
1171.692698602013
 21
267.010538805946
 31
0.0
  0
LINE
  5
D395
330
18
100
AcDbEntity
  8
DRAW2
100
AcDbLine
 10
1169.692728602012
 20
267.010538805946
 30
0.0
 11
1169.692728602012
 21
311.010598805946
 31
0.0
  0
LINE
  5
D396
330
18
100
AcDbEntity
  8
DRAW2
100
AcDbLine
 10
1167.692728602012
 20
267.010538805946
 30
0.0
 11
1167.692728602012
 21
311.010598805946
 31
0.0
  0
LINE
  5
D397
330
18
100
AcDbEntity
  8
DRAW2
100
AcDbLine
 10
1171.692698602013
 20
312.010538805946
 30
0.0
 11
1186.692698602013
 21
312.010538805946
 31
0.0
  0
LINE
  5
D399
330
18
100
AcDbEntity
  8
DRAW2
100
AcDbLine
 10
1167.692728602012
 20
311.0105688059458
 30
0.0
 11
1171.692758602012
 21
311.0105688059458
 31
0.0
  0
LINE
  5
D39A
330
18
100
AcDbEntity
  8
DRAW2
100
AcDbLine
 10
1032.119388020239
 20
392.4134041201252
 30
0.0
 11
995.2426886020132
 21
392.4134041201252
 31
0.0
  0
LINE
  5
D39B
330
18
100
AcDbEntity
  8
DRAW2
100
AcDbLine
 10
1026.242688602013
 20
379.4233697455785
 30
0.0
 11
1005.242688602012
 21
379.4233697455786
 31
0.0
  0
LINE
  5
D39C
330
18
100
AcDbEntity
  8
DRAW2
100
AcDbLine
 10
1080.792688602013
 20
478.9134041201251
 30
0.0
 11
994.7926886020132
 21
478.9134041201251
 31
0.0
  0
LINE
  5
D39D
330
18
100
AcDbEntity
  8
DRAW2
100
AcDbLine
 10
1080.792688602013
 20
453.9134041201251
 30
0.0
 11
994.7926886020132
 21
453.9134041201251
 31
0.0
  0
LINE
  5
D39E
330
18
100
AcDbEntity
  8
DRAW2
100
AcDbLine
 10
1080.242688602013
 20
434.9968479753151
 30
0.0
 11
995.2426886020132
 21
434.9968479753151
 31
0.0
  0
LINE
  5
D39F
330
18
100
AcDbEntity
  8
DRAW2
100
AcDbLine
 10
1080.242688602013
 20
497.8299602649351
 30
0.0
 11
995.2426886020132
 21
497.8299602649351
 31
0.0
  0
LINE
  5
D3A0
330
18
100
AcDbEntity
  8
DRAW2
100
AcDbLine
 10
995.2426886020132
 20
540.4134041201253
 30
0.0
 11
1080.242688602013
 21
540.4134041201253
 31
0.0
  0
LINE
  5
D3A2
330
18
100
AcDbEntity
  8
DRAW2
100
AcDbLine
 10
923.2426886020132
 20
536.9134041201252
 30
0.0
 11
923.2426886020132
 21
519.9134041201252
 31
0.0
  0
LINE
  5
D3A3
330
18
100
AcDbEntity
  8
DRAW2
100
AcDbLine
 10
925.2426886020131
 20
538.9134041201251
 30
0.0
 11
925.2426886020131
 21
517.9134041201251
 31
0.0
  0
LINE
  5
D3A4
330
18
100
AcDbEntity
  8
DRAW2
100
AcDbLine
 10
945.2426886020132
 20
517.9134041201251
 30
0.0
 11
945.2426886020132
 21
538.9134041201251
 31
0.0
  0
LINE
  5
D3A5
330
18
100
AcDbEntity
  8
DRAW2
100
AcDbLine
 10
995.2426886020132
 20
540.4134041201253
 30
0.0
 11
995.2426886020132
 21
392.4134041201252
 31
0.0
  0
LINE
  5
D3A6
330
18
100
AcDbEntity
  8
DRAW2
100
AcDbLine
 10
955.2426886020132
 20
540.4134041201253
 30
0.0
 11
955.2426886020132
 21
392.4134041201252
 31
0.0
  0
LINE
  5
D3A7
330
18
100
AcDbEntity
  8
DRAW2
100
AcDbLine
 10
955.2426886020132
 20
540.4134041201253
 30
0.0
 11
955.2426886020132
 21
392.4134041201252
 31
0.0
  0
LINE
  5
D3A8
330
18
100
AcDbEntity
  8
DRAW2
100
AcDbLine
 10
945.2426886020132
 20
540.4134041201253
 30
0.0
 11
945.2426886020132
 21
392.4134041201252
 31
0.0
  0
LINE
  5
D3A9
330
18
100
AcDbEntity
  8
DRAW2
100
AcDbLine
 10
945.2426886020132
 20
540.4134041201253
 30
0.0
 11
945.2426886020132
 21
392.4134041201252
 31
0.0
  0
LINE
  5
D3AA
330
18
100
AcDbEntity
  8
DRAW2
100
AcDbLine
 10
994.2426886020133
 20
540.4134041201253
 30
0.0
 11
994.2426886020133
 21
500.4134041201252
 31
0.0
  0
CIRCLE
  5
D3AB
330
18
100
AcDbEntity
  8
DRAW2
100
AcDbCircle
 10
972.4926886020131
 20
444.4134041201253
 30
0.0
 40
8.0
  0
LINE
  5
D3AC
330
18
100
AcDbEntity
  8
DRAW2
100
AcDbLine
 10
955.7926886020133
 20
496.4134041201252
 30
0.0
 11
955.7926886020133
 21
436.4134041201253
 31
0.0
  0
LINE
  5
D3AD
330
18
100
AcDbEntity
  8
DRAW2
100
AcDbLine
 10
955.7926886020133
 20
500.4134041201252
 30
0.0
 11
955.7926886020133
 21
432.4134041201252
 31
0.0
  0
LINE
  5
D3AE
330
18
100
AcDbEntity
  8
DRAW2
100
AcDbLine
 10
994.7926886020132
 20
436.4134041201253
 30
0.0
 11
994.7926886020132
 21
496.4134041201252
 31
0.0
  0
LINE
  5
D3AF
330
18
100
AcDbEntity
  8
DRAW2
100
AcDbLine
 10
994.7926886020132
 20
500.4134041201252
 30
0.0
 11
994.7926886020132
 21
432.4134041201252
 31
0.0
  0
LINE
  5
D3B0
330
18
100
AcDbEntity
  8
DRAW2
100
AcDbLine
 10
923.2426886020132
 20
443.9134041201251
 30
0.0
 11
923.2426886020132
 21
426.9134041201251
 31
0.0
  0
LINE
  5
D3B1
330
18
100
AcDbEntity
  8
DRAW2
100
AcDbLine
 10
925.2426886020131
 20
445.9134041201251
 30
0.0
 11
925.2426886020131
 21
424.9134041201251
 31
0.0
  0
LINE
  5
D3B2
330
18
100
AcDbEntity
  8
DRAW2
100
AcDbLine
 10
945.2426886020132
 20
424.9134041201251
 30
0.0
 11
945.2426886020132
 21
445.9134041201251
 31
0.0
  0
LINE
  5
D3B3
330
18
100
AcDbEntity
  8
DRAW2
100
AcDbLine
 10
955.2426886020132
 20
434.9968481935591
 30
0.0
 11
945.2426886020132
 21
434.9968481935591
 31
0.0
  0
LINE
  5
D3B4
330
18
100
AcDbEntity
  8
DRAW2
100
AcDbLine
 10
955.2426886020132
 20
392.4134041201252
 30
0.0
 11
945.2426886020132
 21
392.4134041201252
 31
0.0
  0
LINE
  5
D3B7
330
18
100
AcDbEntity
  8
DRAW2
100
AcDbLine
 10
945.2426886020132
 20
414.9134041201251
 30
0.0
 11
925.2426886020131
 21
414.9134041201251
 31
0.0
  0
LINE
  5
D3B8
330
18
100
AcDbEntity
  8
DRAW2
100
AcDbLine
 10
925.2426886020131
 20
393.9134041201251
 30
0.0
 11
945.2426886020132
 21
393.9134041201251
 31
0.0
  0
LINE
  5
D3B9
330
18
100
AcDbEntity
  8
DRAW2
100
AcDbLine
 10
923.2426886020132
 20
395.9134041201251
 30
0.0
 11
925.2426886020131
 21
393.9134041201251
 31
0.0
  0
LINE
  5
D3BA
330
18
100
AcDbEntity
  8
DRAW2
100
AcDbLine
 10
923.2426886020132
 20
412.913404120125
 30
0.0
 11
923.2426886020132
 21
395.9134041201251
 31
0.0
  0
LINE
  5
D3BB
330
18
100
AcDbEntity
  8
DRAW2
100
AcDbLine
 10
925.2426886020131
 20
414.9134041201251
 30
0.0
 11
925.2426886020131
 21
393.9134041201251
 31
0.0
  0
LINE
  5
D3BC
330
18
100
AcDbEntity
  8
DRAW2
100
AcDbLine
 10
925.2426886020131
 20
414.9134041201251
 30
0.0
 11
923.2426886020132
 21
412.913404120125
 31
0.0
  0
LINE
  5
D3BD
330
18
100
AcDbEntity
  8
DRAW2
100
AcDbLine
 10
945.2426886020132
 20
393.9134041201251
 30
0.0
 11
945.2426886020132
 21
414.9134041201251
 31
0.0
  0
LINE
  5
D3BE
330
18
100
AcDbEntity
  8
DRAW2
100
AcDbLine
 10
925.2426886020131
 20
424.9134041201251
 30
0.0
 11
945.2426886020132
 21
424.9134041201251
 31
0.0
  0
LINE
  5
D3BF
330
18
100
AcDbEntity
  8
DRAW2
100
AcDbLine
 10
923.2426886020132
 20
426.9134041201251
 30
0.0
 11
925.2426886020131
 21
424.9134041201251
 31
0.0
  0
LINE
  5
D3C0
330
18
100
AcDbEntity
  8
DRAW2
100
AcDbLine
 10
1005.242688602012
 20
379.4233697455786
 30
0.0
 11
1005.242688602012
 21
392.4134041201252
 31
0.0
  0
LINE
  5
D3C2
330
18
100
AcDbEntity
  8
DRAW2
100
AcDbLine
 10
955.7926886020133
 20
436.4134041201253
 30
0.0
 11
994.7926886020132
 21
436.4134041201253
 31
0.0
  0
LINE
  5
D3C3
330
18
100
AcDbEntity
  8
DRAW2
100
AcDbLine
 10
955.7926886020133
 20
432.4134041201252
 30
0.0
 11
994.7926886020132
 21
432.4134041201252
 31
0.0
  0
LINE
  5
D3C4
330
18
100
AcDbEntity
  8
DRAW2
100
AcDbLine
 10
994.7926886020132
 20
436.4134041201252
 30
0.0
 11
955.7926886020133
 21
436.4134041201252
 31
0.0
  0
LINE
  5
D3C5
330
18
100
AcDbEntity
  8
DRAW2
100
AcDbLine
 10
955.2426886020132
 20
392.4134041201252
 30
0.0
 11
994.2426886020133
 21
392.4134041201252
 31
0.0
  0
LINE
  5
D3C6
330
18
100
AcDbEntity
  8
DRAW2
100
AcDbLine
 10
994.2426886020133
 20
432.4134041201252
 30
0.0
 11
994.2426886020133
 21
392.4134041201252
 31
0.0
  0
LINE
  5
D3C7
330
18
100
AcDbEntity
  8
DRAW2
100
AcDbLine
 10
1013.992688602012
 20
404.9256004514301
 30
0.0
 11
1013.992688602012
 21
407.5191602253501
 31
0.0
  0
LINE
  5
D3C8
330
18
100
AcDbEntity
  8
DRAW2
100
AcDbLine
 10
955.2426886020132
 20
497.8299951278051
 30
0.0
 11
945.2426886020132
 21
497.8299951278051
 31
0.0
  0
LINE
  5
D3C9
330
18
100
AcDbEntity
  8
DRAW2
100
AcDbLine
 10
945.2426886020132
 20
445.9134041201251
 30
0.0
 11
925.2426886020131
 21
445.9134041201251
 31
0.0
  0
LINE
  5
D3CA
330
18
100
AcDbEntity
  8
DRAW2
100
AcDbLine
 10
925.2426886020131
 20
445.9134041201251
 30
0.0
 11
923.2426886020132
 21
443.9134041201251
 31
0.0
  0
LINE
  5
D3CD
330
18
100
AcDbEntity
  8
DRAW2
100
AcDbLine
 10
925.2426886020131
 20
507.913404120125
 30
0.0
 11
925.2426886020131
 21
486.913404120125
 31
0.0
  0
LINE
  5
D3CE
330
18
100
AcDbEntity
  8
DRAW2
100
AcDbLine
 10
925.2426886020131
 20
507.913404120125
 30
0.0
 11
923.2426886020132
 21
505.9134041201249
 31
0.0
  0
LINE
  5
D3CF
330
18
100
AcDbEntity
  8
DRAW2
100
AcDbLine
 10
945.2426886020132
 20
486.913404120125
 30
0.0
 11
945.2426886020132
 21
507.913404120125
 31
0.0
  0
LINE
  5
D3D0
330
18
100
AcDbEntity
  8
DRAW2
100
AcDbLine
 10
925.2426886020131
 20
486.913404120125
 30
0.0
 11
945.2426886020132
 21
486.913404120125
 31
0.0
  0
LINE
  5
D3D1
330
18
100
AcDbEntity
  8
DRAW2
100
AcDbLine
 10
923.2426886020132
 20
488.9134041201249
 30
0.0
 11
925.2426886020131
 21
486.913404120125
 31
0.0
  0
LINE
  5
D3D2
330
18
100
AcDbEntity
  8
DRAW2
100
AcDbLine
 10
923.2426886020132
 20
505.9134041201249
 30
0.0
 11
923.2426886020132
 21
488.9134041201249
 31
0.0
  0
LINE
  5
D3D3
330
18
100
AcDbEntity
  8
DRAW2
100
AcDbLine
 10
945.2426886020132
 20
507.913404120125
 30
0.0
 11
925.2426886020131
 21
507.913404120125
 31
0.0
  0
LINE
  5
D3D4
330
18
100
AcDbEntity
  8
DRAW2
100
AcDbLine
 10
925.2426886020131
 20
517.9134041201251
 30
0.0
 11
945.2426886020132
 21
517.9134041201251
 31
0.0
  0
LINE
  5
D3D5
330
18
100
AcDbEntity
  8
DRAW2
100
AcDbLine
 10
923.2426886020132
 20
519.9134041201252
 30
0.0
 11
925.2426886020131
 21
517.9134041201251
 31
0.0
  0
CIRCLE
  5
D3D6
330
18
100
AcDbEntity
  8
DRAW2
100
AcDbCircle
 10
972.4926886020131
 20
488.4134041201252
 30
0.0
 40
8.0
  0
CIRCLE
  5
D3D7
330
18
100
AcDbEntity
  8
DRAW2
100
AcDbCircle
 10
972.4926886020131
 20
488.4134041201252
 30
0.0
 40
6.0
  0
CIRCLE
  5
D3D8
330
18
100
AcDbEntity
  8
DRAW2
100
AcDbCircle
 10
972.4926886020131
 20
444.4134041201253
 30
0.0
 40
6.0
  0
LINE
  5
D3D9
330
18
100
AcDbEntity
  8
DRAW2
100
AcDbLine
 10
994.7926886020132
 20
496.4134041201252
 30
0.0
 11
955.7926886020133
 21
496.4134041201252
 31
0.0
  0
LINE
  5
D3DA
330
18
100
AcDbEntity
  8
DRAW2
100
AcDbLine
 10
955.7926886020133
 20
500.4134041201252
 30
0.0
 11
994.7926886020132
 21
500.4134041201252
 31
0.0
  0
LINE
  5
D3DB
330
18
100
AcDbEntity
  8
DRAW2
100
AcDbLine
 10
994.7926886020132
 20
496.4134041201252
 30
0.0
 11
955.7926886020133
 21
496.4134041201252
 31
0.0
  0
LINE
  5
D3DC
330
18
100
AcDbEntity
  8
DRAW2
100
AcDbLine
 10
955.2426886020132
 20
540.4134041201253
 30
0.0
 11
945.2426886020132
 21
540.4134041201253
 31
0.0
  0
LINE
  5
D3DD
330
18
100
AcDbEntity
  8
DRAW2
100
AcDbLine
 10
945.2426886020132
 20
538.9134041201251
 30
0.0
 11
925.2426886020131
 21
538.9134041201251
 31
0.0
  0
LINE
  5
D3DE
330
18
100
AcDbEntity
  8
DRAW2
100
AcDbLine
 10
925.2426886020131
 20
538.9134041201251
 30
0.0
 11
923.2426886020132
 21
536.9134041201252
 31
0.0
  0
LINE
  5
D3DF
330
18
100
AcDbEntity
  8
DRAW2
100
AcDbLine
 10
994.2426886020133
 20
540.4134041201253
 30
0.0
 11
955.2426886020132
 21
540.4134041201253
 31
0.0
  0
LINE
  5
D3E0
330
18
100
AcDbEntity
  8
DRAW2
100
AcDbLine
 10
1152.242688602012
 20
536.9134041201252
 30
0.0
 11
1152.242688602012
 21
519.9134041201252
 31
0.0
  0
LINE
  5
D3E1
330
18
100
AcDbEntity
  8
DRAW2
100
AcDbLine
 10
1150.242688602012
 20
538.9134041201251
 30
0.0
 11
1150.242688602012
 21
517.9134041201251
 31
0.0
  0
LINE
  5
D3E2
330
18
100
AcDbEntity
  8
DRAW2
100
AcDbLine
 10
1130.242688602013
 20
517.9134041201251
 30
0.0
 11
1130.242688602013
 21
538.9134041201251
 31
0.0
  0
LINE
  5
D3E3
330
18
100
AcDbEntity
  8
DRAW2
100
AcDbLine
 10
1080.242688602013
 20
540.4134041201253
 30
0.0
 11
1080.242688602013
 21
392.4134041201252
 31
0.0
  0
LINE
  5
D3E4
330
18
100
AcDbEntity
  8
DRAW2
100
AcDbLine
 10
1120.242688602013
 20
540.4134041201253
 30
0.0
 11
1120.242688602013
 21
481.9134041201253
 31
0.0
  0
LINE
  5
D3E5
330
18
100
AcDbEntity
  8
DRAW2
100
AcDbLine
 10
1120.242688602013
 20
540.4134041201253
 30
0.0
 11
1120.242688602013
 21
481.9134041201253
 31
0.0
  0
LINE
  5
D3E6
330
18
100
AcDbEntity
  8
DRAW2
100
AcDbLine
 10
1130.242688602013
 20
540.4134041201253
 30
0.0
 11
1130.242688602013
 21
481.9134041201253
 31
0.0
  0
LINE
  5
D3E7
330
18
100
AcDbEntity
  8
DRAW2
100
AcDbLine
 10
1081.242688602013
 20
540.4134041201253
 30
0.0
 11
1081.242688602013
 21
500.4134041201252
 31
0.0
  0
LINE
  5
D3E9
330
18
100
AcDbEntity
  8
DRAW2
100
AcDbLine
 10
1130.242688602013
 20
507.913404120125
 30
0.0
 11
1150.242688602012
 21
507.913404120125
 31
0.0
  0
LINE
  5
D3EA
330
18
100
AcDbEntity
  8
DRAW2
100
AcDbLine
 10
1150.242688602012
 20
517.9134041201251
 30
0.0
 11
1130.242688602013
 21
517.9134041201251
 31
0.0
  0
LINE
  5
D3EC
330
18
100
AcDbEntity
  8
DRAW2
100
AcDbLine
 10
1130.242688602013
 20
414.9134041201251
 30
0.0
 11
1150.242688602012
 21
414.9134041201251
 31
0.0
  0
LINE
  5
D3ED
330
18
100
AcDbEntity
  8
DRAW2
100
AcDbLine
 10
1150.242688602012
 20
393.9134041201251
 30
0.0
 11
1130.242688602013
 21
393.9134041201251
 31
0.0
  0
LINE
  5
D3EF
330
18
100
AcDbEntity
  8
DRAW2
100
AcDbLine
 10
1150.242688602012
 20
424.9134041201251
 30
0.0
 11
1130.242688602013
 21
424.9134041201251
 31
0.0
  0
LINE
  5
D3F0
330
18
100
AcDbEntity
  8
DRAW2
100
AcDbLine
 10
1130.242688602013
 20
445.9134041201251
 30
0.0
 11
1150.242688602012
 21
445.9134041201251
 31
0.0
  0
LINE
  5
D3F1
330
18
100
AcDbEntity
  8
DRAW2
100
AcDbLine
 10
1119.792688602012
 20
450.9134041201252
 30
0.0
 11
1167.792688602012
 21
450.9134041201252
 31
0.0
  0
LINE
  5
D3F3
330
18
100
AcDbEntity
  8
DRAW2
100
AcDbLine
 10
1150.242688602012
 20
486.913404120125
 30
0.0
 11
1130.242688602013
 21
486.913404120125
 31
0.0
  0
LINE
  5
D3F4
330
18
100
AcDbEntity
  8
DRAW2
100
AcDbLine
 10
1119.792688602012
 20
481.9134041201253
 30
0.0
 11
1167.792688602012
 21
481.9134041201253
 31
0.0
  0
LINE
  5
D3F6
330
18
100
AcDbEntity
  8
DRAW2
100
AcDbLine
 10
1130.242688602013
 20
424.9134041201251
 30
0.0
 11
1130.242688602013
 21
445.9134041201251
 31
0.0
  0
CIRCLE
  5
D3F7
330
18
100
AcDbEntity
  8
DRAW2
100
AcDbCircle
 10
1102.992688602012
 20
444.4134041201253
 30
0.0
 40
8.0
  0
LINE
  5
D3F8
330
18
100
AcDbEntity
  8
DRAW2
100
AcDbLine
 10
1119.792688602012
 20
496.4134041201252
 30
0.0
 11
1119.792688602012
 21
436.4134041201253
 31
0.0
  0
LINE
  5
D3F9
330
18
100
AcDbEntity
  8
DRAW2
100
AcDbLine
 10
1119.792688602012
 20
500.4134041201252
 30
0.0
 11
1119.792688602012
 21
432.4134041201252
 31
0.0
  0
LINE
  5
D3FA
330
18
100
AcDbEntity
  8
DRAW2
100
AcDbLine
 10
1080.792688602013
 20
436.4134041201253
 30
0.0
 11
1080.792688602013
 21
496.4134041201252
 31
0.0
  0
LINE
  5
D3FB
330
18
100
AcDbEntity
  8
DRAW2
100
AcDbLine
 10
1080.792688602013
 20
500.4134041201252
 30
0.0
 11
1080.792688602013
 21
432.4134041201252
 31
0.0
  0
LINE
  5
D3FC
330
18
100
AcDbEntity
  8
DRAW2
100
AcDbLine
 10
1120.242688602013
 20
450.9134041201253
 30
0.0
 11
1120.242688602013
 21
392.4134041201252
 31
0.0
  0
LINE
  5
D3FD
330
18
100
AcDbEntity
  8
DRAW2
100
AcDbLine
 10
1120.242688602013
 20
450.9134041201253
 30
0.0
 11
1120.242688602013
 21
392.4134041201252
 31
0.0
  0
LINE
  5
D3FE
330
18
100
AcDbEntity
  8
DRAW2
100
AcDbLine
 10
1130.242688602013
 20
450.9134041201253
 30
0.0
 11
1130.242688602013
 21
392.4134041201252
 31
0.0
  0
LINE
  5
D3FF
330
18
100
AcDbEntity
  8
DRAW2
100
AcDbLine
 10
1119.792688602012
 20
436.4134041201253
 30
0.0
 11
1080.792688602013
 21
436.4134041201253
 31
0.0
  0
LINE
  5
D400
330
18
100
AcDbEntity
  8
DRAW2
100
AcDbLine
 10
1119.792688602012
 20
432.4134041201252
 30
0.0
 11
1080.792688602013
 21
432.4134041201252
 31
0.0
  0
LINE
  5
D401
330
18
100
AcDbEntity
  8
DRAW2
100
AcDbLine
 10
1080.792688602013
 20
436.4134041201252
 30
0.0
 11
1119.792688602012
 21
436.4134041201252
 31
0.0
  0
LINE
  5
D402
330
18
100
AcDbEntity
  8
DRAW2
100
AcDbLine
 10
1081.242688602013
 20
392.4134041201252
 30
0.0
 11
1120.242688602013
 21
392.4134041201252
 31
0.0
  0
LINE
  5
D403
330
18
100
AcDbEntity
  8
DRAW2
100
AcDbLine
 10
1043.678791420937
 20
387.5404545976286
 30
0.0
 11
1043.678791420937
 21
392.3035943184432
 31
0.0
  0
LINE
  5
D404
330
18
100
AcDbEntity
  8
DRAW2
100
AcDbLine
 10
1031.712325636712
 20
392.3035943184432
 30
0.0
 11
1031.712325636712
 21
387.5404545976286
 31
0.0
  0
LINE
  5
D405
330
18
100
AcDbEntity
  8
DRAW2
100
AcDbLine
 10
1037.742688602013
 20
393.9303547072336
 30
0.0
 11
1037.742688602013
 21
388.9812224655002
 31
0.0
  0
LINE
  5
D406
330
18
100
AcDbEntity
  8
DRAW2
100
AcDbLine
 10
1049.242688602012
 20
379.4233697455786
 30
0.0
 11
1049.242688602012
 21
392.4134041201252
 31
0.0
  0
LINE
  5
D407
330
18
100
AcDbEntity
  8
DRAW2
100
AcDbLine
 10
1026.242688602013
 20
392.4134041201252
 30
0.0
 11
1026.242688602013
 21
379.4233697455785
 31
0.0
  0
LINE
  5
D408
330
18
100
AcDbEntity
  8
DRAW2
100
AcDbLine
 10
1070.242688602013
 20
392.4134041201252
 30
0.0
 11
1070.242688602013
 21
379.4233697455785
 31
0.0
  0
LINE
  5
D40A
330
18
100
AcDbEntity
  8
DRAW2
100
AcDbLine
 10
1070.242688602013
 20
379.4233697455785
 30
0.0
 11
1049.242688602012
 21
379.4233697455786
 31
0.0
  0
LINE
  5
D40B
330
18
100
AcDbEntity
  8
DRAW2
100
AcDbLine
 10
1040.695558528831
 20
382.3763529824908
 30
0.0
 11
1040.695558528831
 21
362.0913026595997
 31
0.0
  0
LINE
  5
D40C
330
18
100
AcDbEntity
  8
DRAW2
100
AcDbLine
 10
1034.695558528831
 20
382.3763529824908
 30
0.0
 11
1034.695558528831
 21
361.0909919305516
 31
0.0
  0
LINE
  5
D40D
330
18
100
AcDbEntity
  8
DRAW2
100
AcDbLine
 10
1031.712325636712
 20
387.5404545976286
 30
0.0
 11
1037.742688602013
 21
388.9812224655002
 31
0.0
  0
LINE
  5
D40E
330
18
100
AcDbEntity
  8
DRAW2
100
AcDbLine
 10
1031.712325636712
 20
384.1404545976287
 30
0.0
 11
1031.945558528831
 21
384.0615150357433
 31
0.0
  0
LINE
  5
D40F
330
18
100
AcDbEntity
  8
DRAW2
100
AcDbLine
 10
1031.712325636712
 20
387.5404545976286
 30
0.0
 11
1031.712325636712
 21
384.1404545976287
 31
0.0
  0
LINE
  5
D410
330
18
100
AcDbEntity
  8
DRAW2
100
AcDbLine
 10
1031.945558528831
 20
385.3293974391137
 30
0.0
 11
1031.945558528831
 21
382.8093656843831
 31
0.0
  0
LINE
  5
D411
330
18
100
AcDbEntity
  8
DRAW2
100
AcDbLine
 10
1043.445558528831
 20
384.0602615442087
 30
0.0
 11
1043.678791420937
 21
384.1404545976287
 31
0.0
  0
LINE
  5
D412
330
18
100
AcDbEntity
  8
DRAW2
100
AcDbLine
 10
1037.742688602013
 20
388.9812224655002
 30
0.0
 11
1043.678791420937
 21
387.5404545976286
 31
0.0
  0
LINE
  5
D413
330
18
100
AcDbEntity
  8
DRAW2
100
AcDbLine
 10
1043.678791420937
 20
384.1404545976287
 30
0.0
 11
1043.678791420937
 21
387.5404545976286
 31
0.0
  0
LINE
  5
D414
330
18
100
AcDbEntity
  8
DRAW2
100
AcDbLine
 10
1043.445558528831
 20
382.8093656843831
 30
0.0
 11
1043.445558528831
 21
385.3293974391137
 31
0.0
  0
LINE
  5
D415
330
18
100
AcDbEntity
  8
DRAW2
100
AcDbLine
 10
1080.242688602013
 20
392.4134041201252
 30
0.0
 11
1043.278091798667
 21
392.4134041201252
 31
0.0
  0
LINE
  5
D416
330
18
100
AcDbEntity
  8
DRAW2
100
AcDbLine
 10
1041.059313392368
 20
402.8374418628256
 30
0.0
 11
1034.426063811658
 21
402.8374418628256
 31
0.0
  0
LINE
  5
D417
330
18
100
AcDbEntity
  8
DRAW2
100
AcDbLine
 10
1041.059313392368
 20
397.641289440119
 30
0.0
 11
1034.426063811658
 21
397.641289440119
 31
0.0
  0
LINE
  5
D418
330
18
100
AcDbEntity
  8
DRAW2
100
AcDbLine
 10
1037.742688602013
 20
393.9303547072336
 30
0.0
 11
1031.712325636712
 21
392.3035943184432
 31
0.0
  0
LINE
  5
D419
330
18
100
AcDbEntity
  8
DRAW2
100
AcDbLine
 10
1021.388195930108
 20
400.1755794229496
 30
0.0
 11
1022.179483777586
 21
400.4040045488235
 31
0.0
  0
LINE
  5
D41A
330
18
100
AcDbEntity
  8
DRAW2
100
AcDbLine
 10
1020.596908082631
 20
400.4040045488235
 30
0.0
 11
1021.388195930108
 21
400.1755794229496
 31
0.0
  0
LINE
  5
D41B
330
18
100
AcDbEntity
  8
DRAW2
100
AcDbLine
 10
1032.750754002487
 20
404.6935496438614
 30
0.0
 11
1032.750754002487
 21
401.9997869582409
 31
0.0
  0
LINE
  5
D41C
330
18
100
AcDbEntity
  8
DRAW2
100
AcDbLine
 10
1034.426063811658
 20
402.8374418628256
 30
0.0
 11
1032.742688602013
 21
401.9957542580033
 31
0.0
  0
LINE
  5
D41D
330
18
100
AcDbEntity
  8
DRAW2
100
AcDbLine
 10
1032.742688602013
 20
401.9957542580033
 30
0.0
 11
1032.742688602013
 21
396.7996018352966
 31
0.0
  0
LINE
  5
D41E
330
18
100
AcDbEntity
  8
DRAW2
100
AcDbLine
 10
1034.426063811658
 20
402.8374418628256
 30
0.0
 11
1034.426063811658
 21
397.641289440119
 31
0.0
  0
LINE
  5
D41F
330
18
100
AcDbEntity
  8
DRAW2
100
AcDbLine
 10
1034.426063811658
 20
397.641289440119
 30
0.0
 11
1032.742688602013
 21
396.7996018352966
 31
0.0
  0
LINE
  5
D420
330
18
100
AcDbEntity
  8
DRAW2
100
AcDbLine
 10
1032.742688602013
 20
396.7996018352966
 30
0.0
 11
1032.742688602013
 21
392.6412894401188
 31
0.0
  0
LINE
  5
D421
330
18
100
AcDbEntity
  8
DRAW2
100
AcDbLine
 10
1033.542688602013
 20
395.1412894401188
 30
0.0
 11
1033.542688602013
 21
394.1798384435151
 31
0.0
  0
LINE
  5
D422
330
18
100
AcDbEntity
  8
DRAW2
100
AcDbLine
 10
1032.742688602013
 20
392.5815466851038
 30
0.0
 11
1032.742688602013
 21
392.8233724468899
 31
0.0
  0
LINE
  5
D423
330
18
100
AcDbEntity
  8
DRAW2
100
AcDbLine
 10
1036.951400754535
 20
414.5575045488237
 30
0.0
 11
1037.742688602013
 21
414.3290794229498
 31
0.0
  0
LINE
  5
D424
330
18
100
AcDbEntity
  8
DRAW2
100
AcDbLine
 10
1037.742688602013
 20
414.3290794229498
 30
0.0
 11
1038.53397644949
 21
414.5575045488237
 31
0.0
  0
LINE
  5
D425
330
18
100
AcDbEntity
  8
DRAW2
100
AcDbLine
 10
1042.734623201537
 20
404.6935496438614
 30
0.0
 11
1042.734623201537
 21
401.9997869582412
 31
0.0
  0
LINE
  5
D426
330
18
100
AcDbEntity
  8
DRAW2
100
AcDbLine
 10
1041.059313392368
 20
402.8374418628256
 30
0.0
 11
1042.742688602013
 21
401.9957542580033
 31
0.0
  0
LINE
  5
D427
330
18
100
AcDbEntity
  8
DRAW2
100
AcDbLine
 10
1042.742688602013
 20
401.9957542580033
 30
0.0
 11
1042.742688602013
 21
396.7996018352966
 31
0.0
  0
LINE
  5
D428
330
18
100
AcDbEntity
  8
DRAW2
100
AcDbLine
 10
1041.059313392368
 20
402.8374418628256
 30
0.0
 11
1041.059313392368
 21
397.641289440119
 31
0.0
  0
LINE
  5
D429
330
18
100
AcDbEntity
  8
DRAW2
100
AcDbLine
 10
1041.059313392368
 20
397.641289440119
 30
0.0
 11
1042.742688602013
 21
396.7996018352966
 31
0.0
  0
LINE
  5
D42A
330
18
100
AcDbEntity
  8
DRAW2
100
AcDbLine
 10
1042.742688602013
 20
396.7996018352966
 30
0.0
 11
1042.742688602013
 21
392.6412894401188
 31
0.0
  0
LINE
  5
D42B
330
18
100
AcDbEntity
  8
DRAW2
100
AcDbLine
 10
1041.942688602013
 20
395.1412894401188
 30
0.0
 11
1041.942688602013
 21
394.1798384435151
 31
0.0
  0
LINE
  5
D42C
330
18
100
AcDbEntity
  8
DRAW2
100
AcDbLine
 10
1042.742688602013
 20
392.8233724468899
 30
0.0
 11
1042.742688602013
 21
392.5601287876246
 31
0.0
  0
LINE
  5
D42D
330
18
100
AcDbEntity
  8
DRAW2
100
AcDbLine
 10
1037.742688602013
 20
393.9303547072336
 30
0.0
 11
1043.678791420937
 21
392.3035943184432
 31
0.0
  0
LINE
  5
D42E
330
18
100
AcDbEntity
  8
DRAW2
100
AcDbLine
 10
1081.242688602013
 20
432.4134041201252
 30
0.0
 11
1081.242688602013
 21
392.4134041201252
 31
0.0
  0
LINE
  5
D42F
330
18
100
AcDbEntity
  8
DRAW2
100
AcDbLine
 10
1061.492688602013
 20
404.9256004514301
 30
0.0
 11
1061.492688602013
 21
407.5191602253501
 31
0.0
  0
LINE
  5
D430
330
18
100
AcDbEntity
  8
DRAW2
100
AcDbLine
 10
1054.297161273917
 20
400.1755794229496
 30
0.0
 11
1055.088449121394
 21
400.4040045488235
 31
0.0
  0
LINE
  5
D431
330
18
100
AcDbEntity
  8
DRAW2
100
AcDbLine
 10
1053.50587342644
 20
400.4040045488235
 30
0.0
 11
1054.297161273917
 21
400.1755794229496
 31
0.0
  0
LINE
  5
D432
330
18
100
AcDbEntity
  8
DRAW2
100
AcDbLine
 10
1130.242688602013
 20
392.4134041201252
 30
0.0
 11
1120.242688602013
 21
392.4134041201252
 31
0.0
  0
LINE
  5
D433
330
18
100
AcDbEntity
  8
DRAW2
100
AcDbLine
 10
1130.242688602013
 20
393.9134041201251
 30
0.0
 11
1130.242688602013
 21
414.9134041201251
 31
0.0
  0
LINE
  5
D434
330
18
100
AcDbEntity
  8
DRAW2
100
AcDbLine
 10
1130.242688602013
 20
434.9968481935591
 30
0.0
 11
1120.242688602013
 21
434.9968481935591
 31
0.0
  0
LINE
  5
D435
330
18
100
AcDbEntity
  8
DRAW2
100
AcDbLine
 10
1080.792688602013
 20
496.4134041201252
 30
0.0
 11
1119.792688602012
 21
496.4134041201252
 31
0.0
  0
LINE
  5
D436
330
18
100
AcDbEntity
  8
DRAW2
100
AcDbLine
 10
1119.792688602012
 20
500.4134041201252
 30
0.0
 11
1080.792688602013
 21
500.4134041201252
 31
0.0
  0
LINE
  5
D437
330
18
100
AcDbEntity
  8
DRAW2
100
AcDbLine
 10
1080.792688602013
 20
496.4134041201252
 30
0.0
 11
1119.792688602012
 21
496.4134041201252
 31
0.0
  0
CIRCLE
  5
D438
330
18
100
AcDbEntity
  8
DRAW2
100
AcDbCircle
 10
1103.092688602012
 20
488.4134041201252
 30
0.0
 40
8.0
  0
CIRCLE
  5
D439
330
18
100
AcDbEntity
  8
DRAW2
100
AcDbCircle
 10
1103.092688602012
 20
488.4134041201252
 30
0.0
 40
6.0
  0
CIRCLE
  5
D43A
330
18
100
AcDbEntity
  8
DRAW2
100
AcDbCircle
 10
1102.992688602012
 20
444.4134041201253
 30
0.0
 40
6.0
  0
LINE
  5
D43B
330
18
100
AcDbEntity
  8
DRAW2
100
AcDbLine
 10
1130.242688602013
 20
486.913404120125
 30
0.0
 11
1130.242688602013
 21
507.913404120125
 31
0.0
  0
LINE
  5
D43C
330
18
100
AcDbEntity
  8
DRAW2
100
AcDbLine
 10
1130.242688602013
 20
497.8299951278051
 30
0.0
 11
1120.242688602013
 21
497.8299951278051
 31
0.0
  0
LINE
  5
D43D
330
18
100
AcDbEntity
  8
DRAW2
100
AcDbLine
 10
1152.242688602012
 20
443.9134041201249
 30
0.0
 11
1152.242688602012
 21
426.9134041201251
 31
0.0
  0
LINE
  5
D43E
330
18
100
AcDbEntity
  8
DRAW2
100
AcDbLine
 10
1150.242688602012
 20
445.9134041201251
 30
0.0
 11
1150.242688602012
 21
424.9134041201251
 31
0.0
  0
LINE
  5
D43F
330
18
100
AcDbEntity
  8
DRAW2
100
AcDbLine
 10
1171.792688602013
 20
511.4134041201253
 30
0.0
 11
1171.792688602013
 21
421.4134041201252
 31
0.0
  0
LINE
  5
D440
330
18
100
AcDbEntity
  8
DRAW2
100
AcDbLine
 10
1186.792688602013
 20
511.4134041201253
 30
0.0
 11
1186.792688602013
 21
421.4134041201252
 31
0.0
  0
LINE
  5
D441
330
18
100
AcDbEntity
  8
DRAW2
100
AcDbLine
 10
1167.792688602012
 20
422.4134041201252
 30
0.0
 11
1167.792688602012
 21
510.4134041201253
 31
0.0
  0
LINE
  5
D442
330
18
100
AcDbEntity
  8
DRAW2
100
AcDbLine
 10
1169.792688602012
 20
422.4134041201252
 30
0.0
 11
1169.792688602012
 21
510.4134041201253
 31
0.0
  0
LINE
  5
D443
330
18
100
AcDbEntity
  8
DRAW2
100
AcDbLine
 10
1171.792688602013
 20
421.4134041201252
 30
0.0
 11
1186.792688602013
 21
421.4134041201252
 31
0.0
  0
LINE
  5
D444
330
18
100
AcDbEntity
  8
DRAW2
100
AcDbLine
 10
1152.242688602012
 20
395.9134041201251
 30
0.0
 11
1150.242688602012
 21
393.9134041201251
 31
0.0
  0
LINE
  5
D445
330
18
100
AcDbEntity
  8
DRAW2
100
AcDbLine
 10
1152.242688602012
 20
412.913404120125
 30
0.0
 11
1152.242688602012
 21
395.9134041201251
 31
0.0
  0
LINE
  5
D446
330
18
100
AcDbEntity
  8
DRAW2
100
AcDbLine
 10
1150.242688602012
 20
414.9134041201251
 30
0.0
 11
1150.242688602012
 21
393.9134041201251
 31
0.0
  0
LINE
  5
D447
330
18
100
AcDbEntity
  8
DRAW2
100
AcDbLine
 10
1150.242688602012
 20
414.9134041201251
 30
0.0
 11
1152.242688602012
 21
412.913404120125
 31
0.0
  0
LINE
  5
D448
330
18
100
AcDbEntity
  8
DRAW2
100
AcDbLine
 10
1152.242688602012
 20
426.9134041201251
 30
0.0
 11
1150.242688602012
 21
424.9134041201251
 31
0.0
  0
LINE
  5
D449
330
18
100
AcDbEntity
  8
DRAW2
100
AcDbLine
 10
1171.792688602013
 20
422.4134041201252
 30
0.0
 11
1167.792688602012
 21
422.4134041201252
 31
0.0
  0
LINE
  5
D44A
330
18
100
AcDbEntity
  8
DRAW2
100
AcDbLine
 10
1150.242688602012
 20
445.9134041201251
 30
0.0
 11
1152.242688602012
 21
443.9134041201249
 31
0.0
  0
LINE
  5
D44B
330
18
100
AcDbEntity
  8
DRAW2
100
AcDbLine
 10
1186.792688602013
 20
511.4134041201253
 30
0.0
 11
1171.792688602013
 21
511.4134041201253
 31
0.0
  0
LINE
  5
D44C
330
18
100
AcDbEntity
  8
DRAW2
100
AcDbLine
 10
1150.242688602012
 20
507.913404120125
 30
0.0
 11
1150.242688602012
 21
486.913404120125
 31
0.0
  0
LINE
  5
D44D
330
18
100
AcDbEntity
  8
DRAW2
100
AcDbLine
 10
1150.242688602012
 20
507.913404120125
 30
0.0
 11
1152.242688602012
 21
505.9134041201249
 31
0.0
  0
LINE
  5
D44E
330
18
100
AcDbEntity
  8
DRAW2
100
AcDbLine
 10
1152.242688602012
 20
488.9134041201249
 30
0.0
 11
1150.242688602012
 21
486.913404120125
 31
0.0
  0
LINE
  5
D44F
330
18
100
AcDbEntity
  8
DRAW2
100
AcDbLine
 10
1152.242688602012
 20
505.9134041201249
 30
0.0
 11
1152.242688602012
 21
488.9134041201249
 31
0.0
  0
LINE
  5
D450
330
18
100
AcDbEntity
  8
DRAW2
100
AcDbLine
 10
1152.242688602012
 20
519.9134041201252
 30
0.0
 11
1150.242688602012
 21
517.9134041201251
 31
0.0
  0
LINE
  5
D451
330
18
100
AcDbEntity
  8
DRAW2
100
AcDbLine
 10
1171.792688602013
 20
510.4134041201253
 30
0.0
 11
1167.792688602012
 21
510.4134041201253
 31
0.0
  0
LINE
  5
D452
330
18
100
AcDbEntity
  8
DRAW2
100
AcDbLine
 10
1130.242688602013
 20
538.9134041201251
 30
0.0
 11
1150.242688602012
 21
538.9134041201251
 31
0.0
  0
LINE
  5
D453
330
18
100
AcDbEntity
  8
DRAW2
100
AcDbLine
 10
1120.242688602013
 20
540.4134041201253
 30
0.0
 11
1081.242688602013
 21
540.4134041201253
 31
0.0
  0
LINE
  5
D454
330
18
100
AcDbEntity
  8
DRAW2
100
AcDbLine
 10
1130.242688602013
 20
540.4134041201253
 30
0.0
 11
1120.242688602013
 21
540.4134041201253
 31
0.0
  0
LINE
  5
D455
330
18
100
AcDbEntity
  8
DRAW2
100
AcDbLine
 10
1150.242688602012
 20
538.9134041201251
 30
0.0
 11
1152.242688602012
 21
536.9134041201252
 31
0.0
  0
SPLINE
  5
D457
330
18
100
AcDbEntity
  8
DRAW3
100
AcDbSpline
210
0.0
220
0.0
230
1.0
 70
     8
 71
     3
 72
    10
 73
     6
 74
     4
 42
0.0000000001
 43
0.0000000001
 44
0.0000000001
 40
0.0
 40
0.0
 40
0.0
 40
0.0
 40
0.3934537606267765
 40
0.8633942176743662
 40
1.429935674776056
 40
1.429935674776056
 40
1.429935674776056
 40
1.429935674776056
 10
1370.935025950282
 20
218.3264755208663
 30
0.0
 10
1370.830000119385
 20
218.2062907829818
 30
0.0
 10
1370.599531626829
 20
217.9425576124642
 30
0.0
 10
1370.206974564522
 20
218.5164860756173
 30
0.0
 10
1369.869493334692
 20
218.2904687875481
 30
0.0
 10
1369.685025950281
 20
218.1669276413256
 30
0.0
 11
1370.935025950282
 21
218.3264755208663
 31
0.0
 11
1370.618586737804
 21
218.0926548918411
 31
0.0
 11
1370.222611663979
 21
218.3457315088555
 31
0.0
 11
1369.685025950281
 21
218.1669276413256
 31
0.0
  0
SPLINE
  5
D458
330
18
100
AcDbEntity
  8
DRAW3
100
AcDbSpline
210
0.0
220
0.0
230
1.0
 70
     8
 71
     3
 72
    10
 73
     6
 74
     4
 42
0.0000000001
 43
0.0000000001
 44
0.0000000001
 40
0.0
 40
0.0
 40
0.0
 40
0.0
 40
0.3934537606267596
 40
0.8633942176753379
 40
1.202033207996461
 40
1.202033207996461
 40
1.202033207996461
 40
1.202033207996461
 10
1377.810025950281
 20
218.3264755208658
 30
0.0
 10
1377.705727995227
 20
218.2017192461823
 30
0.0
 10
1377.476856752099
 20
217.9279543036162
 30
0.0
 10
1377.134449786901
 20
218.4883875414541
 30
0.0
 10
1376.905790241422
 20
218.2618170298077
 30
0.0
 10
1376.810025950281
 20
218.1669276413251
 30
0.0
 11
1377.810025950281
 21
218.3264755208658
 31
0.0
 11
1377.493586737803
 21
218.0926548918407
 31
0.0
 11
1377.097611663977
 21
218.3457315088551
 31
0.0
 11
1376.810025950281
 21
218.1669276413251
 31
0.0
  0
SPLINE
  5
D459
330
18
100
AcDbEntity
  8
DRAW3
100
AcDbSpline
210
0.0
220
0.0
230
1.0
 70
     8
 71
     3
 72
    10
 73
     6
 74
     4
 42
0.0000000001
 43
0.0000000001
 44
0.0000000001
 40
0.0
 40
0.0
 40
0.0
 40
0.0
 40
0.3934537606267765
 40
0.8633942176743662
 40
1.429935674776056
 40
1.429935674776056
 40
1.429935674776056
 40
1.429935674776056
 10
1370.935025950282
 20
220.3264755208663
 30
0.0
 10
1370.830000119385
 20
220.2062907829819
 30
0.0
 10
1370.599531626829
 20
219.9425576124643
 30
0.0
 10
1370.206974564522
 20
220.5164860756173
 30
0.0
 10
1369.869493334692
 20
220.2904687875481
 30
0.0
 10
1369.685025950281
 20
220.1669276413256
 30
0.0
 11
1370.935025950282
 21
220.3264755208663
 31
0.0
 11
1370.618586737804
 21
220.0926548918411
 31
0.0
 11
1370.222611663979
 21
220.3457315088555
 31
0.0
 11
1369.685025950281
 21
220.1669276413256
 31
0.0
  0
SPLINE
  5
D45A
330
18
100
AcDbEntity
  8
DRAW3
100
AcDbSpline
210
0.0
220
0.0
230
1.0
 70
     8
 71
     3
 72
    10
 73
     6
 74
     4
 42
0.0000000001
 43
0.0000000001
 44
0.0000000001
 40
0.0
 40
0.0
 40
0.0
 40
0.0
 40
0.3934537606267596
 40
0.8633942176753379
 40
1.202033207996461
 40
1.202033207996461
 40
1.202033207996461
 40
1.202033207996461
 10
1377.810025950281
 20
220.3264755208658
 30
0.0
 10
1377.705727995227
 20
220.2017192461823
 30
0.0
 10
1377.476856752099
 20
219.9279543036162
 30
0.0
 10
1377.134449786901
 20
220.4883875414541
 30
0.0
 10
1376.905790241422
 20
220.2618170298077
 30
0.0
 10
1376.810025950281
 20
220.1669276413251
 30
0.0
 11
1377.810025950281
 21
220.3264755208658
 31
0.0
 11
1377.493586737803
 21
220.0926548918407
 31
0.0
 11
1377.097611663977
 21
220.3457315088551
 31
0.0
 11
1376.810025950281
 21
220.1669276413251
 31
0.0
  0
SPLINE
  5
D45B
330
18
100
AcDbEntity
  8
DRAW3
100
AcDbSpline
210
0.0
220
0.0
230
1.0
 70
     8
 71
     3
 72
    10
 73
     6
 74
     4
 42
0.0000000001
 43
0.0000000001
 44
0.0000000001
 40
0.0
 40
0.0
 40
0.0
 40
0.0
 40
0.7869075212544505
 40
1.726788435349867
 40
2.626116616137508
 40
2.626116616137508
 40
2.626116616137508
 40
2.626116616137508
 10
1394.810025950289
 20
218.3264755208658
 30
0.0
 10
1394.600299736643
 20
218.0824669331216
 30
0.0
 10
1394.140076914352
 20
217.5470149313782
 30
0.0
 10
1393.413071017381
 20
218.6688565652561
 30
0.0
 10
1392.840163626388
 20
218.2246069419964
 30
0.0
 10
1392.560025950289
 20
218.0073797617843
 30
0.0
 11
1394.810025950289
 21
218.3264755208658
 31
0.0
 11
1394.177147525332
 21
217.8588342628156
 31
0.0
 11
1393.385197377681
 21
218.3649874968443
 31
0.0
 11
1392.560025950289
 21
218.0073797617843
 31
0.0
  0
SPLINE
  5
D45C
330
18
100
AcDbEntity
  8
DRAW3
100
AcDbSpline
210
0.0
220
0.0
230
1.0
 70
     8
 71
     3
 72
    10
 73
     6
 74
     4
 42
0.0000000001
 43
0.0000000001
 44
0.0000000001
 40
0.0
 40
0.0
 40
0.0
 40
0.0
 40
0.7869075212544505
 40
1.726788435349867
 40
2.626116616137508
 40
2.626116616137508
 40
2.626116616137508
 40
2.626116616137508
 10
1394.810025950289
 20
220.3264755208658
 30
0.0
 10
1394.600299736643
 20
220.0824669331217
 30
0.0
 10
1394.140076914352
 20
219.5470149313782
 30
0.0
 10
1393.413071017381
 20
220.6688565652561
 30
0.0
 10
1392.840163626388
 20
220.2246069419964
 30
0.0
 10
1392.560025950289
 20
220.0073797617843
 30
0.0
 11
1394.810025950289
 21
220.3264755208658
 31
0.0
 11
1394.177147525332
 21
219.8588342628155
 31
0.0
 11
1393.385197377681
 21
220.3649874968443
 31
0.0
 11
1392.560025950289
 21
220.0073797617843
 31
0.0
  0
SPLINE
  5
D45D
330
18
100
AcDbEntity
  8
DRAW3
100
AcDbSpline
210
0.0
220
0.0
230
1.0
 70
     8
 71
     3
 72
    10
 73
     6
 74
     4
 42
0.0000000001
 43
0.0000000001
 44
0.0000000001
 40
0.0
 40
0.0
 40
0.0
 40
0.0
 40
1.972684243528396
 40
4.621558289201956
 40
6.679776794359382
 40
6.679776794359382
 40
6.679776794359382
 40
6.679776794359382
 10
1456.968236381044
 20
250.3613655456831
 30
0.0
 10
1457.427781168079
 20
249.7850935482087
 30
0.0
 10
1458.504391896203
 20
248.4350170544671
 30
0.0
 10
1456.223943337059
 20
246.2524673179769
 30
0.0
 10
1457.437784261184
 20
244.9366976524641
 30
0.0
 10
1457.968547110091
 20
244.3613655456831
 30
0.0
 11
1456.968236381044
 21
250.3613655456831
 31
0.0
 11
1457.863251778374
 21
248.6034034973993
 31
0.0
 11
1456.915587022606
 21
246.1298503403969
 31
0.0
 11
1457.968547110091
 21
244.3613655456831
 31
0.0
  0
SPLINE
  5
D45E
330
18
100
AcDbEntity
  8
DRAW3
100
AcDbSpline
210
0.0
220
0.0
230
1.0
 70
     8
 71
     3
 72
    10
 73
     6
 74
     4
 42
0.0000000001
 43
0.0000000001
 44
0.0000000001
 40
0.0
 40
0.0
 40
0.0
 40
0.0
 40
1.972684243528396
 40
4.621558289201956
 40
6.679776794359382
 40
6.679776794359382
 40
6.679776794359382
 40
6.679776794359382
 10
1458.968236381044
 20
250.3613655456831
 30
0.0
 10
1459.427781168079
 20
249.7850935482087
 30
0.0
 10
1460.504391896203
 20
248.4350170544671
 30
0.0
 10
1458.223943337059
 20
246.2524673179769
 30
0.0
 10
1459.437784261184
 20
244.9366976524641
 30
0.0
 10
1459.968547110091
 20
244.3613655456831
 30
0.0
 11
1458.968236381044
 21
250.3613655456831
 31
0.0
 11
1459.863251778374
 21
248.6034034973993
 31
0.0
 11
1458.915587022605
 21
246.1298503403969
 31
0.0
 11
1459.968547110091
 21
244.3613655456831
 31
0.0
  0
ARC
  5
D45F
330
18
100
AcDbEntity
  8
DRAW2
100
AcDbCircle
 10
1545.892629804032
 20
129.31704853851
 30
0.0
 40
8.499970000000075
100
AcDbArc
 50
51.35295349510313
 51
219.9432862975569
  0
ARC
  5
D460
330
18
100
AcDbEntity
  8
DRAW2
100
AcDbCircle
 10
1545.892629804032
 20
129.31704853851
 30
0.0
 40
10.50000000004285
100
AcDbArc
 50
47.86771746367121
 51
223.4285223289893
  0
CIRCLE
  5
D462
330
18
100
AcDbEntity
  8
DRAW2
100
AcDbCircle
 10
1576.892688702013
 20
99.01050880594652
 30
0.0
 40
44.99999999999931
  0
CIRCLE
  5
D464
330
18
100
AcDbEntity
  8
DRAW2
100
AcDbCircle
 10
1576.892688702013
 20
267.0105688059466
 30
0.0
 40
44.99999999999931
  0
ARC
  5
D467
330
18
100
AcDbEntity
  8
DRAW2
100
AcDbCircle
 10
1545.892739600026
 20
236.7042124641308
 30
0.0
 40
10.50000000004285
100
AcDbArc
 50
136.5725452148597
 51
312.1310712508852
  0
ARC
  5
D468
330
18
100
AcDbEntity
  8
DRAW2
100
AcDbCircle
 10
1545.892739600026
 20
236.7042124641308
 30
0.0
 40
8.499970000000075
100
AcDbArc
 50
140.0580694509367
 51
308.6455470148076
  0
LINE
  5
D46E
330
18
100
AcDbEntity
  8
DRAW2
100
AcDbLine
 10
1542.020458702013
 20
48.86219880594649
 30
0.0
 11
1544.809566020412
 21
67.45621846378654
 31
0.0
  0
LINE
  5
D46F
330
18
100
AcDbEntity
  8
DRAW2
100
AcDbLine
 10
1506.892658702013
 20
68.01050880594653
 30
0.0
 11
1544.273675841414
 21
68.01050880594655
 31
0.0
  0
LINE
  5
D471
330
18
100
AcDbEntity
  8
DRAW2
100
AcDbLine
 10
1489.902688702013
 20
151.5105688059464
 30
0.0
 11
1489.902688702013
 21
160.0105688059466
 31
0.0
  0
LINE
  5
D472
330
18
100
AcDbEntity
  8
DRAW2
100
AcDbLine
 10
1389.110025950281
 20
156.0109390925993
 30
0.0
 11
1389.110025950281
 21
166.0109390925996
 31
0.0
  0
LINE
  5
D473
330
18
100
AcDbEntity
  8
DRAW2
100
AcDbLine
 10
1391.510025950281
 20
156.0109390925993
 30
0.0
 11
1391.510025950281
 21
166.0109390925996
 31
0.0
  0
LINE
  5
D474
330
18
100
AcDbEntity
  8
DRAW2
100
AcDbLine
 10
1396.110025950281
 20
156.0109390925993
 30
0.0
 11
1396.110025950281
 21
166.0109390925996
 31
0.0
  0
LINE
  5
D475
330
18
100
AcDbEntity
  8
DRAW2
100
AcDbLine
 10
1398.510025950281
 20
156.0109390925993
 30
0.0
 11
1398.510025950281
 21
166.0109390925996
 31
0.0
  0
LINE
  5
D476
330
18
100
AcDbEntity
  8
DRAW2
100
AcDbLine
 10
1378.510025950281
 20
156.0109390925993
 30
0.0
 11
1378.510025950281
 21
166.0109390925996
 31
0.0
  0
LINE
  5
D477
330
18
100
AcDbEntity
  8
DRAW2
100
AcDbLine
 10
1376.11002595028
 20
156.0109390925993
 30
0.0
 11
1376.11002595028
 21
166.0109390925996
 31
0.0
  0
LINE
  5
D47A
330
18
100
AcDbEntity
  8
DRAW2
100
AcDbLine
 10
1369.110025950281
 20
156.0109390925993
 30
0.0
 11
1369.110025950281
 21
166.0109390925996
 31
0.0
  0
LINE
  5
D47B
330
18
100
AcDbEntity
  8
DRAW2
100
AcDbLine
 10
1371.510025950281
 20
156.0109390925993
 30
0.0
 11
1371.510025950281
 21
166.0109390925996
 31
0.0
  0
ARC
  5
D47E
330
18
100
AcDbEntity
  8
DRAW2
100
AcDbCircle
 10
1576.892688702013
 20
183.0105988059465
 30
0.0
 40
74.0
100
AcDbArc
 50
122.3111795747372
 51
237.6888648298329
  0
LINE
  5
D47F
330
18
100
AcDbEntity
  8
DRAW2
100
AcDbLine
 10
1376.11002595028
 20
156.0109390925993
 30
0.0
 11
1378.510025950281
 21
156.0109390925996
 31
0.0
  0
LINE
  5
D480
330
18
100
AcDbEntity
  8
DRAW2
100
AcDbLine
 10
1369.110025950281
 20
156.0109390925993
 30
0.0
 11
1371.510025950281
 21
156.0109390925996
 31
0.0
  0
LINE
  5
D481
330
18
100
AcDbEntity
  8
DRAW2
100
AcDbLine
 10
1389.110025950281
 20
156.0109390925993
 30
0.0
 11
1391.510025950281
 21
156.0109390925996
 31
0.0
  0
LINE
  5
D482
330
18
100
AcDbEntity
  8
DRAW2
100
AcDbLine
 10
1396.110025950281
 20
156.0109390925993
 30
0.0
 11
1398.510025950281
 21
156.0109390925996
 31
0.0
  0
LINE
  5
D483
330
18
100
AcDbEntity
  8
DRAW2
100
AcDbLine
 10
1511.764938702012
 20
48.86219880594649
 30
0.0
 11
1508.892688702013
 21
68.01053880594645
 31
0.0
  0
LINE
  5
D485
330
18
100
AcDbEntity
  8
DRAW2
100
AcDbLine
 10
1541.031508702013
 20
48.01050880594653
 30
0.0
 11
1512.753888702013
 21
48.01050880594653
 31
0.0
  0
ARC
  5
D486
330
18
100
AcDbEntity
  8
DRAW2
100
AcDbCircle
 10
1512.753888702013
 20
49.01053880594668
 30
0.0
 40
1.0
100
AcDbArc
 50
188.5310499999986
 51
270.0000200000018
  0
ARC
  5
D487
330
18
100
AcDbEntity
  8
DRAW2
100
AcDbCircle
 10
1541.031508702013
 20
49.01053880594668
 30
0.0
 40
1.0
100
AcDbArc
 50
270.0000200000018
 51
351.4689300000039
  0
LINE
  5
D48A
330
18
100
AcDbEntity
  8
DRAW2
100
AcDbLine
 10
1506.892658702013
 20
83.01050880594653
 30
0.0
 11
1534.833207012388
 21
83.01050880594653
 31
0.0
  0
LINE
  5
D48B
330
18
100
AcDbEntity
  8
DRAW2
100
AcDbLine
 10
1506.892658702013
 20
83.01050880594653
 30
0.0
 11
1506.892658702013
 21
68.01050880594653
 31
0.0
  0
LINE
  5
D48C
330
18
100
AcDbEntity
  8
DRAW2
100
AcDbLine
 10
1516.392688702013
 20
83.01050880594653
 30
0.0
 11
1516.392688702013
 21
103.0105088059465
 31
0.0
  0
LINE
  5
D48D
330
18
100
AcDbEntity
  8
DRAW2
100
AcDbLine
 10
1518.392718702012
 20
105.0105088059465
 30
0.0
 11
1532.294482460057
 21
105.0105088059465
 31
0.0
  0
LINE
  5
D48E
330
18
100
AcDbEntity
  8
DRAW2
100
AcDbLine
 10
1516.392688702013
 20
103.0104788059466
 30
0.0
 11
1532.07081636273
 21
103.0104788059466
 31
0.0
  0
LINE
  5
D48F
330
18
100
AcDbEntity
  8
DRAW2
100
AcDbLine
 10
1516.392658702013
 20
103.0104488059465
 30
0.0
 11
1518.392658702013
 21
105.0104488059465
 31
0.0
  0
LINE
  5
D490
330
18
100
AcDbEntity
  8
DRAW2
100
AcDbLine
 10
1489.902688702013
 20
151.5105688059464
 30
0.0
 11
1509.470524912951
 21
151.5105688059464
 31
0.0
  0
LINE
  5
D493
330
18
100
AcDbEntity
  8
DRAW2
100
AcDbLine
 10
1521.071553492784
 20
129.6980606632686
 30
0.0
 11
1514.696787722169
 21
137.2952106723456
 31
0.0
  0
LINE
  5
D498
330
18
100
AcDbEntity
  8
DRAW2
100
AcDbLine
 10
1521.071553492784
 20
129.6980606632686
 30
0.0
 11
1523.450932965226
 21
131.8247176178592
 31
0.0
  0
LINE
  5
D499
330
18
100
AcDbEntity
  8
DRAW3
100
AcDbLine
 10
1520.698093891556
 20
130.1431324847208
 30
0.0
 11
1523.050713727363
 21
132.2458720406753
 31
0.0
  0
LINE
  5
D49E
330
18
100
AcDbEntity
  8
DRAW3
100
AcDbLine
 10
1515.070247323397
 20
136.8501388508935
 30
0.0
 11
1517.549569687897
 21
138.8018802130883
 31
0.0
  0
LINE
  5
D49F
330
18
100
AcDbEntity
  8
DRAW2
100
AcDbLine
 10
1514.696787722169
 20
137.2952106723456
 30
0.0
 11
1517.204310888414
 21
139.2691519194771
 31
0.0
  0
LINE
  5
D4A7
330
18
100
AcDbEntity
  8
DRAW2
100
AcDbLine
 10
1409.012066979153
 20
245.7363655456827
 30
0.0
 11
1412.668597521737
 21
245.7363655456827
 31
0.0
  0
LINE
  5
D4A9
330
18
100
AcDbEntity
  8
DRAW2
100
AcDbLine
 10
1411.810025950285
 20
246.7363655456821
 30
0.0
 11
1427.182330884872
 21
246.7363655456831
 31
0.0
  0
LINE
  5
D4AB
330
18
100
AcDbEntity
  8
DRAW2
100
AcDbLine
 10
1395.935025950281
 20
248.9863655456821
 30
0.0
 11
1427.182330884872
 21
248.9863655456826
 31
0.0
  0
ARC
  5
D4AD
330
18
100
AcDbEntity
  8
DRAW2
100
AcDbCircle
 10
1419.810025950282
 20
220.7363655456835
 30
0.0
 40
25.0
100
AcDbArc
 50
90.0
 51
180.0
  0
ARC
  5
D4AE
330
18
100
AcDbEntity
  8
DRAW2
100
AcDbCircle
 10
1419.810025950282
 20
220.7363655456835
 30
0.0
 40
26.0
100
AcDbArc
 50
90.0
 51
180.0
  0
ARC
  5
D4B0
330
18
100
AcDbEntity
  8
DRAW2
100
AcDbCircle
 10
1418.810025950286
 20
222.7363655456822
 30
0.0
 40
25.0
100
AcDbArc
 50
90.0
 51
180.0
  0
ARC
  5
D4B1
330
18
100
AcDbEntity
  8
DRAW2
100
AcDbCircle
 10
1418.810025950286
 20
222.7363655456822
 30
0.0
 40
26.25
100
AcDbArc
 50
90.0
 51
180.0
  0
ARC
  5
D4B3
330
18
100
AcDbEntity
  8
DRAW2
100
AcDbCircle
 10
1395.935025950282
 20
222.7363655456826
 30
0.0
 40
25.0
100
AcDbArc
 50
90.0
 51
180.0
  0
ARC
  5
D4B4
330
18
100
AcDbEntity
  8
DRAW2
100
AcDbCircle
 10
1395.935025950282
 20
222.7363655456826
 30
0.0
 40
26.25
100
AcDbArc
 50
90.0
 51
180.0
  0
TEXT
  5
D4B5
330
18
100
AcDbEntity
  8
DRAW4
100
AcDbText
 10
1395.410025950282
 20
204.1433189902172
 30
0.0
 40
3.2
  1
A
 50
90.0
 51
10.0
  7
DIMFONT
 72
     1
 11
1393.810025950283
 21
205.5147475616458
 31
0.0
100
AcDbText
 73
     2
  0
LINE
  5
D4B7
330
18
100
AcDbEntity
  8
DRAW2
100
AcDbLine
 10
1391.810025950288
 20
215.0696612018348
 30
0.0
 11
1391.810025950271
 21
195.0696612018348
 31
0.0
  0
LINE
  5
D4B8
330
18
100
AcDbEntity
  8
DRAW2
100
AcDbLine
 10
1395.810025950289
 20
215.0696612018348
 30
0.0
 11
1395.81002595028
 21
195.0696612018348
 31
0.0
  0
LINE
  5
D4B9
330
18
100
AcDbEntity
  8
DRAW2
100
AcDbLine
 10
1369.68502595028
 20
177.0109390925989
 30
0.0
 11
1369.685025950281
 21
218.1669276413249
 31
0.0
  0
LINE
  5
D4BA
330
18
100
AcDbEntity
  8
DRAW2
100
AcDbLine
 10
1370.93502595028
 20
177.0109390925989
 30
0.0
 11
1370.935025950281
 21
218.3264755208646
 31
0.0
  0
LINE
  5
D4BB
330
18
100
AcDbEntity
  8
DRAW2
100
AcDbLine
 10
1376.810025950281
 20
177.0109390925991
 30
0.0
 11
1376.810025950281
 21
218.1669276413251
 31
0.0
  0
LINE
  5
D4BC
330
18
100
AcDbEntity
  8
DRAW2
100
AcDbLine
 10
1377.810025950281
 20
177.0109390925991
 30
0.0
 11
1377.810025950281
 21
218.3264755208658
 31
0.0
  0
LINE
  5
D4BD
330
18
100
AcDbEntity
  8
DRAW2
100
AcDbLine
 10
1381.310025950281
 20
173.0109390925993
 30
0.0
 11
1374.560025950281
 21
173.0109390925987
 31
0.0
  0
LINE
  5
D4BE
330
18
100
AcDbEntity
  8
DRAW2
100
AcDbLine
 10
1374.710025950281
 20
168.5109390925993
 30
0.0
 11
1379.910025950281
 21
168.5109390925993
 31
0.0
  0
LINE
  5
D4BF
330
18
100
AcDbEntity
  8
DRAW2
100
AcDbLine
 10
1374.71002595028
 20
172.5109390925993
 30
0.0
 11
1379.910025950281
 21
172.5109390925993
 31
0.0
  0
LINE
  5
D4C0
330
18
100
AcDbEntity
  8
DRAW2
100
AcDbLine
 10
1379.910025950281
 20
168.5109390925993
 30
0.0
 11
1378.510025950281
 21
166.0109390925993
 31
0.0
  0
LINE
  5
D4C1
330
18
100
AcDbEntity
  8
DRAW2
100
AcDbLine
 10
1366.310025950281
 20
177.0109390925988
 30
0.0
 11
1381.310025950281
 21
177.0109390925993
 31
0.0
  0
LINE
  5
D4C2
330
18
100
AcDbEntity
  8
DRAW2
100
AcDbLine
 10
1376.060025950281
 20
172.5109390925996
 30
0.0
 11
1376.060025950281
 21
173.0109390925987
 31
0.0
  0
LINE
  5
D4C3
330
18
100
AcDbEntity
  8
DRAW2
100
AcDbLine
 10
1378.560025950281
 20
172.5109390925996
 30
0.0
 11
1378.560025950281
 21
173.0109390925987
 31
0.0
  0
LINE
  5
D4C4
330
18
100
AcDbEntity
  8
DRAW2
100
AcDbLine
 10
1374.710025950281
 20
168.5109390925993
 30
0.0
 11
1374.71002595028
 21
172.5109390925993
 31
0.0
  0
LINE
  5
D4C5
330
18
100
AcDbEntity
  8
DRAW2
100
AcDbLine
 10
1374.560025950281
 20
170.0109390925996
 30
0.0
 11
1374.560025950281
 21
173.0109390925987
 31
0.0
  0
LINE
  5
D4C6
330
18
100
AcDbEntity
  8
DRAW2
100
AcDbLine
 10
1376.11002595028
 20
166.0109390925993
 30
0.0
 11
1378.510025950281
 21
166.0109390925993
 31
0.0
  0
LINE
  5
D4C7
330
18
100
AcDbEntity
  8
DRAW2
100
AcDbLine
 10
1374.710025950281
 20
168.5109390925993
 30
0.0
 11
1376.11002595028
 21
166.0109390925993
 31
0.0
  0
LINE
  5
D4C8
330
18
100
AcDbEntity
  8
DRAW2
100
AcDbLine
 10
1366.310025950281
 20
173.0109390925993
 30
0.0
 11
1366.310025950281
 21
177.0109390925988
 31
0.0
  0
LINE
  5
D4C9
330
18
100
AcDbEntity
  8
DRAW2
100
AcDbLine
 10
1367.710025950281
 20
168.5109390925993
 30
0.0
 11
1372.910025950281
 21
168.5109390925993
 31
0.0
  0
LINE
  5
D4CA
330
18
100
AcDbEntity
  8
DRAW2
100
AcDbLine
 10
1367.71002595028
 20
172.5109390925993
 30
0.0
 11
1372.910025950281
 21
172.5109390925993
 31
0.0
  0
LINE
  5
D4CB
330
18
100
AcDbEntity
  8
DRAW2
100
AcDbLine
 10
1366.310025950281
 20
173.0109390925993
 30
0.0
 11
1373.06002595028
 21
173.0109390925987
 31
0.0
  0
LINE
  5
D4CC
330
18
100
AcDbEntity
  8
DRAW2
100
AcDbLine
 10
1369.060025950281
 20
172.5109390925996
 30
0.0
 11
1369.060025950281
 21
173.0109390925987
 31
0.0
  0
LINE
  5
D4CD
330
18
100
AcDbEntity
  8
DRAW2
100
AcDbLine
 10
1371.560025950281
 20
172.5109390925996
 30
0.0
 11
1371.560025950281
 21
173.0109390925987
 31
0.0
  0
LINE
  5
D4CE
330
18
100
AcDbEntity
  8
DRAW2
100
AcDbLine
 10
1367.710025950281
 20
168.5109390925993
 30
0.0
 11
1367.71002595028
 21
172.5109390925993
 31
0.0
  0
LINE
  5
D4CF
330
18
100
AcDbEntity
  8
DRAW2
100
AcDbLine
 10
1372.910025950281
 20
168.5109390925993
 30
0.0
 11
1372.910025950281
 21
172.5109390925993
 31
0.0
  0
LINE
  5
D4D0
330
18
100
AcDbEntity
  8
DRAW2
100
AcDbLine
 10
1373.06002595028
 20
170.0109390925996
 30
0.0
 11
1373.06002595028
 21
173.0109390925987
 31
0.0
  0
LINE
  5
D4D1
330
18
100
AcDbEntity
  8
DRAW2
100
AcDbLine
 10
1369.110025950281
 20
166.0109390925993
 30
0.0
 11
1371.510025950281
 21
166.0109390925993
 31
0.0
  0
LINE
  5
D4D2
330
18
100
AcDbEntity
  8
DRAW2
100
AcDbLine
 10
1367.710025950281
 20
168.5109390925993
 30
0.0
 11
1369.110025950281
 21
166.0109390925993
 31
0.0
  0
LINE
  5
D4D3
330
18
100
AcDbEntity
  8
DRAW2
100
AcDbLine
 10
1372.910025950281
 20
168.5109390925993
 30
0.0
 11
1371.510025950281
 21
166.0109390925993
 31
0.0
  0
LINE
  5
D4D4
330
18
100
AcDbEntity
  8
DRAW2
100
AcDbLine
 10
1373.06002595028
 20
170.0109390925996
 30
0.0
 11
1374.560025950281
 21
170.0109390925996
 31
0.0
  0
ARC
  5
D4D6
330
18
100
AcDbEntity
  8
DRAW2
100
AcDbCircle
 10
1371.810025950281
 20
178.0109390925987
 30
0.0
 40
26.0
100
AcDbArc
 50
0.0
 51
19.94844358880153
  0
ARC
  5
D4D7
330
18
100
AcDbEntity
  8
DRAW2
100
AcDbCircle
 10
1371.810025950281
 20
178.0109390925987
 30
0.0
 40
25.0
100
AcDbArc
 50
0.0
 51
19.94844358880153
  0
ARC
  5
D4D9
330
18
100
AcDbEntity
  8
DRAW2
100
AcDbCircle
 10
1415.935025950281
 20
178.010939092598
 30
0.0
 40
26.25
100
AcDbArc
 50
160.4757284897118
 51
180.0
  0
ARC
  5
D4DA
330
18
100
AcDbEntity
  8
DRAW2
100
AcDbCircle
 10
1415.935025950281
 20
178.010939092598
 30
0.0
 40
25.0
100
AcDbArc
 50
160.4757284897118
 51
180.0
  0
LINE
  5
D4DB
330
18
100
AcDbEntity
  8
DRAW2
100
AcDbLine
 10
1394.710025950281
 20
168.5109390925993
 30
0.0
 11
1399.910025950281
 21
168.5109390925993
 31
0.0
  0
LINE
  5
D4DC
330
18
100
AcDbEntity
  8
DRAW2
100
AcDbLine
 10
1394.71002595028
 20
172.5109390925993
 30
0.0
 11
1399.910025950281
 21
172.5109390925993
 31
0.0
  0
LINE
  5
D4DD
330
18
100
AcDbEntity
  8
DRAW2
100
AcDbLine
 10
1386.31002595028
 20
177.0109390925988
 30
0.0
 11
1401.310025950281
 21
177.0109390925993
 31
0.0
  0
LINE
  5
D4DE
330
18
100
AcDbEntity
  8
DRAW2
100
AcDbLine
 10
1401.310025950281
 20
173.0109390925993
 30
0.0
 11
1394.560025950281
 21
173.0109390925987
 31
0.0
  0
LINE
  5
D4DF
330
18
100
AcDbEntity
  8
DRAW2
100
AcDbLine
 10
1394.710025950281
 20
168.5109390925993
 30
0.0
 11
1396.110025950281
 21
166.0109390925993
 31
0.0
  0
LINE
  5
D4E0
330
18
100
AcDbEntity
  8
DRAW2
100
AcDbLine
 10
1393.060025950281
 20
170.0109390925996
 30
0.0
 11
1394.560025950281
 21
170.0109390925996
 31
0.0
  0
LINE
  5
D4E1
330
18
100
AcDbEntity
  8
DRAW2
100
AcDbLine
 10
1387.710025950281
 20
168.5109390925993
 30
0.0
 11
1392.910025950281
 21
168.5109390925993
 31
0.0
  0
LINE
  5
D4E2
330
18
100
AcDbEntity
  8
DRAW2
100
AcDbLine
 10
1396.060025950281
 20
172.5109390925996
 30
0.0
 11
1396.060025950281
 21
173.0109390925987
 31
0.0
  0
LINE
  5
D4E3
330
18
100
AcDbEntity
  8
DRAW2
100
AcDbLine
 10
1391.560025950281
 20
172.5109390925996
 30
0.0
 11
1391.560025950281
 21
173.0109390925987
 31
0.0
  0
LINE
  5
D4E4
330
18
100
AcDbEntity
  8
DRAW2
100
AcDbLine
 10
1389.06002595028
 20
172.5109390925996
 30
0.0
 11
1389.06002595028
 21
173.0109390925987
 31
0.0
  0
LINE
  5
D4E5
330
18
100
AcDbEntity
  8
DRAW2
100
AcDbLine
 10
1387.710025950281
 20
172.5109390925993
 30
0.0
 11
1392.910025950281
 21
172.5109390925993
 31
0.0
  0
LINE
  5
D4E6
330
18
100
AcDbEntity
  8
DRAW2
100
AcDbLine
 10
1394.560025950281
 20
170.0109390925996
 30
0.0
 11
1394.560025950281
 21
173.0109390925987
 31
0.0
  0
LINE
  5
D4E7
330
18
100
AcDbEntity
  8
DRAW2
100
AcDbLine
 10
1393.060025950281
 20
170.0109390925996
 30
0.0
 11
1393.060025950281
 21
173.0109390925987
 31
0.0
  0
LINE
  5
D4E8
330
18
100
AcDbEntity
  8
DRAW2
100
AcDbLine
 10
1392.910025950281
 20
168.5109390925993
 30
0.0
 11
1392.910025950281
 21
172.5109390925993
 31
0.0
  0
LINE
  5
D4E9
330
18
100
AcDbEntity
  8
DRAW2
100
AcDbLine
 10
1394.710025950281
 20
168.5109390925993
 30
0.0
 11
1394.71002595028
 21
172.5109390925993
 31
0.0
  0
LINE
  5
D4EA
330
18
100
AcDbEntity
  8
DRAW2
100
AcDbLine
 10
1387.710025950281
 20
168.5109390925993
 30
0.0
 11
1387.710025950281
 21
172.5109390925993
 31
0.0
  0
LINE
  5
D4EB
330
18
100
AcDbEntity
  8
DRAW2
100
AcDbLine
 10
1379.910025950281
 20
168.5109390925993
 30
0.0
 11
1379.910025950281
 21
172.5109390925993
 31
0.0
  0
LINE
  5
D4EC
330
18
100
AcDbEntity
  8
DRAW2
100
AcDbLine
 10
1386.31002595028
 20
173.0109390925993
 30
0.0
 11
1386.31002595028
 21
177.0109390925988
 31
0.0
  0
LINE
  5
D4ED
330
18
100
AcDbEntity
  8
DRAW2
100
AcDbLine
 10
1381.310025950281
 20
173.0109390925993
 30
0.0
 11
1381.310025950281
 21
177.0109390925988
 31
0.0
  0
LINE
  5
D4EE
330
18
100
AcDbEntity
  8
DRAW2
100
AcDbLine
 10
1386.31002595028
 20
173.0109390925993
 30
0.0
 11
1393.060025950281
 21
173.0109390925987
 31
0.0
  0
LINE
  5
D4EF
330
18
100
AcDbEntity
  8
DRAW2
100
AcDbLine
 10
1389.68502595028
 20
178.0109390925983
 30
0.0
 11
1389.68502595028
 21
177.0109390925988
 31
0.0
  0
LINE
  5
D4F0
330
18
100
AcDbEntity
  8
DRAW2
100
AcDbLine
 10
1390.93502595028
 20
178.0109390925983
 30
0.0
 11
1390.93502595028
 21
177.0109390925988
 31
0.0
  0
LINE
  5
D4F1
330
18
100
AcDbEntity
  8
DRAW2
100
AcDbLine
 10
1389.110025950281
 20
166.0109390925993
 30
0.0
 11
1391.510025950281
 21
166.0109390925993
 31
0.0
  0
LINE
  5
D4F2
330
18
100
AcDbEntity
  8
DRAW2
100
AcDbLine
 10
1392.910025950281
 20
168.5109390925993
 30
0.0
 11
1391.510025950281
 21
166.0109390925993
 31
0.0
  0
LINE
  5
D4F3
330
18
100
AcDbEntity
  8
DRAW2
100
AcDbLine
 10
1387.710025950281
 20
168.5109390925993
 30
0.0
 11
1389.110025950281
 21
166.0109390925993
 31
0.0
  0
LINE
  5
D4F4
330
18
100
AcDbEntity
  8
DRAW2
100
AcDbLine
 10
1401.310025950281
 20
173.0109390925993
 30
0.0
 11
1401.310025950281
 21
177.0109390925988
 31
0.0
  0
LINE
  5
D4F5
330
18
100
AcDbEntity
  8
DRAW2
100
AcDbLine
 10
1398.560025950281
 20
172.5109390925996
 30
0.0
 11
1398.560025950281
 21
173.0109390925987
 31
0.0
  0
LINE
  5
D4F6
330
18
100
AcDbEntity
  8
DRAW2
100
AcDbLine
 10
1399.910025950281
 20
168.5109390925993
 30
0.0
 11
1399.910025950281
 21
172.5109390925993
 31
0.0
  0
LINE
  5
D4F7
330
18
100
AcDbEntity
  8
DRAW2
100
AcDbLine
 10
1396.810025950281
 20
178.0109390925987
 30
0.0
 11
1396.810025950281
 21
177.0109390925988
 31
0.0
  0
LINE
  5
D4F8
330
18
100
AcDbEntity
  8
DRAW2
100
AcDbLine
 10
1397.810025950281
 20
178.0109390925987
 30
0.0
 11
1397.810025950281
 21
177.0109390925988
 31
0.0
  0
LINE
  5
D4F9
330
18
100
AcDbEntity
  8
DRAW2
100
AcDbLine
 10
1396.110025950281
 20
166.0109390925993
 30
0.0
 11
1398.510025950281
 21
166.0109390925993
 31
0.0
  0
LINE
  5
D4FA
330
18
100
AcDbEntity
  8
DRAW2
100
AcDbLine
 10
1399.910025950281
 20
168.5109390925993
 30
0.0
 11
1398.510025950281
 21
166.0109390925993
 31
0.0
  0
ARC
  5
D4FB
330
18
100
AcDbEntity
  8
DRAW2
100
AcDbCircle
 10
1418.810025950281
 20
195.0696612018304
 30
0.0
 40
24.0
100
AcDbArc
 50
180.0
 51
199.9484435888015
  0
LINE
  5
D4FD
330
18
100
AcDbEntity
  8
DRAW2
100
AcDbLine
 10
1393.810025950281
 20
194.7212465403996
 30
0.0
 11
1393.810025950281
 21
195.0696612018348
 31
0.0
  0
LINE
  5
D4FE
330
18
100
AcDbEntity
  8
DRAW2
100
AcDbLine
 10
1392.560025950276
 20
194.7212465403996
 30
0.0
 11
1392.560025950276
 21
195.0696612018348
 31
0.0
  0
LINE
  5
D4FF
330
18
100
AcDbEntity
  8
DRAW2
100
AcDbLine
 10
1391.810025950271
 20
195.0696612018348
 30
0.0
 11
1395.81002595028
 21
195.0696612018348
 31
0.0
  0
ARC
  5
D502
330
18
100
AcDbEntity
  8
DRAW2
100
AcDbCircle
 10
1368.810025950281
 20
194.7212465403996
 30
0.0
 40
23.75
100
AcDbArc
 50
340.4757284897117
 51
0.0
  0
ARC
  5
D503
330
18
100
AcDbEntity
  8
DRAW2
100
AcDbCircle
 10
1418.810025950281
 20
195.0696612018304
 30
0.0
 40
25.0
100
AcDbArc
 50
180.0
 51
199.9484435888015
  0
ARC
  5
D504
330
18
100
AcDbEntity
  8
DRAW2
100
AcDbCircle
 10
1368.810025950281
 20
194.7212465403996
 30
0.0
 40
25.0
100
AcDbArc
 50
340.4757284897117
 51
0.0
  0
ARC
  5
D506
330
18
100
AcDbEntity
  8
DRAW2
100
AcDbCircle
 10
1402.810025950282
 20
220.736365545683
 30
0.0
 40
25.0
100
AcDbArc
 50
90.0
 51
180.0
  0
ARC
  5
D507
330
18
100
AcDbEntity
  8
DRAW2
100
AcDbCircle
 10
1402.810025950282
 20
220.736365545683
 30
0.0
 40
26.0
100
AcDbArc
 50
90.0
 51
180.0
  0
LINE
  5
D508
330
18
100
AcDbEntity
  8
DRAW2
100
AcDbLine
 10
1376.810025950281
 20
220.1669276413251
 30
0.0
 11
1376.810025950281
 21
220.7363655456827
 31
0.0
  0
LINE
  5
D50A
330
18
100
AcDbEntity
  8
DRAW2
100
AcDbLine
 10
1377.810025950281
 20
220.3264755208658
 30
0.0
 11
1377.810025950281
 21
220.7363655456827
 31
0.0
  0
LINE
  5
D50C
330
18
100
AcDbEntity
  8
DRAW2
100
AcDbLine
 10
1369.685025950281
 20
220.1669276413256
 30
0.0
 11
1369.685025950281
 21
222.7363655456826
 31
0.0
  0
LINE
  5
D50D
330
18
100
AcDbEntity
  8
DRAW2
100
AcDbLine
 10
1370.935025950282
 20
220.326475520866
 30
0.0
 11
1370.935025950282
 21
222.7363655456826
 31
0.0
  0
LINE
  5
D50F
330
18
100
AcDbEntity
  8
DRAW2
100
AcDbLine
 10
1392.560025950289
 20
215.0696612018348
 30
0.0
 11
1392.560025950289
 21
218.0073797617836
 31
0.0
  0
LINE
  5
D510
330
18
100
AcDbEntity
  8
DRAW2
100
AcDbLine
 10
1393.810025950289
 20
215.0696612018348
 30
0.0
 11
1393.810025950289
 21
218.0731727826854
 31
0.0
  0
LINE
  5
D512
330
18
100
AcDbEntity
  8
DRAW2
100
AcDbLine
 10
1394.810025950289
 20
215.0696612018348
 30
0.0
 11
1394.810025950289
 21
218.3264755208658
 31
0.0
  0
LINE
  5
D513
330
18
100
AcDbEntity
  8
DRAW2
100
AcDbLine
 10
1391.810025950288
 20
215.0696612018348
 30
0.0
 11
1395.810025950289
 21
215.0696612018348
 31
0.0
  0
LINE
  5
D516
330
18
100
AcDbEntity
  8
DRAW2
100
AcDbLine
 10
1392.560025950289
 20
220.0073797617843
 30
0.0
 11
1392.560025950289
 21
222.7363655456822
 31
0.0
  0
LINE
  5
D517
330
18
100
AcDbEntity
  8
DRAW2
100
AcDbLine
 10
1393.810025950289
 20
220.0731727826854
 30
0.0
 11
1393.810025950289
 21
222.7363655456818
 31
0.0
  0
LINE
  5
D518
330
18
100
AcDbEntity
  8
DRAW2
100
AcDbLine
 10
1394.810025950289
 20
220.3264755208658
 30
0.0
 11
1394.810025950289
 21
220.736365545683
 31
0.0
  0
LINE
  5
D519
330
18
100
AcDbEntity
  8
DRAW2
100
AcDbLine
 10
1395.935025950281
 20
247.7363655456822
 30
0.0
 11
1410.806120653495
 21
247.7363655456826
 31
0.0
  0
LINE
  5
D51A
330
18
100
AcDbEntity
  8
DRAW2
100
AcDbLine
 10
1402.81002595028
 20
246.7363655456817
 30
0.0
 11
1408.176940791217
 21
246.7363655456821
 31
0.0
  0
LINE
  5
D51B
330
18
100
AcDbEntity
  8
DRAW2
100
AcDbLine
 10
1402.810025950281
 20
245.7363655456827
 30
0.0
 11
1406.158445021405
 21
245.7363655456827
 31
0.0
  0
ARC
  5
D51D
330
18
100
AcDbEntity
  8
DRAW2
100
AcDbCircle
 10
1462.591567852548
 20
214.3613655456831
 30
0.0
 40
36.0
100
AcDbArc
 50
59.99999999999985
 51
90.0
  0
LINE
  5
D51E
330
18
100
AcDbEntity
  8
DRAW2
100
AcDbLine
 10
1477.591567852549
 20
240.3421276592168
 30
0.0
 11
1491.355637564379
 21
232.3954383059469
 31
0.0
  0
LINE
  5
D520
330
18
100
AcDbEntity
  8
DRAW2
100
AcDbLine
 10
1427.18233088487
 20
244.3613655456819
 30
0.0
 11
1457.968547110091
 21
244.3613655456826
 31
0.0
  0
LINE
  5
D521
330
18
100
AcDbEntity
  8
DRAW2
100
AcDbLine
 10
1427.182330884872
 20
250.361365545682
 30
0.0
 11
1456.968236381044
 21
250.3613655456826
 31
0.0
  0
LINE
  5
D522
330
18
100
AcDbEntity
  8
DRAW2
100
AcDbLine
 10
1418.810025950286
 20
247.7363655456822
 30
0.0
 11
1427.182330884872
 21
247.7363655456822
 31
0.0
  0
LINE
  5
D523
330
18
100
AcDbEntity
  8
DRAW2
100
AcDbLine
 10
1419.810025950282
 20
245.7363655456835
 30
0.0
 11
1427.18233088487
 21
245.7363655456835
 31
0.0
  0
LINE
  5
D524
330
18
100
AcDbEntity
  8
DRAW2
100
AcDbLine
 10
1427.182330884872
 20
250.3613655456824
 30
0.0
 11
1427.18233088487
 21
244.3613655456824
 31
0.0
  0
LINE
  5
D525
330
18
100
AcDbEntity
  8
DRAW2
100
AcDbLine
 10
1458.968236381044
 20
250.3613655456831
 30
0.0
 11
1462.591567852548
 21
250.3613655456831
 31
0.0
  0
LINE
  5
D526
330
18
100
AcDbEntity
  8
DRAW2
100
AcDbLine
 10
1459.968547110091
 20
244.3613655456831
 30
0.0
 11
1462.591567852548
 21
244.3613655456831
 31
0.0
  0
ARC
  5
D527
330
18
100
AcDbEntity
  8
DRAW2
100
AcDbCircle
 10
1462.591567852548
 20
214.3613655456831
 30
0.0
 40
30.0
100
AcDbArc
 50
59.99999999999985
 51
90.0
  0
LINE
  5
D528
330
18
100
AcDbEntity
  8
DRAW2
100
AcDbLine
 10
1507.610656399258
 20
209.0105988059459
 30
0.0
 11
1502.797834225749
 21
200.6745462736349
 31
0.0
  0
CIRCLE
  5
D529
330
18
100
AcDbEntity
  8
DRAW2
100
AcDbCircle
 10
1514.892680702045
 20
183.0106621966942
 30
0.0
 40
10.50000000004285
  0
CIRCLE
  5
D52A
330
18
100
AcDbEntity
  8
DRAW2
100
AcDbCircle
 10
1514.892680702045
 20
183.0106621966942
 30
0.0
 40
8.499970000000075
  0
LINE
  5
D52D
330
18
100
AcDbEntity
  8
DRAW2
100
AcDbLine
 10
1489.902688702013
 20
172.5105988059465
 30
0.0
 11
1503.505019438029
 21
172.5105988059465
 31
0.0
  0
LINE
  5
D52E
330
18
100
AcDbEntity
  8
DRAW2
100
AcDbLine
 10
1489.902688702013
 20
160.0105688059466
 30
0.0
 11
1492.402688702012
 21
160.0105688059466
 31
0.0
  0
LINE
  5
D52F
330
18
100
AcDbEntity
  8
DRAW2
100
AcDbLine
 10
1489.902688702013
 20
164.0105988059465
 30
0.0
 11
1492.402688702012
 21
164.0105988059465
 31
0.0
  0
LINE
  5
D530
330
18
100
AcDbEntity
  8
DRAW2
100
AcDbLine
 10
1489.902688702013
 20
164.0105988059465
 30
0.0
 11
1489.902688702013
 21
172.5105988059465
 31
0.0
  0
LINE
  5
D531
330
18
100
AcDbEntity
  8
DRAW2
100
AcDbLine
 10
1492.402688702012
 20
160.0105688059466
 30
0.0
 11
1492.402688702012
 21
164.0105988059465
 31
0.0
  0
LINE
  5
D532
330
18
100
AcDbEntity
  8
DRAW2
100
AcDbLine
 10
1503.529885033318
 20
197.942495466066
 30
0.0
 11
1502.797834225749
 21
200.6745462736347
 31
0.0
  0
LINE
  5
D533
330
18
100
AcDbEntity
  8
DRAW2
100
AcDbLine
 10
1504.322111227208
 20
197.4851034597641
 30
0.0
 11
1503.529885033318
 21
197.942495466066
 31
0.0
  0
LINE
  5
D535
330
18
100
AcDbEntity
  8
DRAW2
100
AcDbLine
 10
1508.120574022007
 20
231.953802036222
 30
0.0
 11
1513.316726444713
 21
228.953802036222
 31
0.0
  0
LINE
  5
D536
330
18
100
AcDbEntity
  8
DRAW2
100
AcDbLine
 10
1511.971006139654
 20
227.7869597557315
 30
0.0
 11
1507.782919117421
 21
230.2049529254062
 31
0.0
  0
LINE
  5
D537
330
18
100
AcDbEntity
  8
DRAW2
100
AcDbLine
 10
1515.028121002282
 20
227.9180243617282
 30
0.0
 11
1510.069433502282
 21
219.3293256728715
 31
0.0
  0
LINE
  5
D538
330
18
100
AcDbEntity
  8
DRAW2
100
AcDbLine
 10
1513.316726444713
 20
228.953802036222
 30
0.0
 11
1508.316726444713
 21
220.2935479983776
 31
0.0
  0
LINE
  5
D539
330
18
100
AcDbEntity
  8
DRAW3
100
AcDbLine
 10
1510.359933502282
 20
219.8324864324703
 30
0.0
 11
1512.159968340006
 21
218.8669080768985
 31
0.0
  0
LINE
  5
D53A
330
18
100
AcDbEntity
  8
DRAW2
100
AcDbLine
 10
1511.880567945038
 20
218.3577932445507
 30
0.0
 11
1509.131439303233
 21
219.8324864324704
 31
0.0
  0
LINE
  5
D53D
330
18
100
AcDbEntity
  8
DRAW2
100
AcDbLine
 10
1494.619739179517
 20
230.0490281444329
 30
0.0
 11
1499.382878900331
 21
227.2990281444329
 31
0.0
  0
LINE
  5
D53E
330
18
100
AcDbEntity
  8
DRAW2
100
AcDbLine
 10
1490.413650266271
 20
229.7638684455395
 30
0.0
 11
1492.578713775731
 21
228.5138684455396
 31
0.0
  0
LINE
  5
D53F
330
18
100
AcDbEntity
  8
DRAW2
100
AcDbLine
 10
1494.619739179517
 20
230.0490281444329
 30
0.0
 11
1492.887688275732
 21
229.0490279777826
 31
0.0
  0
LINE
  5
D542
330
18
100
AcDbEntity
  8
DRAW2
100
AcDbLine
 10
1504.823904304116
 20
234.7231605890605
 30
0.0
 11
1499.073904304115
 21
224.7638684455395
 31
0.0
  0
LINE
  5
D543
330
18
100
AcDbEntity
  8
DRAW2
100
AcDbLine
 10
1508.120574022007
 20
231.953802036222
 30
0.0
 11
1503.120574022007
 21
223.2935479983776
 31
0.0
  0
LINE
  5
D544
330
18
100
AcDbEntity
  8
DRAW2
100
AcDbLine
 10
1505.802657028778
 20
233.2920520362221
 30
0.0
 11
1500.802657028778
 21
224.6317979983778
 31
0.0
  0
LINE
  5
D545
330
18
100
AcDbEntity
  8
DRAW2
100
AcDbLine
 10
1506.050273214437
 20
232.3679358505619
 30
0.0
 11
1501.726773214437
 21
224.879414184038
 31
0.0
  0
LINE
  5
D546
330
18
100
AcDbEntity
  8
DRAW2
100
AcDbLine
 10
1498.328713775732
 20
238.4731605890606
 30
0.0
 11
1492.578713775731
 21
228.5138684455396
 31
0.0
  0
LINE
  5
D547
330
18
100
AcDbEntity
  8
DRAW2
100
AcDbLine
 10
1492.578713978627
 20
227.2069862625654
 30
0.0
 11
1497.52784622036
 21
224.3496034305457
 31
0.0
  0
LINE
  5
D548
330
18
100
AcDbEntity
  8
DRAW2
100
AcDbLine
 10
1492.578713775731
 20
228.5138684455396
 30
0.0
 11
1492.578713978626
 21
227.2069862625654
 31
0.0
  0
LINE
  5
D549
330
18
100
AcDbEntity
  8
DRAW3
100
AcDbLine
 10
1509.131439303233
 20
219.8324864324704
 30
0.0
 11
1510.359933502282
 21
219.8324864324703
 31
0.0
  0
LINE
  5
D54A
330
18
100
AcDbEntity
  8
DRAW2
100
AcDbLine
 10
1509.131439303233
 20
219.8324864324704
 30
0.0
 11
1508.32075914495
 21
220.3005328400814
 31
0.0
  0
LINE
  5
D54B
330
18
100
AcDbEntity
  8
DRAW2
100
AcDbLine
 10
1509.662446749773
 20
222.624403939519
 30
0.0
 11
1508.654381349298
 21
222.0423971091936
 31
0.0
  0
LINE
  5
D54C
330
18
100
AcDbEntity
  8
DRAW2
100
AcDbLine
 10
1507.812693744476
 20
220.5845514135404
 30
0.0
 11
1508.654381349298
 21
222.0423971091936
 31
0.0
  0
LINE
  5
D54D
330
18
100
AcDbEntity
  8
DRAW3
100
AcDbLine
 10
1501.726773214437
 20
224.879414184038
 30
0.0
 11
1499.787154304114
 21
225.9992536840381
 31
0.0
  0
LINE
  5
D54E
330
18
100
AcDbEntity
  8
DRAW2
100
AcDbLine
 10
1503.520574022007
 20
223.9863683214053
 30
0.0
 11
1501.788523214438
 21
224.9863683214051
 31
0.0
  0
LINE
  5
D54F
330
18
100
AcDbEntity
  8
DRAW2
100
AcDbLine
 10
1504.466294327067
 20
225.6244039395189
 30
0.0
 11
1504.466294327067
 21
224.4603902788683
 31
0.0
  0
LINE
  5
D550
330
18
100
AcDbEntity
  8
DRAW2
100
AcDbLine
 10
1503.624606722245
 20
223.0025445832151
 30
0.0
 11
1504.466294327067
 21
224.4603902788683
 31
0.0
  0
LINE
  5
D551
330
18
100
AcDbEntity
  8
DRAW2
100
AcDbLine
 10
1499.073904304115
 20
224.7638684455395
 30
0.0
 11
1497.52784622036
 21
224.3496034305454
 31
0.0
  0
LINE
  5
D552
330
18
100
AcDbEntity
  8
DRAW2
100
AcDbLine
 10
1499.382878900331
 20
227.2990281444329
 30
0.0
 11
1499.382878804115
 21
225.2990279777825
 31
0.0
  0
LINE
  5
D553
330
18
100
AcDbEntity
  8
DRAW2
100
AcDbLine
 10
1501.726773214437
 20
224.879414184038
 30
0.0
 11
1500.802657028778
 21
224.6317979983778
 31
0.0
  0
LINE
  5
D554
330
18
100
AcDbEntity
  8
DRAW2
100
AcDbLine
 10
1500.802657028778
 20
224.6317979983778
 30
0.0
 11
1499.448904304115
 21
225.4133874983778
 31
0.0
  0
LINE
  5
D555
330
18
100
AcDbEntity
  8
DRAW2
100
AcDbLine
 10
1503.120574022007
 20
223.2935479983776
 30
0.0
 11
1508.316726444713
 21
220.2935479983776
 31
0.0
  0
LINE
  5
D556
330
18
100
AcDbEntity
  8
DRAW2
100
AcDbLine
 10
1508.654381349298
 20
222.0423971091936
 30
0.0
 11
1504.466294327067
 21
224.4603902788683
 31
0.0
  0
LINE
  5
D557
330
18
100
AcDbEntity
  8
DRAW2
100
AcDbLine
 10
1499.382878900331
 20
227.2990281444329
 30
0.0
 11
1501.114929804115
 21
228.2990283110831
 31
0.0
  0
LINE
  5
D559
330
18
100
AcDbEntity
  8
DRAW2
100
AcDbLine
 10
1496.163650266271
 20
239.7231605890606
 30
0.0
 11
1490.413650266271
 21
229.7638684455395
 31
0.0
  0
LINE
  5
D55A
330
18
100
AcDbEntity
  8
DRAW2
100
AcDbLine
 10
1495.586300064378
 20
239.723160705623
 30
0.0
 11
1490.124975064379
 21
230.263868328977
 31
0.0
  0
LINE
  5
D55B
330
18
100
AcDbEntity
  8
DRAW2
100
AcDbLine
 10
1490.413650266271
 20
229.7638684455395
 30
0.0
 11
1490.124975064379
 21
230.263868328977
 31
0.0
  0
LINE
  5
D55C
330
18
100
AcDbEntity
  8
DRAW2
100
AcDbLine
 10
1494.619739179517
 20
230.0490281444329
 30
0.0
 11
1494.619739275732
 21
232.0490283110832
 31
0.0
  0
LINE
  5
D55D
330
18
100
AcDbEntity
  8
DRAW2
100
AcDbLine
 10
1480.591567852548
 20
245.5382800819231
 30
0.0
 11
1494.355637564378
 21
237.5915907286529
 31
0.0
  0
LINE
  5
D55E
330
18
100
AcDbEntity
  8
DRAW3
100
AcDbLine
 10
1506.050273214437
 20
232.3679358505619
 30
0.0
 11
1504.110654304116
 21
233.4877753505619
 31
0.0
  0
LINE
  5
D55F
330
18
100
AcDbEntity
  8
DRAW2
100
AcDbLine
 10
1499.460507047388
 20
239.126601504836
 30
0.0
 11
1504.409639289121
 21
236.269218672816
 31
0.0
  0
LINE
  5
D560
330
18
100
AcDbEntity
  8
DRAW2
100
AcDbLine
 10
1498.019739179516
 20
235.938000890167
 30
0.0
 11
1502.782878900331
 21
233.188000890167
 31
0.0
  0
LINE
  5
D561
330
18
100
AcDbEntity
  8
DRAW2
100
AcDbLine
 10
1507.720574022007
 20
231.2609817131945
 30
0.0
 11
1505.988523214438
 21
232.2609817131946
 31
0.0
  0
LINE
  5
D562
330
18
100
AcDbEntity
  8
DRAW2
100
AcDbLine
 10
1508.624606722245
 20
231.6627986210594
 30
0.0
 11
1507.782919117421
 21
230.2049529254062
 31
0.0
  0
LINE
  5
D563
330
18
100
AcDbEntity
  8
DRAW2
100
AcDbLine
 10
1506.774853716947
 20
229.6229460950808
 30
0.0
 11
1507.782919117421
 21
230.2049529254062
 31
0.0
  0
LINE
  5
D564
330
18
100
AcDbEntity
  8
DRAW2
100
AcDbLine
 10
1504.823904304116
 20
234.7231605890605
 30
0.0
 11
1504.409639289121
 21
236.2692186728162
 31
0.0
  0
LINE
  5
D565
330
18
100
AcDbEntity
  8
DRAW2
100
AcDbLine
 10
1502.782878900331
 20
233.188000890167
 30
0.0
 11
1504.514929804115
 21
234.1880010568173
 31
0.0
  0
LINE
  5
D566
330
18
100
AcDbEntity
  8
DRAW2
100
AcDbLine
 10
1502.782878900331
 20
233.188000890167
 30
0.0
 11
1502.782878804115
 21
231.1880007235167
 31
0.0
  0
LINE
  5
D567
330
18
100
AcDbEntity
  8
DRAW2
100
AcDbLine
 10
1506.050273214437
 20
232.3679358505619
 30
0.0
 11
1505.802657028778
 21
233.2920520362221
 31
0.0
  0
LINE
  5
D568
330
18
100
AcDbEntity
  8
DRAW2
100
AcDbLine
 10
1505.802657028778
 20
233.2920520362221
 30
0.0
 11
1504.448904304116
 21
234.0736415362222
 31
0.0
  0
LINE
  5
D569
330
18
100
AcDbEntity
  8
DRAW2
100
AcDbLine
 10
1496.163650266271
 20
239.7231605890606
 30
0.0
 11
1498.328713775732
 21
238.4731605890606
 31
0.0
  0
LINE
  5
D56A
330
18
100
AcDbEntity
  8
DRAW2
100
AcDbLine
 10
1498.019739179516
 20
235.938000890167
 30
0.0
 11
1498.019739275732
 21
237.9380010568175
 31
0.0
  0
LINE
  5
D56B
330
18
100
AcDbEntity
  8
DRAW2
100
AcDbLine
 10
1498.019739179516
 20
235.938000890167
 30
0.0
 11
1496.287688275732
 21
234.9380007235168
 31
0.0
  0
LINE
  5
D56C
330
18
100
AcDbEntity
  8
DRAW2
100
AcDbLine
 10
1498.328713775732
 20
238.4731605890606
 30
0.0
 11
1499.460507047388
 21
239.1266015048361
 31
0.0
  0
LINE
  5
D56D
330
18
100
AcDbEntity
  8
DRAW2
100
AcDbLine
 10
1496.163650266271
 20
239.7231605890606
 30
0.0
 11
1495.586300064378
 21
239.723160705623
 31
0.0
  0
LINE
  5
D56E
330
18
100
AcDbEntity
  8
DRAW3
100
AcDbLine
 10
1514.123373902758
 20
228.4787707869073
 30
0.0
 11
1514.737621002282
 21
227.4148636021293
 31
0.0
  0
LINE
  5
D56F
330
18
100
AcDbEntity
  8
DRAW3
100
AcDbLine
 10
1514.737621002282
 20
227.4148636021293
 30
0.0
 11
1516.771133714996
 21
226.1545279958472
 31
0.0
  0
LINE
  5
D570
330
18
100
AcDbEntity
  8
DRAW2
100
AcDbLine
 10
1514.123373902758
 20
228.4787707869073
 30
0.0
 11
1513.312693744476
 21
228.9468171945184
 31
0.0
  0
LINE
  5
D571
330
18
100
AcDbEntity
  8
DRAW2
100
AcDbLine
 10
1517.1124330565
 20
226.6262042122356
 30
0.0
 11
1514.123373902758
 21
228.4787707869073
 31
0.0
  0
LINE
  5
D572
330
18
100
AcDbEntity
  8
DRAW2
100
AcDbLine
 10
1511.971006139653
 20
226.6229460950808
 30
0.0
 11
1511.971006139653
 21
227.7869597557315
 31
0.0
  0
LINE
  5
D573
330
18
100
AcDbEntity
  8
DRAW2
100
AcDbLine
 10
1512.812693744476
 20
229.2448054513848
 30
0.0
 11
1511.971006139654
 21
227.7869597557315
 31
0.0
  0
LINE
  5
D574
330
18
100
AcDbEntity
  8
DRAW2
100
AcDbLine
 10
1528.072111227207
 20
238.621310139525
 30
0.0
 11
1527.279885033317
 21
239.0787021458267
 31
0.0
  0
LINE
  5
D576
330
18
100
AcDbEntity
  8
DRAW2
100
AcDbLine
 10
1524.547834225749
 20
238.3466513382578
 30
0.0
 11
1527.279885033317
 21
239.0787021458267
 31
0.0
  0
LINE
  5
D577
330
18
100
AcDbEntity
  8
DRAW2
100
AcDbLine
 10
1524.547834225749
 20
238.3466513382578
 30
0.0
 11
1519.735012052239
 21
230.0105988059471
 31
0.0
  0
ARC
  5
D579
330
18
100
AcDbEntity
  8
DRAW2
100
AcDbCircle
 10
1576.892688702013
 20
183.0105988059465
 30
0.0
 40
74.0
100
AcDbArc
 50
302.311135170167
 51
57.68882042526277
  0
LINE
  5
D57A
330
18
100
AcDbEntity
  8
DRAW2
100
AcDbLine
 10
1642.020448702012
 20
48.86220880594668
 30
0.0
 11
1644.892698702013
 21
68.01056880594661
 31
0.0
  0
LINE
  5
D57C
330
18
100
AcDbEntity
  8
DRAW2
100
AcDbLine
 10
1611.764958702013
 20
48.86219880594649
 30
0.0
 11
1608.975842298851
 21
67.45624989717843
 31
0.0
  0
LINE
  5
D57F
330
18
100
AcDbEntity
  8
DRAW2
100
AcDbLine
 10
1562.892658702013
 20
51.01038880594661
 30
0.0
 11
1546.892658702013
 21
51.01038880594661
 31
0.0
  0
LINE
  5
D580
330
18
100
AcDbEntity
  8
DRAW2
100
AcDbLine
 10
1560.892688702013
 20
49.01041880594653
 30
0.0
 11
1548.892658702013
 21
49.01041880594653
 31
0.0
  0
LINE
  5
D581
330
18
100
AcDbEntity
  8
DRAW2
100
AcDbLine
 10
1548.892718702012
 20
49.01056880594659
 30
0.0
 11
1546.892718702013
 21
51.01053880594668
 31
0.0
  0
LINE
  5
D582
330
18
100
AcDbEntity
  8
DRAW2
100
AcDbLine
 10
1546.892498702013
 20
65.46965908558559
 30
0.0
 11
1546.892498702013
 21
51.01052880594647
 31
0.0
  0
LINE
  5
D583
330
18
100
AcDbEntity
  8
DRAW2
100
AcDbLine
 10
1560.892548702012
 20
49.01058880594654
 30
0.0
 11
1562.892548702012
 21
51.01059880594653
 31
0.0
  0
LINE
  5
D584
330
18
100
AcDbEntity
  8
DRAW2
100
AcDbLine
 10
1562.892528702013
 20
56.24375162265828
 30
0.0
 11
1562.892528702013
 21
51.01052880594647
 31
0.0
  0
LINE
  5
D585
330
18
100
AcDbEntity
  8
DRAW2
100
AcDbLine
 10
1606.892658702013
 20
51.01047880594659
 30
0.0
 11
1590.892658702013
 21
51.01047880594659
 31
0.0
  0
LINE
  5
D586
330
18
100
AcDbEntity
  8
DRAW2
100
AcDbLine
 10
1604.892658702013
 20
49.01045880594665
 30
0.0
 11
1592.892688702012
 21
49.01045880594665
 31
0.0
  0
LINE
  5
D587
330
18
100
AcDbEntity
  8
DRAW2
100
AcDbLine
 10
1592.892608702013
 20
49.01058880594654
 30
0.0
 11
1590.892628702013
 21
51.01055880594664
 31
0.0
  0
LINE
  5
D588
330
18
100
AcDbEntity
  8
DRAW2
100
AcDbLine
 10
1590.892578702013
 20
56.24366323618493
 30
0.0
 11
1590.892578702013
 21
51.01052880594647
 31
0.0
  0
LINE
  5
D589
330
18
100
AcDbEntity
  8
DRAW2
100
AcDbLine
 10
1604.892578702013
 20
49.01055880594664
 30
0.0
 11
1606.892578702013
 21
51.01055880594664
 31
0.0
  0
LINE
  5
D58A
330
18
100
AcDbEntity
  8
DRAW2
100
AcDbLine
 10
1606.892628702013
 20
65.46943547791567
 30
0.0
 11
1606.892628702013
 21
51.01052880594647
 31
0.0
  0
LINE
  5
D58B
330
18
100
AcDbEntity
  8
DRAW2
100
AcDbLine
 10
1641.031508702013
 20
48.01050880594653
 30
0.0
 11
1612.753878702013
 21
48.01050880594653
 31
0.0
  0
ARC
  5
D58C
330
18
100
AcDbEntity
  8
DRAW2
100
AcDbCircle
 10
1612.753878702013
 20
49.01053880594668
 30
0.0
 40
1.0
100
AcDbArc
 50
188.5310499999986
 51
270.0000200000018
  0
ARC
  5
D58D
330
18
100
AcDbEntity
  8
DRAW2
100
AcDbCircle
 10
1641.031508702013
 20
49.01053880594668
 30
0.0
 40
1.0
100
AcDbArc
 50
270.0000200000018
 51
351.4689300000039
  0
LINE
  5
D58E
330
18
100
AcDbEntity
  8
DRAW2
100
AcDbLine
 10
1609.511701562611
 20
68.01050880594655
 30
0.0
 11
1646.892668702013
 21
68.01050880594653
 31
0.0
  0
ARC
  5
D58F
330
18
100
AcDbEntity
  8
DRAW2
100
AcDbCircle
 10
1607.892637803998
 20
129.3169851477622
 30
0.0
 40
10.50000000004285
100
AcDbArc
 50
316.5721962234226
 51
132.1316470502009
  0
ARC
  5
D590
330
18
100
AcDbEntity
  8
DRAW2
100
AcDbCircle
 10
1607.892637803998
 20
129.3169851477622
 30
0.0
 40
8.499970000000075
100
AcDbArc
 50
320.0576035004617
 51
128.6462397731632
  0
LINE
  5
D593
330
18
100
AcDbEntity
  8
HIDDEN
100
AcDbLine
 10
1576.892688702013
 20
140.0105988059465
 30
0.0
 11
1612.099839174517
 21
140.0105988059464
 31
0.0
  0
LINE
  5
D594
330
18
100
AcDbEntity
  8
HIDDEN
100
AcDbLine
 10
1576.892688702013
 20
148.0105988059465
 30
0.0
 11
1612.099808702013
 21
148.0105988059465
 31
0.0
  0
CIRCLE
  5
D596
330
18
100
AcDbEntity
  8
DRAW2
100
AcDbCircle
 10
1576.892688702013
 20
99.01050880594652
 30
0.0
 40
8.0
  0
CIRCLE
  5
D597
330
18
100
AcDbEntity
  8
DRAW2
100
AcDbCircle
 10
1576.892688702013
 20
99.01050880594652
 30
0.0
 40
7.0
  0
CIRCLE
  5
D598
330
18
100
AcDbEntity
  8
DRAW2
100
AcDbCircle
 10
1553.91171831345
 20
76.0295384173843
 30
0.0
 40
7.5
  0
LINE
  5
D59B
330
18
100
AcDbEntity
  8
DRAW2
100
AcDbLine
 10
1551.170176332372
 20
83.01050880594653
 30
0.0
 11
1556.653260294529
 21
83.01050880594653
 31
0.0
  0
CIRCLE
  5
D59D
330
18
100
AcDbEntity
  8
DRAW2
100
AcDbCircle
 10
1599.873659090575
 20
76.02953841738417
 30
0.0
 40
7.5
  0
LINE
  5
D59F
330
18
100
AcDbEntity
  8
DRAW2
100
AcDbLine
 10
1597.132117109497
 20
83.01050880594653
 30
0.0
 11
1602.615201071654
 21
83.01050880594653
 31
0.0
  0
CIRCLE
  5
D5A0
330
18
100
AcDbEntity
  8
HIDDEN
100
AcDbCircle
 10
1576.892688702013
 20
144.0105988059465
 30
0.0
 40
4.0
  0
CIRCLE
  5
D5A2
330
18
100
AcDbEntity
  8
DRAW2
100
AcDbCircle
 10
1553.91171831345
 20
121.9914791945088
 30
0.0
 40
7.5
  0
ARC
  5
D5A4
330
18
100
AcDbEntity
  8
DRAW2
100
AcDbCircle
 10
1545.892629804032
 20
129.31704853851
 30
0.0
 40
10.50000000004285
100
AcDbArc
 50
276.5222340664023
 51
358.6533389255307
  0
ARC
  5
D5A5
330
18
100
AcDbEntity
  8
DRAW2
100
AcDbCircle
 10
1545.892629804032
 20
129.31704853851
 30
0.0
 40
8.499970000000075
100
AcDbArc
 50
274.1031059839071
 51
1.072467008024033
  0
LINE
  5
D5A6
330
18
100
AcDbEntity
  8
DRAW2
100
AcDbLine
 10
1551.170099942608
 20
115.0105388059464
 30
0.0
 11
1556.653336684293
 21
115.0105388059464
 31
0.0
  0
LINE
  5
D5A7
330
18
100
AcDbEntity
  8
DRAW2
100
AcDbLine
 10
1549.386496291051
 20
116.0104788059466
 30
0.0
 11
1558.436940335852
 21
116.0104788059466
 31
0.0
  0
CIRCLE
  5
D5A8
330
18
100
AcDbEntity
  8
DRAW2
100
AcDbCircle
 10
1599.873659090575
 20
121.9914791945088
 30
0.0
 40
7.5
  0
LINE
  5
D5AB
330
18
100
AcDbEntity
  8
DRAW2
100
AcDbLine
 10
1597.132040719734
 20
115.0105388059464
 30
0.0
 11
1602.615277461417
 21
115.0105388059464
 31
0.0
  0
LINE
  5
D5AC
330
18
100
AcDbEntity
  8
DRAW2
100
AcDbLine
 10
1595.348437068175
 20
116.0104788059466
 30
0.0
 11
1604.398881112976
 21
116.0104788059466
 31
0.0
  0
ARC
  5
D5AD
330
18
100
AcDbEntity
  8
DRAW2
100
AcDbCircle
 10
1607.892637803998
 20
129.3169851477622
 30
0.0
 40
10.50000000004285
100
AcDbArc
 50
181.3465259782337
 51
263.4781885395149
  0
ARC
  5
D5AE
330
18
100
AcDbEntity
  8
DRAW2
100
AcDbCircle
 10
1607.892637803998
 20
129.3169851477622
 30
0.0
 40
8.499970000000075
100
AcDbArc
 50
178.9271525798126
 51
265.8975619379376
  0
LINE
  5
D5AF
330
18
100
AcDbEntity
  8
DRAW2
100
AcDbLine
 10
1618.952170391639
 20
83.01050880594656
 30
0.0
 11
1646.892668702013
 21
83.01050880594653
 31
0.0
  0
LINE
  5
D5B0
330
18
100
AcDbEntity
  8
DRAW2
100
AcDbLine
 10
1637.392698702013
 20
83.01050880594653
 30
0.0
 11
1637.392698702013
 21
103.0105088059465
 31
0.0
  0
LINE
  5
D5B1
330
18
100
AcDbEntity
  8
DRAW2
100
AcDbLine
 10
1641.892668702013
 20
83.01050880594653
 30
0.0
 11
1641.892668702013
 21
68.01053880594645
 31
0.0
  0
LINE
  5
D5B2
330
18
100
AcDbEntity
  8
DRAW2
100
AcDbLine
 10
1621.714561041297
 20
103.0104788059466
 30
0.0
 11
1637.392698702013
 21
103.0104788059466
 31
0.0
  0
LINE
  5
D5B3
330
18
100
AcDbEntity
  8
DRAW2
100
AcDbLine
 10
1621.490894943968
 20
105.0105088059465
 30
0.0
 11
1635.392698702013
 21
105.0105088059465
 31
0.0
  0
LINE
  5
D5B4
330
18
100
AcDbEntity
  8
DRAW2
100
AcDbLine
 10
1635.392608702013
 20
105.0105388059464
 30
0.0
 11
1637.392608702013
 21
103.0105388059464
 31
0.0
  0
LINE
  5
D5B5
330
18
100
AcDbEntity
  8
DRAW2
100
AcDbLine
 10
1646.892668702013
 20
83.01050880594653
 30
0.0
 11
1646.892668702013
 21
68.01053880594645
 31
0.0
  0
LINE
  5
D5B6
330
18
100
AcDbEntity
  8
HIDDEN
100
AcDbLine
 10
1645.390865434727
 20
155.010651585162
 30
0.0
 11
1627.892688702013
 21
155.010651585162
 31
0.0
  0
LINE
  5
D5B7
330
18
100
AcDbEntity
  8
HIDDEN
100
AcDbLine
 10
1627.892688702013
 20
133.010651585162
 30
0.0
 11
1627.892688702013
 21
155.010651585162
 31
0.0
  0
LINE
  5
D5B8
330
18
100
AcDbEntity
  8
HIDDEN
100
AcDbLine
 10
1631.445443864412
 20
133.010651585162
 30
0.0
 11
1627.892688702013
 21
133.010651585162
 31
0.0
  0
LINE
  5
D5B9
330
18
100
AcDbEntity
  8
HIDDEN
100
AcDbLine
 10
1627.892688702013
 20
139.4106515851617
 30
0.0
 11
1624.392688702013
 21
139.4106515851617
 31
0.0
  0
LINE
  5
D5BA
330
18
100
AcDbEntity
  8
HIDDEN
100
AcDbLine
 10
1627.892688702013
 20
148.610651585162
 30
0.0
 11
1624.392688702013
 21
148.610651585162
 31
0.0
  0
LINE
  5
D5BB
330
18
100
AcDbEntity
  8
HIDDEN
100
AcDbLine
 10
1617.892718702012
 20
149.3839415851621
 30
0.0
 11
1627.892688702013
 21
149.7331559440779
 31
0.0
  0
LINE
  5
D5BC
330
18
100
AcDbEntity
  8
HIDDEN
100
AcDbLine
 10
1617.892688702013
 20
150.239931585162
 30
0.0
 11
1627.892688702013
 21
150.5891415851621
 31
0.0
  0
LINE
  5
D5BD
330
18
100
AcDbEntity
  8
HIDDEN
100
AcDbLine
 10
1627.892688702013
 20
138.2881773282133
 30
0.0
 11
1617.892688702013
 21
138.6373915851619
 31
0.0
  0
LINE
  5
D5BE
330
18
100
AcDbEntity
  8
HIDDEN
100
AcDbLine
 10
1627.892688702013
 20
137.4321615851622
 30
0.0
 11
1617.892688702013
 21
137.7813415851621
 31
0.0
  0
LINE
  5
D5BF
330
18
100
AcDbEntity
  8
HIDDEN
100
AcDbLine
 10
1618.934597428598
 20
150.276316079803
 30
0.0
 11
1617.892688702013
 21
149.2013390851617
 31
0.0
  0
LINE
  5
D5C0
330
18
100
AcDbEntity
  8
HIDDEN
100
AcDbLine
 10
1612.099808702013
 20
148.010651585162
 30
0.0
 11
1612.892688702013
 21
149.3839415851621
 31
0.0
  0
LINE
  5
D5C1
330
18
100
AcDbEntity
  8
HIDDEN
100
AcDbLine
 10
1612.892688702013
 20
149.3839415851621
 30
0.0
 11
1617.892688702013
 21
149.3839415851621
 31
0.0
  0
LINE
  5
D5C2
330
18
100
AcDbEntity
  8
HIDDEN
100
AcDbLine
 10
1616.410048702013
 20
149.3839415851621
 30
0.0
 11
1617.892688702013
 21
150.239931585162
 31
0.0
  0
LINE
  5
D5C3
330
18
100
AcDbEntity
  8
HIDDEN
100
AcDbLine
 10
1618.934624388599
 20
137.7449592748579
 30
0.0
 11
1617.892688702013
 21
138.8199640851619
 31
0.0
  0
LINE
  5
D5C4
330
18
100
AcDbEntity
  8
HIDDEN
100
AcDbLine
 10
1612.892688702013
 20
138.6373615851619
 30
0.0
 11
1617.892688702013
 21
138.637361585162
 31
0.0
  0
LINE
  5
D5C5
330
18
100
AcDbEntity
  8
HIDDEN
100
AcDbLine
 10
1617.892688702013
 20
137.7813415851621
 30
0.0
 11
1616.410048702014
 21
138.637361585162
 31
0.0
  0
LINE
  5
D5C6
330
18
100
AcDbEntity
  8
HIDDEN
100
AcDbLine
 10
1612.892688702013
 20
138.6373615851619
 30
0.0
 11
1612.099808702013
 21
140.0106515851619
 31
0.0
  0
ARC
  5
D5C7
330
18
100
AcDbEntity
  8
HIDDEN
100
AcDbCircle
 10
1612.415463126962
 20
144.010651585162
 30
0.0
 40
6.5
100
AcDbArc
 50
327.4210296071939
 51
32.57897039280595
  0
ARC
  5
D5C8
330
18
100
AcDbEntity
  8
HIDDEN
100
AcDbCircle
 10
1639.194377794816
 20
144.0106515851615
 30
0.0
 40
15.5
100
AcDbArc
 50
162.7360436771849
 51
197.2639563228149
  0
LINE
  5
D5C9
330
18
100
AcDbEntity
  8
HIDDEN
100
AcDbLine
 10
1612.099808702013
 20
140.0106515851619
 30
0.0
 11
1612.099808702013
 21
148.010651585162
 31
0.0
  0
LINE
  5
D5CA
330
18
100
AcDbEntity
  8
HIDDEN
100
AcDbLine
 10
1617.892688702013
 20
137.781371585162
 30
0.0
 11
1617.892688702013
 21
150.2399615851619
 31
0.0
  0
LINE
  5
D5CB
330
18
100
AcDbEntity
  8
HIDDEN
100
AcDbLine
 10
1612.892688702013
 20
138.6373615851619
 30
0.0
 11
1612.892688702013
 21
149.3839415851621
 31
0.0
  0
ARC
  5
D5CC
330
18
100
AcDbEntity
  8
DRAW2
100
AcDbCircle
 10
1607.892747599995
 20
236.7041490733829
 30
0.0
 40
10.50000000004285
100
AcDbArc
 50
227.8682932608678
 51
43.42817333918628
  0
ARC
  5
D5CD
330
18
100
AcDbEntity
  8
DRAW2
100
AcDbCircle
 10
1607.892747599995
 20
236.7041490733829
 30
0.0
 40
8.499970000000075
100
AcDbArc
 50
231.3536462502582
 51
39.94282034979864
  0
CIRCLE
  5
D5D3
330
18
100
AcDbEntity
  8
DRAW2
100
AcDbCircle
 10
1553.91171831345
 20
244.0295984173843
 30
0.0
 40
7.5
  0
ARC
  5
D5D4
330
18
100
AcDbEntity
  8
DRAW2
100
AcDbCircle
 10
1545.892739600026
 20
236.7042124641308
 30
0.0
 40
10.50000000004285
100
AcDbArc
 50
1.345876333064355
 51
83.47790343479431
  0
ARC
  5
D5D5
330
18
100
AcDbEntity
  8
DRAW2
100
AcDbCircle
 10
1545.892739600026
 20
236.7042124641308
 30
0.0
 40
8.499970000000075
100
AcDbArc
 50
358.9263425812889
 51
85.8974371865708
  0
LINE
  5
D5D6
330
18
100
AcDbEntity
  8
DRAW2
100
AcDbLine
 10
1551.170099942608
 20
251.0105388059467
 30
0.0
 11
1556.653336684293
 21
251.0105388059467
 31
0.0
  0
LINE
  5
D5D7
330
18
100
AcDbEntity
  8
DRAW2
100
AcDbLine
 10
1549.386456640228
 20
250.0105688059465
 30
0.0
 11
1558.436979986673
 21
250.0105688059465
 31
0.0
  0
CIRCLE
  5
D5D9
330
18
100
AcDbEntity
  8
DRAW2
100
AcDbCircle
 10
1599.873659090575
 20
244.0295984173841
 30
0.0
 40
7.5
  0
LINE
  5
D5DB
330
18
100
AcDbEntity
  8
DRAW2
100
AcDbLine
 10
1597.132040719734
 20
251.0105388059467
 30
0.0
 11
1602.615277461417
 21
251.0105388059467
 31
0.0
  0
LINE
  5
D5DC
330
18
100
AcDbEntity
  8
DRAW2
100
AcDbLine
 10
1595.348397417352
 20
250.0105688059465
 30
0.0
 11
1604.398920763799
 21
250.0105688059465
 31
0.0
  0
ARC
  5
D5DD
330
18
100
AcDbEntity
  8
DRAW2
100
AcDbCircle
 10
1607.892747599995
 20
236.7041490733829
 30
0.0
 40
10.50000000004285
100
AcDbArc
 50
96.52251916284049
 51
178.6539885704691
  0
ARC
  5
D5DE
330
18
100
AcDbEntity
  8
DRAW2
100
AcDbCircle
 10
1607.892747599995
 20
236.7041490733829
 30
0.0
 40
8.499970000000075
100
AcDbArc
 50
94.10323072743073
 51
181.073277005881
  0
CIRCLE
  5
D5DF
330
18
100
AcDbEntity
  8
DRAW2
100
AcDbCircle
 10
1638.89269670198
 20
183.0105354151986
 30
0.0
 40
10.50000000004285
  0
CIRCLE
  5
D5E0
330
18
100
AcDbEntity
  8
DRAW2
100
AcDbCircle
 10
1638.89269670198
 20
183.0105354151986
 30
0.0
 40
8.499970000000075
  0
CIRCLE
  5
D5E5
330
18
100
AcDbEntity
  8
DRAW2
100
AcDbCircle
 10
1576.892688702013
 20
267.0105688059466
 30
0.0
 40
7.0
  0
CIRCLE
  5
D5E6
330
18
100
AcDbEntity
  8
DRAW2
100
AcDbCircle
 10
1576.892688702013
 20
267.0105688059466
 30
0.0
 40
8.0
  0
CIRCLE
  5
D5E8
330
18
100
AcDbEntity
  8
DRAW2
100
AcDbCircle
 10
1553.91171831345
 20
289.9915391945088
 30
0.0
 40
7.5
  0
LINE
  5
D5EA
330
18
100
AcDbEntity
  8
DRAW2
100
AcDbLine
 10
1547.046191370436
 20
293.0105688059465
 30
0.0
 11
1560.777245256466
 21
293.0105688059466
 31
0.0
  0
LINE
  5
D5EB
330
18
100
AcDbEntity
  8
DRAW2
100
AcDbLine
 10
1546.892718702013
 20
292.6341977904379
 30
0.0
 11
1546.892718702013
 21
287.3488805985799
 31
0.0
  0
LINE
  5
D5EC
330
18
100
AcDbEntity
  8
DRAW2
100
AcDbLine
 10
1551.170099942608
 20
283.0105988059465
 30
0.0
 11
1556.653336684293
 21
283.0105988059465
 31
0.0
  0
LINE
  5
D5ED
330
18
100
AcDbEntity
  8
DRAW2
100
AcDbLine
 10
1593.008132147561
 20
293.0105688059466
 30
0.0
 11
1606.73918603359
 21
293.0105688059466
 31
0.0
  0
CIRCLE
  5
D5F0
330
18
100
AcDbEntity
  8
DRAW2
100
AcDbCircle
 10
1599.873659090575
 20
289.9915391945088
 30
0.0
 40
7.5
  0
LINE
  5
D5F1
330
18
100
AcDbEntity
  8
DRAW2
100
AcDbLine
 10
1597.132040719734
 20
283.0105988059465
 30
0.0
 11
1602.615277461417
 21
283.0105988059465
 31
0.0
  0
LINE
  5
D5F2
330
18
100
AcDbEntity
  8
DRAW2
100
AcDbLine
 10
1606.892658702013
 20
292.6341977904379
 30
0.0
 11
1606.892658702013
 21
287.3488805985798
 31
0.0
  0
LINE
  5
D5F3
330
18
100
AcDbEntity
  8
DRAW2
100
AcDbLine
 10
1546.892658702013
 20
310.0105688059465
 30
0.0
 11
1562.892658702013
 21
310.0105688059465
 31
0.0
  0
LINE
  5
D5F4
330
18
100
AcDbEntity
  8
DRAW2
100
AcDbLine
 10
1548.892658702013
 20
312.0105388059466
 30
0.0
 11
1560.892688702013
 21
312.0105388059466
 31
0.0
  0
LINE
  5
D5F5
330
18
100
AcDbEntity
  8
DRAW2
100
AcDbLine
 10
1548.892628702013
 20
312.0105088059465
 30
0.0
 11
1546.892628702012
 21
310.0105088059465
 31
0.0
  0
LINE
  5
D5F6
330
18
100
AcDbEntity
  8
DRAW2
100
AcDbLine
 10
1546.892718702013
 20
300.5516153012341
 30
0.0
 11
1546.892718702013
 21
310.0105688059465
 31
0.0
  0
LINE
  5
D5F7
330
18
100
AcDbEntity
  8
DRAW2
100
AcDbLine
 10
1560.892488702013
 20
312.0104188059465
 30
0.0
 11
1562.892488702012
 21
310.0104188059465
 31
0.0
  0
LINE
  5
D5F8
330
18
100
AcDbEntity
  8
DRAW2
100
AcDbLine
 10
1562.892688702013
 20
309.7773783666319
 30
0.0
 11
1562.892688702013
 21
310.0105688059465
 31
0.0
  0
LINE
  5
D5F9
330
18
100
AcDbEntity
  8
DRAW2
100
AcDbLine
 10
1590.892658702013
 20
310.0105688059465
 30
0.0
 11
1606.892658702013
 21
310.0105688059465
 31
0.0
  0
LINE
  5
D5FA
330
18
100
AcDbEntity
  8
DRAW2
100
AcDbLine
 10
1592.892688702012
 20
312.0105388059466
 30
0.0
 11
1604.892658702013
 21
312.0105388059466
 31
0.0
  0
LINE
  5
D5FB
330
18
100
AcDbEntity
  8
DRAW2
100
AcDbLine
 10
1592.892518702012
 20
312.0105388059466
 30
0.0
 11
1590.892548702012
 21
310.0105388059466
 31
0.0
  0
LINE
  5
D5FC
330
18
100
AcDbEntity
  8
DRAW2
100
AcDbLine
 10
1590.892668702013
 20
309.7773849137601
 30
0.0
 11
1590.892668702013
 21
310.0105688059465
 31
0.0
  0
LINE
  5
D5FD
330
18
100
AcDbEntity
  8
DRAW2
100
AcDbLine
 10
1604.892428702012
 20
312.0104788059466
 30
0.0
 11
1606.892458702012
 21
310.0104488059467
 31
0.0
  0
LINE
  5
D5FE
330
18
100
AcDbEntity
  8
DRAW2
100
AcDbLine
 10
1606.892658702013
 20
300.5516153012341
 30
0.0
 11
1606.892658702013
 21
310.0105688059465
 31
0.0
  0
VIEWPORT
  5
37
330
15
100
AcDbEntity
 67
     1
  8
0
100
AcDbViewport
 10
296.9950122070311
 20
209.9950000476836
 30
0.0
 40
632.1056339387388
 41
423.1939163498098
 68
     1
 69
     1
 12
296.9950122070311
 22
209.9950000476836
 13
0.0
 23
0.0
 14
10.0
 24
10.0
 15
10.0
 25
10.0
 16
0.0
 26
0.0
 36
1.0
 17
0.0
 27
0.0
 37
0.0
 42
50.0
 43
0.0
 44
0.0
 45
423.1939163498098
 50
0.0
 51
0.0
 72
   100
 90
    32768
  1

281
     0
 71
     1
 74
     0
110
0.0
120
0.0
130
0.0
111
1.0
121
0.0
131
0.0
112
0.0
122
1.0
132
0.0
 79
     0
146
0.0
  0
ENDSEC
  0
SECTION
  2
OBJECTS
  0
DICTIONARY
  5
C
330
0
100
AcDbDictionary
281
     1
  3
ACAD_GROUP
350
D
  3
ACAD_IMAGE_VARS
350
7A9
  3
ACAD_LAYOUT
350
1AD
  3
ACAD_MLINESTYLE
350
1B
  3
ACAD_PLOTSETTINGS
350
1AE
  3
ACAD_PLOTSTYLENAME
350
1AB
  0
DICTIONARY
  5
D
102
{ACAD_REACTORS
330
C
102
}
330
C
100
AcDbDictionary
281
     1
  3
*A1
350
1485
  3
*A2
350
BFCD
  3
*A3
350
C836
  3
*A4
350
CD08
  0
RASTERVARIABLES
  5
7A9
102
{ACAD_REACTORS
330
C
102
}
330
C
100
AcDbRasterVariables
 90
        0
 70
     1
 71
     1
 72
     0
  0
DICTIONARY
  5
1AD
102
{ACAD_REACTORS
330
C
102
}
330
C
100
AcDbDictionary
281
     1
  3
Model
350
1AF
  3
ﾚｲｱｳﾄ1
350
1B0
  0
DICTIONARY
  5
1B
102
{ACAD_REACTORS
330
C
102
}
330
C
100
AcDbDictionary
281
     1
  3
STANDARD
350
1C
  0
DICTIONARY
  5
1AE
102
{ACAD_REACTORS
330
C
102
}
330
C
100
AcDbDictionary
281
     1
  3
AdobePDF_A2
350
AE6C
  3
普通紙Ａ３_XL-5800_WinNT40
350
298B
  3
普通紙Ａ３からＡ４_XL-5800_WinNT40
350
298C
  0
ACDBDICTIONARYWDFLT
  5
1AB
102
{ACAD_REACTORS
330
C
102
}
330
C
100
AcDbDictionary
281
     1
  3
Normal
350
1AC
100
AcDbDictionaryWithDefault
340
1AC
  0
GROUP
  5
1485
102
{ACAD_REACTORS
330
D
102
}
330
D
100
AcDbGroup
300

 70
     1
 71
     1
  0
GROUP
  5
BFCD
102
{ACAD_REACTORS
330
D
102
}
330
D
100
AcDbGroup
300

 70
     1
 71
     1
  0
GROUP
  5
C836
102
{ACAD_REACTORS
330
D
102
}
330
D
100
AcDbGroup
300

 70
     1
 71
     1
  0
GROUP
  5
CD08
102
{ACAD_REACTORS
330
D
102
}
330
D
100
AcDbGroup
300

 70
     1
 71
     1
  0
LAYOUT
  5
1AF
102
{ACAD_REACTORS
330
1AD
102
}
330
1AD
100
AcDbPlotSettings
  1

  2
FUJITSU XL-5800
  4
A4
  6

 40
5.873749732971191
 41
5.704405784606932
 42
5.873748779296875
 43
5.873748779296875
 44
210.0579986572264
 45
296.9259948730469
 46
-934.06
 47
-482.3299999999998
 48
0.0
 49
0.0
140
0.0
141
0.0
142
1.0
143
1.0
 70
 11956
 72
     1
 73
     0
 74
     0
  7
LineScale_10.ctb
 75
    16
147
1.0
148
1033.210332103321
149
625.0
100
AcDbLayout
  1
Model
 70
     1
 71
     0
 10
0.0
 20
0.0
 11
12.0
 21
9.0
 12
0.0
 22
0.0
 32
0.0
 14
0.0
 24
0.0
 34
0.0
 15
0.0
 25
0.0
 35
0.0
146
0.0
 13
0.0
 23
0.0
 33
0.0
 16
1.0
 26
0.0
 36
0.0
 17
0.0
 27
1.0
 37
0.0
 76
     0
330
18
  0
LAYOUT
  5
1B0
102
{ACAD_REACTORS
330
1AD
102
}
330
1AD
100
AcDbPlotSettings
  1
AdobePDF_A2
  2
Adobe PDF
  4
User66
  6
A1
 40
3.174999952316283
 41
3.174999952316283
 42
3.17498779296875
 43
3.17498779296875
 44
420.0
 45
594.0
 46
-3.169999999999998
 47
-3.169999999999998
 48
0.0
 49
0.0
140
594.0
141
420.0
142
1.0
143
1.0
 70
   692
 72
     1
 73
     1
 74
     4
  7
LineScale_10.ctb
 75
    16
147
1.0
148
0.0
149
0.0
100
AcDbLayout
  1
ﾚｲｱｳﾄ1
 70
     1
 71
     1
 10
-0.0049877929687501
 20
-0.0049999523162843
 11
593.9950122070312
 21
419.9950000476837
 12
0.0
 22
0.0
 32
0.0
 14
1.000000000000000E+20
 24
1.000000000000000E+20
 34
1.000000000000000E+20
 15
-1.000000000000000E+20
 25
-1.000000000000000E+20
 35
-1.000000000000000E+20
146
0.0
 13
0.0
 23
0.0
 33
0.0
 16
1.0
 26
0.0
 36
0.0
 17
0.0
 27
1.0
 37
0.0
 76
     0
330
15
331
37
  0
MLINESTYLE
  5
1C
102
{ACAD_REACTORS
330
1B
102
}
330
1B
100
AcDbMlineStyle
  2
STANDARD
 70
     0
  3

 62
   256
 51
90.0
 52
90.0
 71
     2
 49
0.5
 62
   256
  6
BYLAYER
 49
-0.5
 62
   256
  6
BYLAYER
  0
PLOTSETTINGS
  5
AE6C
102
{ACAD_REACTORS
330
1AE
102
}
330
1AE
100
AcDbPlotSettings
  1
AdobePDF_A2
  2
Adobe PDF
  4
User66
  6
A1
 40
3.174999952316283
 41
3.174999952316283
 42
3.17498779296875
 43
3.17498779296875
 44
420.0
 45
594.0
 46
-3.169999999999998
 47
-3.169999999999998
 48
0.0
 49
0.0
140
594.0
141
420.0
142
1.0
143
1.0
 70
   692
 72
     1
 73
     1
 74
     4
  7
LineScale_10.ctb
 75
    16
147
1.0
148
0.0
149
0.0
  0
PLOTSETTINGS
  5
298B
102
{ACAD_REACTORS
330
1AE
102
}
330
1AE
100
AcDbPlotSettings
  1
普通紙Ａ３_XL-5800_WinNT40
  2
FUJITSU XL-5800
  4
A3
  6
A1
 40
5.873749732971191
 41
5.873747825622557
 42
5.70440673828125
 43
5.873748779296875
 44
296.9259948730469
 45
420.1159973144531
 46
-5.009999999999998
 47
-6.7
 48
0.0
 49
0.0
140
420.0
141
297.0
142
1.0
143
1.0
 70
   688
 72
     1
 73
     1
 74
     4
  7
LineScale_10.ctb
 75
    16
147
1.0
148
0.0
149
0.0
  0
PLOTSETTINGS
  5
298C
102
{ACAD_REACTORS
330
1AE
102
}
330
1AE
100
AcDbPlotSettings
  1
普通紙Ａ３からＡ４_XL-5800_WinNT40
  2
FUJITSU XL-5800
  4
A4
  6
A1
 40
5.873749732971191
 41
5.704405784606932
 42
5.873748779296875
 43
5.873748779296875
 44
210.0579986572264
 45
296.9259948730469
 46
-6.4
 47
-5.459999999999999
 48
0.0
 49
0.0
140
420.0
141
297.0
142
0.7071066999999999
143
1.0
 70
   672
 72
     1
 73
     1
 74
     4
  7
LineScale_07.ctb
 75
     0
147
0.7071066999999999
148
0.0
149
0.0
  0
ACDBPLACEHOLDER
  5
1AC
102
{ACAD_REACTORS
330
1AB
102
}
330
1AB
  0
ENDSEC
  0
EOF
