  0
SECTION
  2
HEADER
  9
$ACADVER
  1
AC1015
  9
$ACADMAINTVER
 70
     6
  9
$DWGCODEPAGE
  3
ANSI_932
  9
$INSBASE
 10
0.0
 20
0.0
 30
0.0
  9
$EXTMIN
 10
871.6388814636339
 20
68.15918322438301
 30
-0.0000000100021362
  9
$EXTMAX
 10
1599.495458928143
 20
566.2106350578956
 30
0.0000000100021363
  9
$LIMMIN
 10
-841.0
 20
-594.0
  9
$LIMMAX
 10
841.0
 20
594.0
  9
$ORTHOMODE
 70
     0
  9
$REGENMODE
 70
     1
  9
$FILLMODE
 70
     1
  9
$QTEXTMODE
 70
     0
  9
$MIRRTEXT
 70
     0
  9
$LTSCALE
 40
7.0
  9
$ATTMODE
 70
     1
  9
$TEXTSIZE
 40
3.2
  9
$TRACEWID
 40
1.0
  9
$TEXTSTYLE
  7
DIMFONT
  9
$CLAYER
  8
DRAW2
  9
$CELTYPE
  6
BYLAYER
  9
$CECOLOR
 62
   256
  9
$CELTSCALE
 40
1.0
  9
$DISPSILH
 70
     0
  9
$DIMSCALE
 40
2.0
  9
$DIMASZ
 40
3.0
  9
$DIMEXO
 40
0.0
  9
$DIMDLI
 40
10.0
  9
$DIMRND
 40
0.0
  9
$DIMDLE
 40
0.0
  9
$DIMEXE
 40
1.0
  9
$DIMTP
 40
0.0
  9
$DIMTM
 40
0.0
  9
$DIMTXT
 40
3.2
  9
$DIMCEN
 40
0.0
  9
$DIMTSZ
 40
0.0
  9
$DIMTOL
 70
     0
  9
$DIMLIM
 70
     0
  9
$DIMTIH
 70
     0
  9
$DIMTOH
 70
     0
  9
$DIMSE1
 70
     0
  9
$DIMSE2
 70
     0
  9
$DIMTAD
 70
     3
  9
$DIMZIN
 70
     8
  9
$DIMBLK
  1

  9
$DIMASO
 70
     1
  9
$DIMSHO
 70
     1
  9
$DIMPOST
  1

  9
$DIMAPOST
  1

  9
$DIMALT
 70
     0
  9
$DIMALTD
 70
     2
  9
$DIMALTF
 40
25.4
  9
$DIMLFAC
 40
1.0
  9
$DIMTOFL
 70
     1
  9
$DIMTVP
 40
0.0
  9
$DIMTIX
 70
     0
  9
$DIMSOXD
 70
     0
  9
$DIMSAH
 70
     1
  9
$DIMBLK1
  1
OPEN
  9
$DIMBLK2
  1
OPEN
  9
$DIMSTYLE
  2
1_2
  9
$DIMCLRD
 70
     0
  9
$DIMCLRE
 70
     0
  9
$DIMCLRT
 70
     0
  9
$DIMTFAC
 40
0.75
  9
$DIMGAP
 40
1.0
  9
$DIMJUST
 70
     0
  9
$DIMSD1
 70
     0
  9
$DIMSD2
 70
     0
  9
$DIMTOLJ
 70
     1
  9
$DIMTZIN
 70
     8
  9
$DIMALTZ
 70
     0
  9
$DIMALTTZ
 70
     0
  9
$DIMUPT
 70
     0
  9
$DIMDEC
 70
     4
  9
$DIMTDEC
 70
     4
  9
$DIMALTU
 70
     2
  9
$DIMALTTD
 70
     2
  9
$DIMTXSTY
  7
DIMFONT
  9
$DIMAUNIT
 70
     0
  9
$DIMADEC
 70
     2
  9
$DIMALTRND
 40
0.0
  9
$DIMAZIN
 70
     2
  9
$DIMDSEP
 70
    46
  9
$DIMATFIT
 70
     1
  9
$DIMFRAC
 70
     0
  9
$DIMLDRBLK
  1
OPEN
  9
$DIMLUNIT
 70
     2
  9
$DIMLWD
 70
    -2
  9
$DIMLWE
 70
    -2
  9
$DIMTMOVE
 70
     0
  9
$LUNITS
 70
     2
  9
$LUPREC
 70
     4
  9
$SKETCHINC
 40
1.0
  9
$FILLETRAD
 40
0.0
  9
$AUNITS
 70
     0
  9
$AUPREC
 70
     4
  9
$MENU
  1
acad
  9
$ELEVATION
 40
0.0
  9
$PELEVATION
 40
0.0
  9
$THICKNESS
 40
0.0
  9
$LIMCHECK
 70
     0
  9
$CHAMFERA
 40
0.0
  9
$CHAMFERB
 40
0.0
  9
$CHAMFERC
 40
0.0
  9
$CHAMFERD
 40
0.0
  9
$SKPOLY
 70
     0
  9
$TDCREATE
 40
2452311.864408912
  9
$TDUCREATE
 40
2452311.489408912
  9
$TDUPDATE
 40
2454973.582493298
  9
$TDUUPDATE
 40
2454973.207493298
  9
$TDINDWG
 40
0.9731692130
  9
$TDUSRTIMER
 40
0.9731690972
  9
$USRTIMER
 70
     1
  9
$ANGBASE
 50
0.0
  9
$ANGDIR
 70
     0
  9
$PDMODE
 70
    35
  9
$PDSIZE
 40
0.5
  9
$PLINEWID
 40
0.0
  9
$SPLFRAME
 70
     0
  9
$SPLINETYPE
 70
     6
  9
$SPLINESEGS
 70
     8
  9
$HANDSEED
  5
DD65
  9
$SURFTAB1
 70
     6
  9
$SURFTAB2
 70
     6
  9
$SURFTYPE
 70
     6
  9
$SURFU
 70
     6
  9
$SURFV
 70
     6
  9
$UCSBASE
  2

  9
$UCSNAME
  2

  9
$UCSORG
 10
0.0
 20
0.0
 30
0.0
  9
$UCSXDIR
 10
1.0
 20
0.0
 30
0.0
  9
$UCSYDIR
 10
0.0
 20
1.0
 30
0.0
  9
$UCSORTHOREF
  2

  9
$UCSORTHOVIEW
 70
     0
  9
$UCSORGTOP
 10
0.0
 20
0.0
 30
0.0
  9
$UCSORGBOTTOM
 10
0.0
 20
0.0
 30
0.0
  9
$UCSORGLEFT
 10
0.0
 20
0.0
 30
0.0
  9
$UCSORGRIGHT
 10
0.0
 20
0.0
 30
0.0
  9
$UCSORGFRONT
 10
0.0
 20
0.0
 30
0.0
  9
$UCSORGBACK
 10
0.0
 20
0.0
 30
0.0
  9
$PUCSBASE
  2

  9
$PUCSNAME
  2

  9
$PUCSORG
 10
0.0
 20
0.0
 30
0.0
  9
$PUCSXDIR
 10
1.0
 20
0.0
 30
0.0
  9
$PUCSYDIR
 10
0.0
 20
1.0
 30
0.0
  9
$PUCSORTHOREF
  2

  9
$PUCSORTHOVIEW
 70
     0
  9
$PUCSORGTOP
 10
0.0
 20
0.0
 30
0.0
  9
$PUCSORGBOTTOM
 10
0.0
 20
0.0
 30
0.0
  9
$PUCSORGLEFT
 10
0.0
 20
0.0
 30
0.0
  9
$PUCSORGRIGHT
 10
0.0
 20
0.0
 30
0.0
  9
$PUCSORGFRONT
 10
0.0
 20
0.0
 30
0.0
  9
$PUCSORGBACK
 10
0.0
 20
0.0
 30
0.0
  9
$USERI1
 70
     0
  9
$USERI2
 70
     0
  9
$USERI3
 70
     0
  9
$USERI4
 70
     0
  9
$USERI5
 70
     0
  9
$USERR1
 40
0.0
  9
$USERR2
 40
0.0
  9
$USERR3
 40
0.0
  9
$USERR4
 40
0.0
  9
$USERR5
 40
0.0
  9
$WORLDVIEW
 70
     1
  9
$SHADEDGE
 70
     3
  9
$SHADEDIF
 70
    70
  9
$TILEMODE
 70
     1
  9
$MAXACTVP
 70
    48
  9
$PINSBASE
 10
0.0
 20
0.0
 30
0.0
  9
$PLIMCHECK
 70
     0
  9
$PEXTMIN
 10
1.000000000000000E+20
 20
1.000000000000000E+20
 30
1.000000000000000E+20
  9
$PEXTMAX
 10
-1.000000000000000E+20
 20
-1.000000000000000E+20
 30
-1.000000000000000E+20
  9
$PLIMMIN
 10
-0.0049877929687501
 20
-0.0049999523162843
  9
$PLIMMAX
 10
593.9950122070312
 20
419.9950000476837
  9
$UNITMODE
 70
     0
  9
$VISRETAIN
 70
     0
  9
$PLINEGEN
 70
     1
  9
$PSLTSCALE
 70
     1
  9
$TREEDEPTH
 70
  3020
  9
$CMLSTYLE
  2
STANDARD
  9
$CMLJUST
 70
     0
  9
$CMLSCALE
 40
20.0
  9
$PROXYGRAPHICS
 70
     1
  9
$MEASUREMENT
 70
     1
  9
$CELWEIGHT
370
    -1
  9
$ENDCAPS
280
     0
  9
$JOINSTYLE
280
     0
  9
$LWDISPLAY
290
     0
  9
$INSUNITS
 70
     0
  9
$HYPERLINKBASE
  1

  9
$STYLESHEET
  1

  9
$XEDIT
290
     1
  9
$CEPSNTYPE
380
     0
  9
$PSTYLEMODE
290
     1
  9
$FINGERPRINTGUID
  2
{7FD28A7C-F8BA-11D3-9BCC-00A0C977751D}
  9
$VERSIONGUID
  2
{61300E32-9B7E-4CF9-903C-345FE013ED2B}
  9
$EXTNAMES
290
     1
  9
$PSVPSCALE
 40
0.0
  9
$OLESTARTUP
290
     0
  0
ENDSEC
  0
SECTION
  2
CLASSES
  0
CLASS
  1
LWPOLYLINE
  2
AcDbPolyline
  3
AutoCAD 2000
 90
    32768
280
     0
281
     1
  0
CLASS
  1
ACDBDICTIONARYWDFLT
  2
AcDbDictionaryWithDefault
  3
AutoCAD 2000
 90
        0
280
     0
281
     0
  0
CLASS
  1
ACDBPLACEHOLDER
  2
AcDbPlaceHolder
  3
AutoCAD 2000
 90
        0
280
     0
281
     0
  0
CLASS
  1
LAYOUT
  2
AcDbLayout
  3
AutoCAD 2000
 90
        0
280
     0
281
     0
  0
CLASS
  1
PLOTSETTINGS
  2
AcDbPlotSettings
  3
AutoCAD 2000
 90
        0
280
     0
281
     0
  0
CLASS
  1
RASTERVARIABLES
  2
AcDbRasterVariables
  3
ISM
 90
        0
280
     0
281
     0
  0
ENDSEC
  0
SECTION
  2
TABLES
  0
TABLE
  2
VPORT
  5
8
330
0
100
AcDbSymbolTable
 70
     2
  0
VPORT
  5
DD64
330
8
100
AcDbSymbolTableRecord
100
AcDbViewportTableRecord
  2
*Active
 70
     0
 10
0.0
 20
0.0
 11
1.0
 21
1.0
 12
1235.567170195888
 22
317.1849091411393
 13
0.0
 23
0.0
 14
5.0
 24
5.0
 15
10.0
 25
10.0
 16
0.0
 26
0.0
 36
1.0
 17
0.0
 27
0.0
 37
0.0
 40
501.8389153455545
 41
1.493654822335025
 42
50.0
 43
0.0
 44
0.0
 50
0.0
 51
0.0
 71
     0
 72
   100
 73
     1
 74
     0
 75
     0
 76
     0
 77
     0
 78
     1
281
     0
 65
     1
110
0.0
120
0.0
130
0.0
111
1.0
121
0.0
131
0.0
112
0.0
122
1.0
132
0.0
 79
     0
146
0.0
  0
ENDTAB
  0
TABLE
  2
LTYPE
  5
5
330
0
100
AcDbSymbolTable
 70
     2
  0
LTYPE
  5
12
330
5
100
AcDbSymbolTableRecord
100
AcDbLinetypeTableRecord
  2
BYBLOCK
 70
     0
  3

 72
    65
 73
     0
 40
0.0
  0
LTYPE
  5
13
330
5
100
AcDbSymbolTableRecord
100
AcDbLinetypeTableRecord
  2
BYLAYER
 70
     0
  3

 72
    65
 73
     0
 40
0.0
  0
LTYPE
  5
14
330
5
100
AcDbSymbolTableRecord
100
AcDbLinetypeTableRecord
  2
CONTINUOUS
 70
     0
  3
Solid line
 72
    65
 73
     0
 40
0.0
  0
LTYPE
  5
23
330
5
100
AcDbSymbolTableRecord
100
AcDbLinetypeTableRecord
  2
HIDDEN
 70
     0
  3
__ __ __ __ __ __ __ __ __ __ __ __ __ __ __ __
 72
    65
 73
     2
 40
0.375
 49
0.25
 74
     0
 49
-0.125
 74
     0
  0
ENDTAB
  0
TABLE
  2
LAYER
  5
2
330
0
100
AcDbSymbolTable
 70
     6
  0
LAYER
  5
E
330
2
100
AcDbSymbolTableRecord
100
AcDbLayerTableRecord
  2
0
 70
     0
 62
     7
  6
CONTINUOUS
370
    -3
390
1AC
  0
LAYER
  5
29
330
2
100
AcDbSymbolTableRecord
100
AcDbLayerTableRecord
  2
DRAW2
 70
     0
 62
     4
  6
CONTINUOUS
370
    -3
390
1AC
  0
LAYER
  5
2A
330
2
100
AcDbSymbolTableRecord
100
AcDbLayerTableRecord
  2
DRAW3
 70
     0
 62
     1
  6
CONTINUOUS
370
    -3
390
1AC
  0
LAYER
  5
2B
330
2
100
AcDbSymbolTableRecord
100
AcDbLayerTableRecord
  2
DRAW4
 70
     0
 62
     2
  6
CONTINUOUS
370
    -3
390
1AC
  0
LAYER
  5
2C
330
2
100
AcDbSymbolTableRecord
100
AcDbLayerTableRecord
  2
HIDDEN
 70
     0
 62
     7
  6
HIDDEN
370
    -3
390
1AC
  0
LAYER
  5
133
330
2
100
AcDbSymbolTableRecord
100
AcDbLayerTableRecord
  2
DEFPOINTS
 70
     0
 62
     7
  6
CONTINUOUS
290
     0
370
    -3
390
1AC
  0
ENDTAB
  0
TABLE
  2
STYLE
  5
3
330
0
100
AcDbSymbolTable
 70
     2
  0
STYLE
  5
F
330
3
100
AcDbSymbolTableRecord
100
AcDbTextStyleTableRecord
  2
STANDARD
 70
     0
 40
0.0
 41
1.0
 50
0.0
 71
     0
 42
2.5
  3
txt
  4

  0
STYLE
  5
30
330
3
100
AcDbSymbolTableRecord
100
AcDbTextStyleTableRecord
  2
DIMFONT
 70
     0
 40
0.0
 41
1.0
 50
10.0
 71
     0
 42
3.2
  3
romans.shx
  4
extfont.shx
  0
ENDTAB
  0
TABLE
  2
VIEW
  5
6
330
0
100
AcDbSymbolTable
 70
     5
  0
VIEW
  5
C27
330
6
100
AcDbSymbolTableRecord
100
AcDbViewTableRecord
  2
View1
 70
     0
 40
1250.0
 10
0.0
 20
0.0
 41
2066.420664206642
 11
0.0
 21
0.0
 31
1.0
 12
0.0
 22
0.0
 32
0.0
 42
50.0
 43
0.0
 44
0.0
 50
0.0
 71
     0
281
     0
 72
     1
110
0.0
120
0.0
130
0.0
111
1.0
121
0.0
131
0.0
112
0.0
122
1.0
132
0.0
 79
     0
146
0.0
  0
VIEW
  5
C2A
330
6
100
AcDbSymbolTableRecord
100
AcDbViewTableRecord
  2
A4
 70
     1
 40
314.2148930664061
 10
103.8222427368164
 20
144.5197510242462
 41
519.4401184271216
 11
0.0
 21
0.0
 31
1.0
 12
0.0
 22
0.0
 32
0.0
 42
50.0
 43
0.0
 44
0.0
 50
0.0
 71
     0
281
     0
 72
     1
110
0.0
120
0.0
130
0.0
111
1.0
121
0.0
131
0.0
112
0.0
122
1.0
132
0.0
 79
     0
146
0.0
  0
VIEW
  5
C2B
330
6
100
AcDbSymbolTableRecord
100
AcDbViewTableRecord
  2
A3
 70
     1
 40
314.2148930664061
 10
205.819491624832
 20
151.3197510242461
 41
519.4401184271216
 11
0.0
 21
0.0
 31
1.0
 12
0.0
 22
0.0
 32
0.0
 42
50.0
 43
0.0
 44
0.0
 50
0.0
 71
     0
281
     0
 72
     1
110
0.0
120
0.0
130
0.0
111
1.0
121
0.0
131
0.0
112
0.0
122
1.0
132
0.0
 79
     0
146
0.0
  0
VIEW
  5
C2C
330
6
100
AcDbSymbolTableRecord
100
AcDbViewTableRecord
  2
A2
 70
     1
 40
444.348344177246
 10
293.3145020008086
 20
213.319491624832
 41
734.5684804110931
 11
0.0
 21
0.0
 31
1.0
 12
0.0
 22
0.0
 32
0.0
 42
50.0
 43
0.0
 44
0.0
 50
0.0
 71
     0
281
     0
 72
     1
110
0.0
120
0.0
130
0.0
111
1.0
121
0.0
131
0.0
112
0.0
122
1.0
132
0.0
 79
     0
146
0.0
  0
VIEW
  5
C2D
330
6
100
AcDbSymbolTableRecord
100
AcDbViewTableRecord
  2
A1
 70
     1
 40
628.2954051513671
 10
422.5084997558592
 20
293.4384954071043
 41
1038.658086744695
 11
0.0
 21
0.0
 31
1.0
 12
0.0
 22
0.0
 32
0.0
 42
50.0
 43
0.0
 44
0.0
 50
0.0
 71
     0
281
     0
 72
     1
110
0.0
120
0.0
130
0.0
111
1.0
121
0.0
131
0.0
112
0.0
122
1.0
132
0.0
 79
     0
146
0.0
  0
ENDTAB
  0
TABLE
  2
UCS
  5
7
330
0
100
AcDbSymbolTable
 70
     0
  0
ENDTAB
  0
TABLE
  2
APPID
  5
9
330
0
100
AcDbSymbolTable
 70
     1
  0
APPID
  5
10
330
9
100
AcDbSymbolTableRecord
100
AcDbRegAppTableRecord
  2
ACAD
 70
     0
  0
ENDTAB
  0
TABLE
  2
DIMSTYLE
  5
A
330
0
100
AcDbSymbolTable
 70
     2
100
AcDbDimStyleTable
 71
     1
340
4B
  0
DIMSTYLE
105
4B
330
A
100
AcDbSymbolTableRecord
100
AcDbDimStyleTableRecord
  2
1_2
 70
     0
 40
2.0
 41
3.0
 42
0.0
 43
10.0
 44
1.0
 73
     0
 74
     0
 77
     3
 78
     8
 79
     2
140
3.2
141
0.0
146
0.75
147
1.0
172
     1
173
     1
179
     2
284
     8
289
     1
340
30
341
125
343
125
344
125
  0
DIMSTYLE
105
26A3
330
A
100
AcDbSymbolTableRecord
100
AcDbDimStyleTableRecord
  2
STANDARD
 70
     0
340
F
  0
ENDTAB
  0
TABLE
  2
BLOCK_RECORD
  5
1
330
0
100
AcDbSymbolTable
 70
     1
  0
BLOCK_RECORD
  5
18
330
1
100
AcDbSymbolTableRecord
100
AcDbBlockTableRecord
  2
*MODEL_SPACE
340
1AF
  0
BLOCK_RECORD
  5
15
330
1
100
AcDbSymbolTableRecord
100
AcDbBlockTableRecord
  2
*PAPER_SPACE
340
1B0
  0
BLOCK_RECORD
  5
125
330
1
100
AcDbSymbolTableRecord
100
AcDbBlockTableRecord
  2
_OPEN
340
0
102
{BLKREFS
331
2665
331
2666
331
2671
331
2672
331
267D
331
267E
331
DB10
331
DB11
331
DB61
331
DB62
331
DB6A
331
DB6B
331
DBEB
331
DBEC
331
DBFD
331
DBFE
331
DC18
331
DC19
331
DC21
331
DC22
331
DC33
331
DC34
331
DC42
331
DC43
331
DC54
331
DC55
331
DC66
331
DC67
331
DC78
331
DC79
331
DC81
331
DC82
331
DC9C
331
DC9D
331
DCC0
331
DCC1
331
DCD2
331
DCD3
331
DD1C
331
DD1D
331
DD25
331
DD26
331
DD2E
331
DD2F
331
DD4D
331
DD4E
102
}
  0
ENDTAB
  0
ENDSEC
  0
SECTION
  2
BLOCKS
  0
BLOCK
  5
19
330
18
100
AcDbEntity
  8
0
100
AcDbBlockBegin
  2
*MODEL_SPACE
 70
     0
 10
0.0
 20
0.0
 30
0.0
  3
*MODEL_SPACE
  1

  0
ENDBLK
  5
1A
330
18
100
AcDbEntity
  8
0
100
AcDbBlockEnd
  0
BLOCK
  5
16
330
15
100
AcDbEntity
 67
     1
  8
0
100
AcDbBlockBegin
  2
*PAPER_SPACE
 70
     0
 10
0.0
 20
0.0
 30
0.0
  3
*PAPER_SPACE
  1

  0
ENDBLK
  5
17
330
15
100
AcDbEntity
 67
     1
  8
0
100
AcDbBlockEnd
  0
BLOCK
  5
126
330
125
100
AcDbEntity
  8
0
100
AcDbBlockBegin
  2
_OPEN
 70
     0
 10
0.0
 20
0.0
 30
0.0
  3
_OPEN
  1

  0
LINE
  5
127
330
125
100
AcDbEntity
  8
0
  6
ByBlock
 62
     0
100
AcDbLine
 10
-1.0
 20
0.1666666666666666
 30
0.0
 11
0.0
 21
0.0
 31
0.0
  0
LINE
  5
128
330
125
100
AcDbEntity
  8
0
  6
ByBlock
 62
     0
100
AcDbLine
 10
0.0
 20
0.0
 30
0.0
 11
-1.0
 21
-0.1666666666666666
 31
0.0
  0
LINE
  5
129
330
125
100
AcDbEntity
  8
0
  6
ByBlock
 62
     0
100
AcDbLine
 10
0.0
 20
0.0
 30
0.0
 11
-1.0
 21
0.0
 31
0.0
  0
ENDBLK
  5
12A
330
125
100
AcDbEntity
  8
0
100
AcDbBlockEnd
  0
ENDSEC
  0
SECTION
  2
ENTITIES
  0
TEXT
  5
2783
330
18
100
AcDbEntity
  8
0
100
AcDbText
 10
289.9791188454981
 20
596.5343442442899
 30
0.0
 40
3.2
  1

 51
10.0
  7
DIMFONT
100
AcDbText
  0
TEXT
  5
2791
330
18
100
AcDbEntity
  8
0
100
AcDbText
 10
399.046620988657
 20
559.3598774521149
 30
0.0
 40
3.2
  1

 51
10.0
  7
DIMFONT
100
AcDbText
  0
ELLIPSE
  5
D4B6
330
18
100
AcDbEntity
  8
DRAW2
100
AcDbEllipse
 10
986.1972403231661
 20
238.4191638687461
 30
0.0
 11
-24.0
 21
0.0
 31
0.0
210
0.0
220
0.0
230
1.0
 40
0.8660254037844396
 41
5.824482302477295
 42
9.883480965471667
  0
ELLIPSE
  5
D4B7
330
18
100
AcDbEntity
  8
DRAW2
100
AcDbEllipse
 10
986.1972198413177
 20
431.5853067760583
 30
0.0
 11
-24.0
 21
0.0
 31
0.0
210
0.0
220
0.0
230
1.0
 40
0.5
 41
2.960941467285354
 42
6.463836493482722
  0
ELLIPSE
  5
D4B8
330
18
100
AcDbEntity
  8
DRAW2
100
AcDbEllipse
 10
969.8427271694136
 20
426.835285747578
 30
0.0
 11
-3.5
 21
0.0
 31
0.0
210
0.0
220
0.0
230
1.0
 40
0.5
 41
0.6934695556939233
 42
2.448123097895869
  0
ELLIPSE
  5
D4B9
330
18
100
AcDbEntity
  8
DRAW2
100
AcDbEllipse
 10
969.8427271694136
 20
424.2372095362244
 30
0.0
 11
-4.0
 21
0.0
 31
0.0
210
0.0
220
0.0
230
1.0
 40
0.5
 41
1.367290287171156
 42
6.137050603052133
  0
ELLIPSE
  5
D4BA
330
18
100
AcDbEntity
  8
DRAW2
100
AcDbEllipse
 10
986.1525239724853
 20
428.987230564705
 30
0.0
 11
-21.74999999999987
 21
0.0
 31
0.0
210
0.0
220
0.0
230
1.0
 40
0.5000000000000027
 41
6.835041221751972
 42
7.624133067695818
  0
ELLIPSE
  5
D4BB
330
18
100
AcDbEntity
  8
DRAW2
100
AcDbEllipse
 10
986.1525239724853
 20
428.987230564705
 30
0.0
 11
-21.74999999999987
 21
0.0
 31
0.0
210
0.0
220
0.0
230
1.0
 40
0.5000000000000027
 41
1.804867964796695
 42
2.589736675647428
  0
ELLIPSE
  5
D4BC
330
18
100
AcDbEntity
  8
DRAW2
100
AcDbEllipse
 10
1002.751692513222
 20
426.835285747578
 30
0.0
 11
-3.5
 21
0.0
 31
0.0
210
0.0
220
0.0
230
1.0
 40
0.5
 41
0.6934695556939233
 42
2.448123097895869
  0
ELLIPSE
  5
D4BD
330
18
100
AcDbEntity
  8
DRAW2
100
AcDbEllipse
 10
1002.751692513222
 20
424.2372095362244
 30
0.0
 11
-4.0
 21
0.0
 31
0.0
210
0.0
220
0.0
230
1.0
 40
0.5
 41
3.380623135873761
 42
7.973399468990139
  0
ELLIPSE
  5
D4BE
330
18
100
AcDbEntity
  8
DRAW2
100
AcDbEllipse
 10
986.1525239724853
 20
428.987230564705
 30
0.0
 11
-21.74999999999987
 21
0.0
 31
0.0
210
0.0
220
0.0
230
1.0
 40
0.5000000000000027
 41
2.769911468767113
 42
4.575968026284308
  0
ELLIPSE
  5
D4BF
330
18
100
AcDbEntity
  8
DRAW2
100
AcDbEllipse
 10
986.1972198413177
 20
438.3907095362246
 30
0.0
 11
-4.0
 21
0.0
 31
0.0
210
0.0
220
0.0
230
1.0
 40
0.5
 41
0.0
 42
6.283185307179585
  0
ELLIPSE
  5
D4C0
330
18
100
AcDbEntity
  8
DRAW2
100
AcDbEllipse
 10
986.1972198413177
 20
440.9887857475782
 30
0.0
 11
-3.5
 21
0.0
 31
0.0
210
0.0
220
0.0
230
1.0
 40
0.5
 41
0.6934695556939233
 42
2.448123097895869
  0
ELLIPSE
  5
D4C1
330
18
100
AcDbEntity
  8
DRAW2
100
AcDbEllipse
 10
986.1525240822457
 20
430.7192813722741
 30
0.0
 11
-23.75004161791241
 21
0.0
 31
0.0
210
0.0
220
0.0
230
1.0
 40
0.4999991238349583
 41
2.465209481951075
 42
6.959568415448874
  0
ELLIPSE
  5
D4C2
330
18
100
AcDbEntity
  8
DRAW2
100
AcDbEllipse
 10
986.1525239724853
 20
428.987230564705
 30
0.0
 11
-21.74999999999987
 21
0.0
 31
0.0
210
0.0
220
0.0
230
1.0
 40
0.5000000000000027
 41
4.844056822918441
 42
6.673258969419856
  0
ELLIPSE
  5
D4C3
330
18
100
AcDbEntity
  8
DRAW2
100
AcDbEllipse
 10
986.1972403231661
 20
239.9191638687458
 30
0.0
 11
-21.75
 21
0.0
 31
0.0
210
0.0
220
0.0
230
1.0
 40
0.8660254037844406
 41
6.949795470482996
 42
8.758167797466008
  0
ELLIPSE
  5
D4C4
330
18
100
AcDbEntity
  8
DRAW2
100
AcDbEllipse
 10
986.1972403231661
 20
239.9191638687458
 30
0.0
 11
-21.75
 21
0.0
 31
0.0
210
0.0
220
0.0
230
1.0
 40
0.8660254037844406
 41
9.044190572876507
 42
10.78108767968245
  0
ELLIPSE
  5
D4C5
330
18
100
AcDbEntity
  8
DRAW2
100
AcDbEllipse
 10
1002.651722995069
 20
230.191922532802
 30
0.0
 11
3.5
 21
0.0
 31
0.0
210
0.0
220
0.0
230
-1.0
 40
0.8660254037844358
 41
3.079694177223776
 42
6.345083783545602
  0
ELLIPSE
  5
D4C6
330
18
100
AcDbEntity
  8
DRAW2
100
AcDbEllipse
 10
1002.651722995069
 20
231.6919225328017
 30
0.0
 11
4.0
 21
0.0
 31
0.0
210
0.0
220
0.0
230
-1.0
 40
0.8660254037844481
 41
0.0
 42
6.283185307179585
  0
ELLIPSE
  5
D4C7
330
18
100
AcDbEntity
  8
DRAW2
100
AcDbEllipse
 10
969.7427576512621
 20
230.191922532802
 30
0.0
 11
-3.5
 21
0.0
 31
0.0
210
0.0
220
0.0
230
1.0
 40
0.8660254037844358
 41
3.079694177223776
 42
6.345083783545602
  0
ELLIPSE
  5
D4C8
330
18
100
AcDbEntity
  8
DRAW2
100
AcDbEllipse
 10
969.7427576512621
 20
231.6919225328017
 30
0.0
 11
-4.0
 21
0.0
 31
0.0
210
0.0
220
0.0
230
1.0
 40
0.8660254037844481
 41
0.0
 42
6.283185307179585
  0
ELLIPSE
  5
D4C9
330
18
100
AcDbEntity
  8
DRAW2
100
AcDbEllipse
 10
986.1972403231661
 20
238.9191638687458
 30
0.0
 11
-23.75
 21
0.0
 31
0.0
210
0.0
220
0.0
230
1.0
 40
0.8660254037844422
 41
4.858184900257283
 42
10.84977662706195
  0
ELLIPSE
  5
D4CA
330
18
100
AcDbEntity
  8
DRAW2
100
AcDbEllipse
 10
986.1972403231661
 20
239.9191638687458
 30
0.0
 11
-21.75
 21
0.0
 31
0.0
210
0.0
220
0.0
230
1.0
 40
0.8660254037844406
 41
4.92687369411719
 42
6.663772695071953
  0
ELLIPSE
  5
D4CB
330
18
100
AcDbEntity
  8
DRAW2
100
AcDbEllipse
 10
986.1500897681356
 20
408.1700339033346
 30
0.0
 11
-5.461325000000458
 21
0.0
 31
0.0
210
0.0
220
0.0
230
1.0
 40
0.4999999999999777
 41
2.152343274395303
 42
7.272434686374075
  0
ELLIPSE
  5
D4CC
330
18
100
AcDbEntity
  8
DRAW2
100
AcDbEllipse
 10
986.1500897681356
 20
408.6030466052268
 30
0.0
 11
-5.75
 21
0.0
 31
0.0
210
0.0
220
0.0
230
1.0
 40
0.5000000000000099
 41
2.729778632910681
 42
6.69499932785875
  0
ELLIPSE
  5
D4CD
330
18
100
AcDbEntity
  8
DRAW2
100
AcDbEllipse
 10
986.1500897681356
 20
411.1230783599575
 30
0.0
 11
-5.75
 21
0.0
 31
0.0
210
0.0
220
0.0
230
1.0
 40
0.4382663921270626
 41
3.141592653589792
 42
6.283185307179585
  0
ELLIPSE
  5
D4CE
330
18
100
AcDbEntity
  8
DRAW2
100
AcDbEllipse
 10
986.1500897681356
 20
408.1700339033346
 30
0.0
 11
-3.0
 21
0.0
 31
0.0
210
0.0
220
0.0
230
1.0
 40
0.4999999999999621
 41
3.141592653589792
 42
6.283185307179585
  0
SPLINE
  5
D4CF
330
18
100
AcDbEntity
  8
DRAW3
100
AcDbSpline
210
0.0
220
0.0
230
1.0
 70
     8
 71
     3
 72
    10
 73
     6
 74
     4
 42
0.0000000001
 43
0.0000000001
 44
0.0000000001
 40
0.0
 40
0.0
 40
0.0
 40
0.0
 40
1.972684243528651
 40
4.621558289201901
 40
6.67977679435905
 40
6.67977679435905
 40
6.67977679435905
 40
6.67977679435905
 10
989.1500897681357
 20
387.8849835804433
 30
0.0
 10
988.5738177706613
 20
387.425438793408
 30
0.0
 10
987.2237412769198
 20
386.3488280652845
 30
0.0
 10
985.0411915404295
 20
388.6292766244271
 30
0.0
 10
983.7254218749167
 20
387.4154357003027
 30
0.0
 10
983.1500897681356
 20
386.8846728513953
 30
0.0
 11
989.1500897681357
 21
387.8849835804433
 31
0.0
 11
987.3921277198517
 21
386.9899681831124
 31
0.0
 11
984.9185745628494
 21
387.9376329388808
 31
0.0
 11
983.1500897681356
 21
386.8846728513953
 31
0.0
  0
ELLIPSE
  5
D4D0
330
18
100
AcDbEntity
  8
DRAW2
100
AcDbEllipse
 10
986.197219841318
 20
418.6170533677336
 30
0.0
 11
-5.000000000000262
 21
0.0
 31
0.0
210
0.0
220
0.0
230
1.0
 40
0.4999999999999851
 41
3.141592653589792
 42
6.283185307179585
  0
ELLIPSE
  5
D4D1
330
18
100
AcDbEntity
  8
DRAW2
100
AcDbEllipse
 10
986.197219841318
 20
419.2029195533939
 30
0.0
 11
-4.323499999999953
 21
0.0
 31
0.0
210
0.0
220
0.0
230
1.0
 40
0.5000000000000148
 41
3.650258012205201
 42
5.774519948564178
  0
ELLIPSE
  5
D4D2
330
18
100
AcDbEntity
  8
DRAW2
100
AcDbEllipse
 10
986.197219841318
 20
420.9349703609627
 30
0.0
 11
-4.200000000000073
 21
0.0
 31
0.0
210
0.0
220
0.0
230
1.0
 40
0.5000000000000103
 41
3.141592653589792
 42
6.283185307179585
  0
ELLIPSE
  5
D4D3
330
18
100
AcDbEntity
  8
DRAW2
100
AcDbEllipse
 10
986.1972198413177
 20
430.4872305647053
 30
0.0
 11
-4.991934599524255
 21
0.0
 31
0.0
210
0.0
220
0.0
230
1.0
 40
0.4871858698292514
 41
3.141592653589792
 42
6.283185307179585
  0
ELLIPSE
  5
D4D4
330
18
100
AcDbEntity
  8
DRAW2
100
AcDbEllipse
 10
986.1972403231664
 20
255.4020795800993
 30
0.0
 11
-5.461324999999987
 21
0.0
 31
0.0
210
0.0
220
0.0
230
1.0
 40
0.8660254037844396
 41
5.293935927985153
 42
10.41402733996381
  0
ELLIPSE
  5
D4D5
330
18
100
AcDbEntity
  8
DRAW2
100
AcDbEllipse
 10
986.1972403231664
 20
255.1520795800993
 30
0.0
 11
-5.75
 21
0.0
 31
0.0
210
0.0
220
0.0
230
1.0
 40
0.8660254037844346
 41
5.26127725202778
 42
10.44668601592118
  0
ELLIPSE
  5
D4D6
330
18
100
AcDbEntity
  8
DRAW2
100
AcDbEllipse
 10
986.1972403231664
 20
253.9020795800992
 30
0.0
 11
-5.749999999999943
 21
0.0
 31
0.0
210
0.0
220
0.0
230
1.0
 40
0.8660254037844431
 41
6.283185307179585
 42
9.424777960769381
  0
ELLIPSE
  5
D4D7
330
18
100
AcDbEntity
  8
DRAW2
100
AcDbEllipse
 10
986.1972403231664
 20
255.4020795800996
 30
0.0
 11
-3.0
 21
0.0
 31
0.0
210
0.0
220
0.0
230
1.0
 40
0.8660254037844387
 41
0.0
 42
3.141592653589792
  0
SPLINE
  5
D4D8
330
18
100
AcDbEntity
  8
DRAW3
100
AcDbSpline
210
0.0
220
0.0
230
1.0
 70
     8
 71
     3
 72
    10
 73
     6
 74
     4
 42
0.0000000001
 43
0.0000000001
 44
0.0000000001
 40
0.0
 40
0.0
 40
0.0
 40
0.0
 40
1.972684243528474
 40
4.621558289201937
 40
6.679776794359144
 40
6.679776794359144
 40
6.679776794359144
 40
6.679776794359144
 10
989.1972403231664
 20
279.3742954729529
 30
0.0
 10
988.6209683256922
 20
278.9147506859174
 30
0.0
 10
987.2708918319506
 20
277.8381399577938
 30
0.0
 10
985.0883420954602
 20
280.1185885169367
 30
0.0
 10
983.7725724299472
 20
278.9047475928121
 30
0.0
 10
983.1972403231663
 20
278.3739847439047
 30
0.0
 11
989.1972403231664
 21
279.3742954729529
 31
0.0
 11
987.4392782748826
 21
278.4792800756219
 31
0.0
 11
984.9657251178802
 21
279.4269448313903
 31
0.0
 11
983.1972403231663
 21
278.3739847439047
 31
0.0
  0
ELLIPSE
  5
D4D9
330
18
100
AcDbEntity
  8
DRAW2
100
AcDbEllipse
 10
986.1972403233693
 20
249.3704901966621
 30
0.0
 11
-5.0
 21
0.0
 31
0.0
210
0.0
220
0.0
230
1.0
 40
0.8660254037844367
 41
6.958188348496994
 42
7.722810399494485
  0
ELLIPSE
  5
D4DA
330
18
100
AcDbEntity
  8
DRAW2
100
AcDbEllipse
 10
986.1972403233693
 20
249.3704901966621
 30
0.0
 11
-5.0
 21
0.0
 31
0.0
210
0.0
220
0.0
230
1.0
 40
0.8660254037844367
 41
7.985152868264627
 42
8.749774919590343
  0
ELLIPSE
  5
D4DB
330
18
100
AcDbEntity
  8
DRAW2
100
AcDbEllipse
 10
986.1972403231664
 20
248.5322401966621
 30
0.0
 11
-4.199999999999987
 21
0.0
 31
0.0
210
0.0
220
0.0
230
1.0
 40
0.9850730228320859
 41
0.5638493951521996
 42
2.577743258217048
  0
ELLIPSE
  5
D4DC
330
18
100
AcDbEntity
  8
DRAW2
100
AcDbEllipse
 10
986.1972403231664
 20
242.5172401966622
 30
0.0
 11
-4.212347564007528
 21
0.0
 31
0.0
210
0.0
220
0.0
230
1.0
 40
1.0
 41
0.3487073177418718
 42
2.838258533819106
  0
ELLIPSE
  5
D4DD
330
18
100
AcDbEntity
  8
DRAW2
100
AcDbEllipse
 10
978.1972198413177
 20
156.8497698250774
 30
0.0
 11
5.000000000000028
 21
0.0000000006902672
 31
0.0
210
0.0
220
0.0
230
-1.0
 40
0.5655789432460123
 41
3.141592653833853
 42
6.283185307423647
  0
ELLIPSE
  5
D4DE
330
18
100
AcDbEntity
  8
DRAW2
100
AcDbEllipse
 10
978.1972198413177
 20
155.8528807519504
 30
0.0
 11
4.999999999999943
 21
-0.0000000000000804
 31
0.0
210
0.0
220
0.0
230
-1.0
 40
0.6192927609469807
 41
0.0
 42
6.283185307179585
  0
ELLIPSE
  5
D4DF
330
18
100
AcDbEntity
  8
DRAW2
100
AcDbEllipse
 10
994.1972198413177
 20
155.8528807519504
 30
0.0
 11
4.999999999999943
 21
-0.0000000000000804
 31
0.0
210
0.0
220
0.0
230
-1.0
 40
0.6192927609469807
 41
0.0
 42
6.283185307179585
  0
ELLIPSE
  5
D4E0
330
18
100
AcDbEntity
  8
DRAW2
100
AcDbEllipse
 10
994.1972198413177
 20
156.8497698250774
 30
0.0
 11
5.000000000000028
 21
0.0000000006902672
 31
0.0
210
0.0
220
0.0
230
-1.0
 40
0.5655789432460123
 41
3.141592653833853
 42
6.283185307423647
  0
LINE
  5
D4E1
330
18
100
AcDbEntity
  8
DRAW2
100
AcDbLine
 10
983.197233062471
 20
270.4191338687536
 30
0.0
 11
943.6972448413175
 21
270.4191338687536
 31
0.0
  0
LINE
  5
D4E2
330
18
100
AcDbEntity
  8
DRAW2
100
AcDbLine
 10
1028.697194841317
 20
136.4191938687535
 30
0.0
 11
943.6972448413175
 21
136.4191938687535
 31
0.0
  0
LINE
  5
D4E3
330
18
100
AcDbEntity
  8
DRAW2
100
AcDbLine
 10
943.2472098413176
 20
274.9191338687537
 30
0.0
 11
983.1972330624713
 21
274.9191338687538
 31
0.0
  0
LINE
  5
D4E4
330
18
100
AcDbEntity
  8
DRAW2
100
AcDbLine
 10
943.2472098413176
 20
299.9191338687537
 30
0.0
 11
1029.147229841317
 21
299.9191338687537
 31
0.0
  0
LINE
  5
D4E7
330
18
100
AcDbEntity
  8
DRAW2
100
AcDbLine
 10
943.2472098413176
 20
106.9190738687535
 30
0.0
 11
1029.147229841317
 21
106.9190738687535
 31
0.0
  0
LINE
  5
D4E8
330
18
100
AcDbEntity
  8
DRAW2
100
AcDbLine
 10
943.2472098413176
 20
131.9191038687535
 30
0.0
 11
1029.147229841317
 21
131.9191038687535
 31
0.0
  0
CIRCLE
  5
D4EA
330
18
100
AcDbEntity
  8
DRAW2
100
AcDbCircle
 10
964.1972198413176
 20
183.4191638687543
 30
0.0
 40
10.5
  0
CIRCLE
  5
D4EB
330
18
100
AcDbEntity
  8
DRAW2
100
AcDbCircle
 10
964.1972198413176
 20
183.4191638687543
 30
0.0
 40
7.0
  0
CIRCLE
  5
D4EC
330
18
100
AcDbEntity
  8
DRAW2
100
AcDbCircle
 10
964.1972198413176
 20
183.4191638687543
 30
0.0
 40
5.694887103024191
  0
CIRCLE
  5
D4ED
330
18
100
AcDbEntity
  8
DRAW3
100
AcDbCircle
 10
964.1972198413176
 20
183.4191638687543
 30
0.0
 40
6.578500006249994
  0
CIRCLE
  5
D4EE
330
18
100
AcDbEntity
  8
DRAW2
100
AcDbCircle
 10
964.1972198413176
 20
183.4191638687543
 30
0.0
 40
11.0
  0
LINE
  5
D4F0
330
18
100
AcDbEntity
  8
DRAW2
100
AcDbLine
 10
943.6972448413175
 20
270.4191338687536
 30
0.0
 11
943.6972448413175
 21
136.4191938687535
 31
0.0
  0
LINE
  5
D4F1
330
18
100
AcDbEntity
  8
DRAW2
100
AcDbLine
 10
942.6972198413176
 20
271.4191038687538
 30
0.0
 11
942.6972198413176
 21
135.4191038687535
 31
0.0
  0
LINE
  5
D4F2
330
18
100
AcDbEntity
  8
DRAW2
100
AcDbLine
 10
893.6972798413178
 20
270.4191338687536
 30
0.0
 11
893.6972798413178
 21
136.4191038687535
 31
0.0
  0
LINE
  5
D4F3
330
18
100
AcDbEntity
  8
DRAW2
100
AcDbLine
 10
903.6971598413176
 20
271.4191038687538
 30
0.0
 11
903.6971598413176
 21
135.4191038687535
 31
0.0
  0
LINE
  5
D4F6
330
18
100
AcDbEntity
  8
DRAW2
100
AcDbLine
 10
936.0748998413175
 20
69.2707938687538
 30
0.0
 11
938.9471598413175
 21
88.41913386875376
 31
0.0
  0
LINE
  5
D4F8
330
18
100
AcDbEntity
  8
DRAW2
100
AcDbLine
 10
902.9472198413175
 20
88.41913386875376
 30
0.0
 11
905.8194698413176
 21
69.27080386875378
 31
0.0
  0
LINE
  5
D4F9
330
18
100
AcDbEntity
  8
DRAW2
100
AcDbLine
 10
935.0860098413177
 20
68.41907386875369
 30
0.0
 11
906.8083598413178
 21
68.41907386875369
 31
0.0
  0
ARC
  5
D4FA
330
18
100
AcDbEntity
  8
DRAW2
100
AcDbCircle
 10
906.8083598413178
 20
69.41910386875384
 30
0.0
 40
1.0
100
AcDbArc
 50
188.5310499999986
 51
270.0000200000018
  0
ARC
  5
D4FB
330
18
100
AcDbEntity
  8
DRAW2
100
AcDbCircle
 10
935.0860098413177
 20
69.41910386875384
 30
0.0
 40
1.0
100
AcDbArc
 50
270.0000200000018
 51
351.4689300000039
  0
LINE
  5
D4FC
330
18
100
AcDbEntity
  8
DRAW2
100
AcDbLine
 10
893.6972798413178
 20
136.4191038687535
 30
0.0
 11
903.6971598413176
 21
136.4191038687535
 31
0.0
  0
LINE
  5
D4FD
330
18
100
AcDbEntity
  8
DRAW2
100
AcDbLine
 10
940.9472198413176
 20
88.41907386875368
 30
0.0
 11
900.9472198413176
 21
88.41907386875368
 31
0.0
  0
LINE
  5
D4FE
330
18
100
AcDbEntity
  8
DRAW2
100
AcDbLine
 10
943.2472098413176
 20
103.4190738687535
 30
0.0
 11
900.9472198413176
 21
103.4190738687535
 31
0.0
  0
LINE
  5
D4FF
330
18
100
AcDbEntity
  8
DRAW2
100
AcDbLine
 10
900.9472198413176
 20
103.4190738687535
 30
0.0
 11
900.9472198413176
 21
88.41910386875358
 31
0.0
  0
LINE
  5
D501
330
18
100
AcDbEntity
  8
DRAW2
100
AcDbLine
 10
873.6972198413177
 20
160.2291038687536
 30
0.0
 11
873.6972198413177
 21
139.2291038687536
 31
0.0
  0
LINE
  5
D502
330
18
100
AcDbEntity
  8
DRAW2
100
AcDbLine
 10
871.6972198413174
 20
158.2291038687536
 30
0.0
 11
871.6972198413174
 21
141.2291038687536
 31
0.0
  0
LINE
  5
D503
330
18
100
AcDbEntity
  8
DRAW2
100
AcDbLine
 10
873.6972198413177
 20
139.2291038687536
 30
0.0
 11
893.6972798413178
 21
139.2291038687536
 31
0.0
  0
LINE
  5
D504
330
18
100
AcDbEntity
  8
DRAW2
100
AcDbLine
 10
871.6972198413174
 20
141.2290438687536
 30
0.0
 11
873.6972198413177
 21
139.2290738687535
 31
0.0
  0
LINE
  5
D505
330
18
100
AcDbEntity
  8
DRAW2
100
AcDbLine
 10
873.6972198413177
 20
160.2291038687536
 30
0.0
 11
893.6972798413178
 21
160.2291038687536
 31
0.0
  0
LINE
  5
D506
330
18
100
AcDbEntity
  8
DRAW2
100
AcDbLine
 10
873.6972798413177
 20
160.2290738687535
 30
0.0
 11
871.6972798413177
 21
158.2290738687535
 31
0.0
  0
LINE
  5
D507
330
18
100
AcDbEntity
  8
DRAW2
100
AcDbLine
 10
943.2472098413176
 20
135.4191038687535
 30
0.0
 11
943.2472098413176
 21
103.4190738687535
 31
0.0
  0
LINE
  5
D508
330
18
100
AcDbEntity
  8
DRAW2
100
AcDbLine
 10
904.2472098413178
 20
135.4191038687535
 30
0.0
 11
904.2472098413178
 21
103.4190738687535
 31
0.0
  0
LINE
  5
D509
330
18
100
AcDbEntity
  8
DRAW2
100
AcDbLine
 10
931.4471598413176
 20
103.4190738687535
 30
0.0
 11
931.4471598413176
 21
123.4190738687535
 31
0.0
  0
LINE
  5
D50A
330
18
100
AcDbEntity
  8
DRAW2
100
AcDbLine
 10
910.4471598413175
 20
103.4190738687535
 30
0.0
 11
910.4471598413175
 21
123.4190738687535
 31
0.0
  0
LINE
  5
D50B
330
18
100
AcDbEntity
  8
DRAW2
100
AcDbLine
 10
912.4471898413176
 20
125.4190738687535
 30
0.0
 11
929.4471598413176
 21
125.4190738687535
 31
0.0
  0
LINE
  5
D50C
330
18
100
AcDbEntity
  8
DRAW2
100
AcDbLine
 10
910.4471598413175
 20
123.4190438687537
 30
0.0
 11
931.4471598413176
 21
123.4190438687537
 31
0.0
  0
LINE
  5
D50D
330
18
100
AcDbEntity
  8
DRAW2
100
AcDbLine
 10
910.4471298413177
 20
123.4190138687538
 30
0.0
 11
912.4471298413176
 21
125.4190138687538
 31
0.0
  0
LINE
  5
D50E
330
18
100
AcDbEntity
  8
DRAW2
100
AcDbLine
 10
929.4470698413176
 20
125.4190738687535
 30
0.0
 11
931.4470698413176
 21
123.4190438687537
 31
0.0
  0
LINE
  5
D50F
330
18
100
AcDbEntity
  8
DRAW2
100
AcDbLine
 10
940.9472198413176
 20
103.4190738687535
 30
0.0
 11
940.9472198413176
 21
88.41910386875358
 31
0.0
  0
LINE
  5
D510
330
18
100
AcDbEntity
  8
DRAW2
100
AcDbLine
 10
943.2472098413176
 20
135.4191038687535
 30
0.0
 11
903.6971598413176
 21
135.4191038687535
 31
0.0
  0
LINE
  5
D511
330
18
100
AcDbEntity
  8
DRAW2
100
AcDbLine
 10
943.6972148413175
 20
148.4191338687536
 30
0.0
 11
942.6971848413176
 21
148.4191338687536
 31
0.0
  0
LINE
  5
D512
330
18
100
AcDbEntity
  8
DRAW2
100
AcDbLine
 10
943.2472098413176
 20
271.4191038687538
 30
0.0
 11
943.2472098413176
 21
313.4191338687537
 31
0.0
  0
LINE
  5
D514
330
18
100
AcDbEntity
  8
DRAW2
100
AcDbLine
 10
904.2472098413178
 20
271.4191038687538
 30
0.0
 11
904.2472098413178
 21
313.4191338687537
 31
0.0
  0
LINE
  5
D515
330
18
100
AcDbEntity
  8
DRAW2
100
AcDbLine
 10
893.6972798413178
 20
270.4191338687536
 30
0.0
 11
903.6971598413176
 21
270.4191338687536
 31
0.0
  0
LINE
  5
D517
330
18
100
AcDbEntity
  8
DRAW2
100
AcDbLine
 10
873.6972198413177
 20
213.9191338687536
 30
0.0
 11
873.6972198413177
 21
192.9190738687536
 31
0.0
  0
LINE
  5
D518
330
18
100
AcDbEntity
  8
DRAW2
100
AcDbLine
 10
871.6972198413174
 20
211.9191038687535
 30
0.0
 11
871.6972198413174
 21
194.9191338687537
 31
0.0
  0
LINE
  5
D519
330
18
100
AcDbEntity
  8
DRAW2
100
AcDbLine
 10
873.6972198413177
 20
192.9190738687536
 30
0.0
 11
893.6972798413178
 21
192.9190738687536
 31
0.0
  0
LINE
  5
D51A
330
18
100
AcDbEntity
  8
DRAW2
100
AcDbLine
 10
873.6972798413177
 20
192.9190438687537
 30
0.0
 11
871.6972798413177
 21
194.9190738687535
 31
0.0
  0
LINE
  5
D51B
330
18
100
AcDbEntity
  8
DRAW2
100
AcDbLine
 10
873.6972198413177
 20
213.9191338687536
 30
0.0
 11
893.6972798413178
 21
213.9191338687536
 31
0.0
  0
LINE
  5
D51C
330
18
100
AcDbEntity
  8
DRAW2
100
AcDbLine
 10
873.6971598413177
 20
213.9191338687536
 30
0.0
 11
871.6971598413177
 21
211.9191338687536
 31
0.0
  0
LINE
  5
D51D
330
18
100
AcDbEntity
  8
DRAW2
100
AcDbLine
 10
871.6972198413174
 20
265.6091338687537
 30
0.0
 11
871.6972198413174
 21
248.6091038687535
 31
0.0
  0
LINE
  5
D51E
330
18
100
AcDbEntity
  8
DRAW2
100
AcDbLine
 10
873.6972198413177
 20
267.6091338687538
 30
0.0
 11
873.6972198413177
 21
246.6091338687538
 31
0.0
  0
LINE
  5
D51F
330
18
100
AcDbEntity
  8
DRAW2
100
AcDbLine
 10
873.6972198413177
 20
246.6091338687538
 30
0.0
 11
893.6972798413178
 21
246.6091338687538
 31
0.0
  0
LINE
  5
D520
330
18
100
AcDbEntity
  8
DRAW2
100
AcDbLine
 10
871.6972198413174
 20
248.6091038687535
 30
0.0
 11
873.6972198413177
 21
246.6091038687535
 31
0.0
  0
LINE
  5
D521
330
18
100
AcDbEntity
  8
DRAW2
100
AcDbLine
 10
873.6972198413177
 20
267.6091338687538
 30
0.0
 11
893.6972798413178
 21
267.6091338687538
 31
0.0
  0
LINE
  5
D522
330
18
100
AcDbEntity
  8
DRAW2
100
AcDbLine
 10
873.6972198413177
 20
267.6091038687536
 30
0.0
 11
871.6972198413174
 21
265.6090738687536
 31
0.0
  0
CIRCLE
  5
D523
330
18
100
AcDbEntity
  8
DRAW2
100
AcDbCircle
 10
964.1972198413176
 20
183.4191638687543
 30
0.0
 40
2.5
  0
LINE
  5
D524
330
18
100
AcDbEntity
  8
DRAW2
100
AcDbLine
 10
957.4890159088184
 20
185.4191638687547
 30
0.0
 11
953.8894557772735
 21
185.4191638687547
 31
0.0
  0
LINE
  5
D525
330
18
100
AcDbEntity
  8
DRAW2
100
AcDbLine
 10
957.4890159088182
 20
181.4191638687548
 30
0.0
 11
953.8894557772733
 21
181.4191638687548
 31
0.0
  0
LINE
  5
D526
330
18
100
AcDbEntity
  8
DRAW2
100
AcDbLine
 10
943.2472098413176
 20
271.4191038687538
 30
0.0
 11
903.6971598413176
 21
271.4191038687538
 31
0.0
  0
LINE
  5
D527
330
18
100
AcDbEntity
  8
DRAW2
100
AcDbLine
 10
962.4472403231662
 20
235.4191638687459
 30
0.0
 11
962.4472403231662
 21
238.9191638687458
 31
0.0
  0
LINE
  5
D528
330
18
100
AcDbEntity
  8
DRAW2
100
AcDbLine
 10
943.6972148413175
 20
258.4191438687536
 30
0.0
 11
942.6971848413176
 21
258.4191438687536
 31
0.0
  0
LINE
  5
D529
330
18
100
AcDbEntity
  8
DRAW2
100
AcDbLine
 10
912.9471598413175
 20
313.4191338687537
 30
0.0
 11
912.9471598413175
 21
330.4191338687537
 31
0.0
  0
LINE
  5
D52A
330
18
100
AcDbEntity
  8
DRAW2
100
AcDbLine
 10
928.9472198413177
 20
313.4191338687537
 30
0.0
 11
928.9472198413177
 21
330.4191338687537
 31
0.0
  0
LINE
  5
D52B
330
18
100
AcDbEntity
  8
DRAW2
100
AcDbLine
 10
943.2472098413176
 20
303.4191638687536
 30
0.0
 11
904.2472098413178
 21
303.4191638687536
 31
0.0
  0
LINE
  5
D52C
330
18
100
AcDbEntity
  8
DRAW2
100
AcDbLine
 10
943.2472098413176
 20
313.4191338687537
 30
0.0
 11
904.2472098413178
 21
313.4191338687537
 31
0.0
  0
LINE
  5
D52D
330
18
100
AcDbEntity
  8
DRAW2
100
AcDbLine
 10
928.9472198413177
 20
330.4191338687537
 30
0.0
 11
912.9471598413175
 21
330.4191338687537
 31
0.0
  0
LINE
  5
D52E
330
18
100
AcDbEntity
  8
DRAW2
100
AcDbLine
 10
926.9472198413176
 20
332.4191038687538
 30
0.0
 11
914.9472198413176
 21
332.4191038687538
 31
0.0
  0
LINE
  5
D52F
330
18
100
AcDbEntity
  8
DRAW2
100
AcDbLine
 10
914.9472198413176
 20
332.4191338687537
 30
0.0
 11
912.9472198413177
 21
330.4191338687537
 31
0.0
  0
LINE
  5
D530
330
18
100
AcDbEntity
  8
DRAW2
100
AcDbLine
 10
926.9472798413175
 20
332.4190438687537
 30
0.0
 11
928.9472798413175
 21
330.4190438687537
 31
0.0
  0
LINE
  5
D532
330
18
100
AcDbEntity
  8
DRAW2
100
AcDbLine
 10
1028.697194841317
 20
270.4191338687536
 30
0.0
 11
1028.697194841317
 21
136.4191938687535
 31
0.0
  0
LINE
  5
D533
330
18
100
AcDbEntity
  8
DRAW2
100
AcDbLine
 10
1029.697219841317
 20
271.4191038687538
 30
0.0
 11
1029.697219841317
 21
135.4191038687535
 31
0.0
  0
LINE
  5
D534
330
18
100
AcDbEntity
  8
DRAW2
100
AcDbLine
 10
1078.697219841317
 20
270.4191338687536
 30
0.0
 11
1078.697219841317
 21
136.4191038687535
 31
0.0
  0
LINE
  5
D536
330
18
100
AcDbEntity
  8
DRAW2
100
AcDbLine
 10
1068.697159841317
 20
271.4191038687538
 30
0.0
 11
1068.697159841317
 21
135.4191038687535
 31
0.0
  0
CIRCLE
  5
D537
330
18
100
AcDbEntity
  8
DRAW2
100
AcDbCircle
 10
1008.197219841316
 20
183.4191638687543
 30
0.0
 40
5.694887103024191
  0
CIRCLE
  5
D538
330
18
100
AcDbEntity
  8
DRAW3
100
AcDbCircle
 10
1008.197219841316
 20
183.4191638687543
 30
0.0
 40
6.578500006249994
  0
CIRCLE
  5
D539
330
18
100
AcDbEntity
  8
DRAW2
100
AcDbCircle
 10
1008.197219841316
 20
183.4191638687543
 30
0.0
 40
7.0
  0
CIRCLE
  5
D53A
330
18
100
AcDbEntity
  8
DRAW2
100
AcDbCircle
 10
1008.197219841316
 20
183.4191638687543
 30
0.0
 40
11.0
  0
CIRCLE
  5
D53B
330
18
100
AcDbEntity
  8
DRAW2
100
AcDbCircle
 10
1008.197219841316
 20
183.4191638687543
 30
0.0
 40
10.5
  0
LINE
  5
D53D
330
18
100
AcDbEntity
  8
DRAW2
100
AcDbLine
 10
1078.697159841317
 20
160.2291038687536
 30
0.0
 11
1098.697219841316
 21
160.2291038687536
 31
0.0
  0
LINE
  5
D53E
330
18
100
AcDbEntity
  8
DRAW2
100
AcDbLine
 10
1098.747239841316
 20
132.9191338687537
 30
0.0
 11
1096.747239841316
 21
134.9191338687537
 31
0.0
  0
LINE
  5
D53F
330
18
100
AcDbEntity
  8
DRAW2
100
AcDbLine
 10
1078.697159841317
 20
139.2291038687536
 30
0.0
 11
1098.697219841316
 21
139.2291038687536
 31
0.0
  0
LINE
  5
D541
330
18
100
AcDbEntity
  8
DRAW2
100
AcDbLine
 10
1096.747269841316
 20
103.9191338687537
 30
0.0
 11
1098.747299841317
 21
105.9191338687537
 31
0.0
  0
LINE
  5
D542
330
18
100
AcDbEntity
  8
DRAW2
100
AcDbLine
 10
1036.319469841316
 20
69.2707938687538
 30
0.0
 11
1033.447219841317
 21
88.41910386875358
 31
0.0
  0
LINE
  5
D543
330
18
100
AcDbEntity
  8
DRAW2
100
AcDbLine
 10
1066.575029841317
 20
69.27076386875365
 30
0.0
 11
1069.447279841317
 21
88.41910386875358
 31
0.0
  0
LINE
  5
D545
330
18
100
AcDbEntity
  8
DRAW2
100
AcDbLine
 10
1065.586009841317
 20
68.41907386875369
 30
0.0
 11
1037.308359841317
 21
68.41907386875369
 31
0.0
  0
ARC
  5
D546
330
18
100
AcDbEntity
  8
DRAW2
100
AcDbCircle
 10
1037.308359841317
 20
69.41910386875384
 30
0.0
 40
1.0
100
AcDbArc
 50
188.5310499999986
 51
270.0000200000018
  0
ARC
  5
D547
330
18
100
AcDbEntity
  8
DRAW2
100
AcDbCircle
 10
1065.586009841317
 20
69.41910386875384
 30
0.0
 40
1.0
100
AcDbArc
 50
270.0000200000018
 51
351.4689300000039
  0
LINE
  5
D548
330
18
100
AcDbEntity
  8
DRAW2
100
AcDbLine
 10
1029.147229841317
 20
135.4191038687535
 30
0.0
 11
1068.697219841317
 21
135.4191038687535
 31
0.0
  0
LINE
  5
D549
330
18
100
AcDbEntity
  8
DRAW2
100
AcDbLine
 10
1031.447219841317
 20
88.41907386875368
 30
0.0
 11
1071.447219841317
 21
88.41907386875368
 31
0.0
  0
LINE
  5
D54A
330
18
100
AcDbEntity
  8
DRAW2
100
AcDbLine
 10
1029.147229841317
 20
103.4190738687535
 30
0.0
 11
1071.447219841317
 21
103.4190738687535
 31
0.0
  0
LINE
  5
D54B
330
18
100
AcDbEntity
  8
DRAW2
100
AcDbLine
 10
1029.147229841317
 20
135.4191038687535
 30
0.0
 11
1029.147229841317
 21
103.4190738687535
 31
0.0
  0
LINE
  5
D54C
330
18
100
AcDbEntity
  8
DRAW2
100
AcDbLine
 10
1031.447219841317
 20
103.4190738687535
 30
0.0
 11
1031.447219841317
 21
88.41910386875358
 31
0.0
  0
LINE
  5
D551
330
18
100
AcDbEntity
  8
DRAW2
100
AcDbLine
 10
973.1972198413176
 20
156.8497698250775
 30
0.0
 11
973.1972198413176
 21
155.8528807519504
 31
0.0
  0
LINE
  5
D552
330
18
100
AcDbEntity
  8
DRAW2
100
AcDbLine
 10
973.3293353928344
 20
156.5599875331371
 30
0.0
 11
983.0651042898008
 21
156.5599875331371
 31
0.0
  0
LINE
  5
D553
330
18
100
AcDbEntity
  8
DRAW2
100
AcDbLine
 10
973.3293353928344
 20
155.145773970764
 30
0.0
 11
983.0651042898008
 21
155.145773970764
 31
0.0
  0
LINE
  5
D554
330
18
100
AcDbEntity
  8
DRAW2
100
AcDbLine
 10
983.1972198413176
 20
156.8497698250775
 30
0.0
 11
983.1972198413176
 21
155.8528807519504
 31
0.0
  0
LINE
  5
D555
330
18
100
AcDbEntity
  8
DRAW2
100
AcDbLine
 10
989.3293353928346
 20
156.5599875331371
 30
0.0
 11
999.0651042898006
 21
156.5599875331371
 31
0.0
  0
LINE
  5
D556
330
18
100
AcDbEntity
  8
DRAW2
100
AcDbLine
 10
989.3293353928346
 20
155.145773970764
 30
0.0
 11
999.0651042898006
 21
155.145773970764
 31
0.0
  0
LINE
  5
D557
330
18
100
AcDbEntity
  8
DRAW2
100
AcDbLine
 10
999.1972198413176
 20
156.8497698250775
 30
0.0
 11
999.1972198413176
 21
155.8528807519504
 31
0.0
  0
LINE
  5
D558
330
18
100
AcDbEntity
  8
DRAW2
100
AcDbLine
 10
989.1972198413176
 20
156.8497698250775
 30
0.0
 11
989.1972198413176
 21
155.8528807519504
 31
0.0
  0
LINE
  5
D559
330
18
100
AcDbEntity
  8
DRAW2
100
AcDbLine
 10
1028.697224841317
 20
148.4191338687536
 30
0.0
 11
1029.697254841317
 21
148.4191338687536
 31
0.0
  0
LINE
  5
D55A
330
18
100
AcDbEntity
  8
DRAW2
100
AcDbLine
 10
1096.747109841317
 20
103.9191038687535
 30
0.0
 11
1096.747109841317
 21
134.9192538687535
 31
0.0
  0
LINE
  5
D55B
330
18
100
AcDbEntity
  8
DRAW2
100
AcDbLine
 10
1068.147229841317
 20
135.4191038687535
 30
0.0
 11
1068.147229841317
 21
103.4190738687535
 31
0.0
  0
LINE
  5
D55C
330
18
100
AcDbEntity
  8
DRAW2
100
AcDbLine
 10
1040.947159841316
 20
103.4190738687535
 30
0.0
 11
1040.947159841316
 21
123.4190738687535
 31
0.0
  0
LINE
  5
D55D
330
18
100
AcDbEntity
  8
DRAW2
100
AcDbLine
 10
1061.947159841317
 20
103.4190738687535
 30
0.0
 11
1061.947159841317
 21
123.4190738687535
 31
0.0
  0
LINE
  5
D55E
330
18
100
AcDbEntity
  8
DRAW2
100
AcDbLine
 10
1040.947159841316
 20
123.4190438687537
 30
0.0
 11
1061.947159841317
 21
123.4190438687537
 31
0.0
  0
LINE
  5
D55F
330
18
100
AcDbEntity
  8
DRAW2
100
AcDbLine
 10
1042.947189841316
 20
125.4190738687535
 30
0.0
 11
1059.947159841317
 21
125.4190738687535
 31
0.0
  0
LINE
  5
D560
330
18
100
AcDbEntity
  8
DRAW2
100
AcDbLine
 10
1040.947129841317
 20
123.4190138687538
 30
0.0
 11
1042.947129841317
 21
125.4190138687538
 31
0.0
  0
LINE
  5
D561
330
18
100
AcDbEntity
  8
DRAW2
100
AcDbLine
 10
1059.947069841316
 20
125.4190738687535
 30
0.0
 11
1061.947069841317
 21
123.4190438687537
 31
0.0
  0
LINE
  5
D562
330
18
100
AcDbEntity
  8
DRAW2
100
AcDbLine
 10
1068.147229841317
 20
103.9191038687535
 30
0.0
 11
1096.747109841317
 21
103.9191038687535
 31
0.0
  0
LINE
  5
D563
330
18
100
AcDbEntity
  8
DRAW2
100
AcDbLine
 10
1071.447219841317
 20
103.4190738687535
 30
0.0
 11
1071.447219841317
 21
88.41910386875358
 31
0.0
  0
LINE
  5
D564
330
18
100
AcDbEntity
  8
DRAW2
100
AcDbLine
 10
1068.147229841317
 20
134.9191038687535
 30
0.0
 11
1096.747269841316
 21
134.9191038687535
 31
0.0
  0
LINE
  5
D565
330
18
100
AcDbEntity
  8
DRAW2
100
AcDbLine
 10
1068.697219841317
 20
136.4191038687535
 30
0.0
 11
1078.697159841317
 21
136.4191038687535
 31
0.0
  0
LINE
  5
D567
330
18
100
AcDbEntity
  8
DRAW2
100
AcDbLine
 10
1098.747239841316
 20
132.9191338687537
 30
0.0
 11
1098.747239841316
 21
105.9191638687535
 31
0.0
  0
LINE
  5
D568
330
18
100
AcDbEntity
  8
DRAW2
100
AcDbLine
 10
1100.697219841317
 20
158.2291038687536
 30
0.0
 11
1100.697219841317
 21
141.2291038687536
 31
0.0
  0
LINE
  5
D569
330
18
100
AcDbEntity
  8
DRAW2
100
AcDbLine
 10
1098.697219841316
 20
160.2291038687536
 30
0.0
 11
1098.697219841316
 21
139.2291038687536
 31
0.0
  0
LINE
  5
D56A
330
18
100
AcDbEntity
  8
DRAW2
100
AcDbLine
 10
1100.697219841317
 20
141.2291338687536
 30
0.0
 11
1098.697249841317
 21
139.2291338687537
 31
0.0
  0
LINE
  5
D56B
330
18
100
AcDbEntity
  8
DRAW2
100
AcDbLine
 10
1098.697219841316
 20
160.2291038687536
 30
0.0
 11
1100.697219841317
 21
158.2291038687536
 31
0.0
  0
LINE
  5
D56C
330
18
100
AcDbEntity
  8
DRAW2
100
AcDbLine
 10
1096.747239841316
 20
302.9190738687536
 30
0.0
 11
1098.747269841316
 21
300.9190738687536
 31
0.0
  0
LINE
  5
D56D
330
18
100
AcDbEntity
  8
DRAW2
100
AcDbLine
 10
1098.747299841317
 20
273.9190738687535
 30
0.0
 11
1096.747209841317
 21
271.9189838687535
 31
0.0
  0
LINE
  5
D56F
330
18
100
AcDbEntity
  8
DRAW2
100
AcDbLine
 10
1078.697159841317
 20
267.6091338687538
 30
0.0
 11
1098.697219841316
 21
267.6091338687538
 31
0.0
  0
LINE
  5
D570
330
18
100
AcDbEntity
  8
DRAW2
100
AcDbLine
 10
1078.697159841317
 20
246.6091338687538
 30
0.0
 11
1098.697219841316
 21
246.6091338687538
 31
0.0
  0
LINE
  5
D571
330
18
100
AcDbEntity
  8
DRAW2
100
AcDbLine
 10
1078.697159841317
 20
213.9191338687536
 30
0.0
 11
1098.697219841316
 21
213.9191338687536
 31
0.0
  0
LINE
  5
D572
330
18
100
AcDbEntity
  8
DRAW2
100
AcDbLine
 10
1078.697159841317
 20
192.9190738687536
 30
0.0
 11
1098.697219841316
 21
192.9190738687536
 31
0.0
  0
LINE
  5
D573
330
18
100
AcDbEntity
  8
DRAW2
100
AcDbLine
 10
983.1972403231663
 20
255.4020795800996
 30
0.0
 11
983.1972403231663
 21
278.3739847439047
 31
0.0
  0
LINE
  5
D574
330
18
100
AcDbEntity
  8
DRAW2
100
AcDbLine
 10
989.1972403231664
 20
255.4020795800996
 30
0.0
 11
989.1972403231664
 21
279.3742954729529
 31
0.0
  0
LINE
  5
D575
330
18
100
AcDbEntity
  8
DRAW2
100
AcDbLine
 10
1096.747209841317
 20
271.9189838687535
 30
0.0
 11
1096.747209841317
 21
302.9191338687537
 31
0.0
  0
LINE
  5
D576
330
18
100
AcDbEntity
  8
DRAW2
100
AcDbLine
 10
1068.147229841317
 20
271.4191038687538
 30
0.0
 11
1068.147229841317
 21
313.4191338687537
 31
0.0
  0
LINE
  5
D577
330
18
100
AcDbEntity
  8
DRAW2
100
AcDbLine
 10
1029.147229841317
 20
271.4191038687538
 30
0.0
 11
1029.147229841317
 21
313.4191338687537
 31
0.0
  0
LINE
  5
D579
330
18
100
AcDbEntity
  8
DRAW2
100
AcDbLine
 10
1029.147229841317
 20
271.4191038687538
 30
0.0
 11
1068.697219841317
 21
271.4191038687538
 31
0.0
  0
LINE
  5
D57A
330
18
100
AcDbEntity
  8
DRAW2
100
AcDbLine
 10
1001.489015908818
 20
181.4191638687548
 30
0.0
 11
997.8894557772733
 21
181.4191638687548
 31
0.0
  0
LINE
  5
D57B
330
18
100
AcDbEntity
  8
DRAW2
100
AcDbLine
 10
1001.489015908818
 20
185.4191638687547
 30
0.0
 11
997.8894557772736
 21
185.4191638687547
 31
0.0
  0
LINE
  5
D57C
330
18
100
AcDbEntity
  8
DRAW2
100
AcDbLine
 10
970.905423773817
 20
181.4191638687548
 30
0.0
 11
974.5049839053619
 21
181.4191638687548
 31
0.0
  0
LINE
  5
D57D
330
18
100
AcDbEntity
  8
DRAW2
100
AcDbLine
 10
970.9054237738167
 20
185.4191638687547
 30
0.0
 11
974.5049839053617
 21
185.4191638687547
 31
0.0
  0
LINE
  5
D57E
330
18
100
AcDbEntity
  8
DRAW2
100
AcDbLine
 10
1014.905423773817
 20
181.4191638687548
 30
0.0
 11
1018.504983905361
 21
181.4191638687548
 31
0.0
  0
LINE
  5
D57F
330
18
100
AcDbEntity
  8
DRAW2
100
AcDbLine
 10
1014.905423773816
 20
185.4191638687547
 30
0.0
 11
1018.504983905361
 21
185.4191638687547
 31
0.0
  0
CIRCLE
  5
D580
330
18
100
AcDbEntity
  8
DRAW2
100
AcDbCircle
 10
1008.197219841316
 20
183.4191638687543
 30
0.0
 40
2.5
  0
LINE
  5
D582
330
18
100
AcDbEntity
  8
DRAW2
100
AcDbLine
 10
1028.697194841317
 20
270.4191338687536
 30
0.0
 11
989.197233062471
 21
270.4191338687536
 31
0.0
  0
LINE
  5
D583
330
18
100
AcDbEntity
  8
DRAW2
100
AcDbLine
 10
980.3082675774319
 20
247.6342597071331
 30
0.0
 11
980.3082675774319
 21
256.6590753538471
 31
0.0
  0
LINE
  5
D584
330
18
100
AcDbEntity
  8
DRAW2
100
AcDbLine
 10
992.0862130689002
 20
256.6590753538473
 30
0.0
 11
992.0862130689002
 21
247.6342597071329
 31
0.0
  0
LINE
  5
D585
330
18
100
AcDbEntity
  8
DRAW2
100
AcDbLine
 10
980.3082675774319
 20
250.4916425391531
 30
0.0
 11
986.197240322812
 21
247.6155513253647
 31
0.0
  0
LINE
  5
D586
330
18
100
AcDbEntity
  8
DRAW2
100
AcDbLine
 10
986.1972403231664
 20
247.6155513253647
 30
0.0
 11
992.0862130689002
 21
250.491642539153
 31
0.0
  0
LINE
  5
D587
330
18
100
AcDbEntity
  8
DRAW2
100
AcDbLine
 10
980.3082675774319
 20
247.6342597071331
 30
0.0
 11
986.197240322812
 21
244.7581684933448
 31
0.0
  0
LINE
  5
D588
330
18
100
AcDbEntity
  8
DRAW2
100
AcDbLine
 10
982.7806255328109
 20
243.7021130611773
 30
0.0
 11
989.4138751135216
 21
243.7021130611773
 31
0.0
  0
LINE
  5
D589
330
18
100
AcDbEntity
  8
DRAW2
100
AcDbLine
 10
982.7806255328109
 20
240.7021130611771
 30
0.0
 11
989.4138751135216
 21
240.7021130611771
 31
0.0
  0
LINE
  5
D58A
330
18
100
AcDbEntity
  8
DRAW2
100
AcDbLine
 10
969.7427576512621
 20
228.6919225328019
 30
0.0
 11
971.242757651262
 21
229.4419225328018
 31
0.0
  0
LINE
  5
D58B
330
18
100
AcDbEntity
  8
DRAW2
100
AcDbLine
 10
968.2427576512621
 20
229.4419225328018
 30
0.0
 11
969.7427576512621
 21
228.6919225328019
 31
0.0
  0
LINE
  5
D58C
330
18
100
AcDbEntity
  8
DRAW2
100
AcDbLine
 10
969.7427576512621
 20
231.6919225328017
 30
0.0
 11
971.242757651262
 21
230.9419225328017
 31
0.0
  0
LINE
  5
D58D
330
18
100
AcDbEntity
  8
DRAW2
100
AcDbLine
 10
968.2427576512621
 20
230.9419225328017
 30
0.0
 11
969.7427576512621
 21
231.6919225328017
 31
0.0
  0
LINE
  5
D58E
330
18
100
AcDbEntity
  8
DRAW2
100
AcDbLine
 10
971.242757651262
 20
230.9419225328017
 30
0.0
 11
971.242757651262
 21
229.4419225328018
 31
0.0
  0
LINE
  5
D58F
330
18
100
AcDbEntity
  8
DRAW2
100
AcDbLine
 10
968.2427576512621
 20
229.4419225328018
 30
0.0
 11
968.2427576512621
 21
230.9419225328017
 31
0.0
  0
LINE
  5
D590
330
18
100
AcDbEntity
  8
DRAW2
100
AcDbLine
 10
981.0972503231663
 20
244.8689553416679
 30
0.0
 11
981.0972503231663
 21
247.2489316642044
 31
0.0
  0
LINE
  5
D591
330
18
100
AcDbEntity
  8
DRAW2
100
AcDbLine
 10
982.7806255328113
 20
243.7021130611773
 30
0.0
 11
981.0972503231663
 21
244.8689553416679
 31
0.0
  0
LINE
  5
D592
330
18
100
AcDbEntity
  8
DRAW2
100
AcDbLine
 10
981.0972503231663
 20
241.8689553416678
 30
0.0
 11
981.0972503231663
 21
244.8689553416679
 31
0.0
  0
LINE
  5
D593
330
18
100
AcDbEntity
  8
DRAW2
100
AcDbLine
 10
982.7806255328109
 20
240.7021130611771
 30
0.0
 11
982.7806255328109
 21
243.7021130611773
 31
0.0
  0
LINE
  5
D594
330
18
100
AcDbEntity
  8
DRAW2
100
AcDbLine
 10
982.7806255328113
 20
240.7021130611771
 30
0.0
 11
981.0972503231663
 21
241.8689553416678
 31
0.0
  0
LINE
  5
D595
330
18
100
AcDbEntity
  8
DRAW2
100
AcDbLine
 10
986.1972403231664
 20
244.7581684933448
 30
0.0
 11
992.0862130689002
 21
247.6342597071331
 31
0.0
  0
LINE
  5
D596
330
18
100
AcDbEntity
  8
DRAW2
100
AcDbLine
 10
986.1972403231664
 20
247.6155513253647
 30
0.0
 11
986.1972403231664
 21
244.7581684933448
 31
0.0
  0
LINE
  5
D598
330
18
100
AcDbEntity
  8
DRAW2
100
AcDbLine
 10
991.0972503231663
 20
244.8689553416679
 30
0.0
 11
991.0972503231663
 21
247.1512642533284
 31
0.0
  0
LINE
  5
D599
330
18
100
AcDbEntity
  8
DRAW2
100
AcDbLine
 10
989.4138751135216
 20
243.7021130611773
 30
0.0
 11
991.0972503231663
 21
244.8689553416679
 31
0.0
  0
LINE
  5
D59A
330
18
100
AcDbEntity
  8
DRAW2
100
AcDbLine
 10
989.4138751135216
 20
240.7021130611771
 30
0.0
 11
989.4138751135216
 21
243.7021130611773
 31
0.0
  0
LINE
  5
D59B
330
18
100
AcDbEntity
  8
DRAW2
100
AcDbLine
 10
991.0972503231663
 20
241.8689553416678
 30
0.0
 11
991.0972503231663
 21
244.8689553416679
 31
0.0
  0
LINE
  5
D59C
330
18
100
AcDbEntity
  8
DRAW2
100
AcDbLine
 10
989.4138751135216
 20
240.7021130611771
 30
0.0
 11
991.0972503231663
 21
241.8689553416678
 31
0.0
  0
LINE
  5
D59D
330
18
100
AcDbEntity
  8
DRAW2
100
AcDbLine
 10
982.880383599392
 20
259.2197227681708
 30
0.0
 11
983.1972403231663
 21
259.5351666841982
 31
0.0
  0
LINE
  5
D59E
330
18
100
AcDbEntity
  8
DRAW2
100
AcDbLine
 10
980.4472403231663
 20
255.1520795800993
 30
0.0
 11
980.4472403231663
 21
253.9020795800992
 31
0.0
  0
LINE
  5
D59F
330
18
100
AcDbEntity
  8
DRAW2
100
AcDbLine
 10
980.3082675774319
 20
256.6590753538471
 30
0.0
 11
981.0862744254279
 21
257.4336132077534
 31
0.0
  0
LINE
  5
D5A0
330
18
100
AcDbEntity
  8
DRAW2
100
AcDbLine
 10
991.9472403231663
 20
253.9020795800992
 30
0.0
 11
991.9472403231663
 21
255.1520795800993
 31
0.0
  0
LINE
  5
D5A1
330
18
100
AcDbEntity
  8
DRAW2
100
AcDbLine
 10
992.0862130689002
 20
256.6590753538473
 30
0.0
 11
991.3082062209047
 21
257.4336132077535
 31
0.0
  0
LINE
  5
D5A2
330
18
100
AcDbEntity
  8
DRAW2
100
AcDbLine
 10
989.5140970469402
 20
259.2197227681708
 30
0.0
 11
989.1972403231664
 21
259.5351666841982
 31
0.0
  0
LINE
  5
D5A3
330
18
100
AcDbEntity
  8
DRAW2
100
AcDbLine
 10
1009.947240323165
 20
235.4191638687459
 30
0.0
 11
1009.947240323165
 21
238.9191638687458
 31
0.0
  0
LINE
  5
D5A4
330
18
100
AcDbEntity
  8
DRAW2
100
AcDbLine
 10
1001.151722995069
 20
230.9419225328017
 30
0.0
 11
1002.651722995069
 21
231.6919225328017
 31
0.0
  0
LINE
  5
D5A5
330
18
100
AcDbEntity
  8
DRAW2
100
AcDbLine
 10
1002.651722995069
 20
231.6919225328017
 30
0.0
 11
1004.15172299507
 21
230.9419225328017
 31
0.0
  0
LINE
  5
D5A6
330
18
100
AcDbEntity
  8
DRAW2
100
AcDbLine
 10
1001.151722995069
 20
229.4419225328018
 30
0.0
 11
1002.651722995069
 21
228.6919225328019
 31
0.0
  0
LINE
  5
D5A7
330
18
100
AcDbEntity
  8
DRAW2
100
AcDbLine
 10
1002.651722995069
 20
228.6919225328019
 30
0.0
 11
1004.15172299507
 21
229.4419225328018
 31
0.0
  0
LINE
  5
D5A8
330
18
100
AcDbEntity
  8
DRAW2
100
AcDbLine
 10
1004.15172299507
 20
230.9419225328017
 30
0.0
 11
1004.15172299507
 21
229.4419225328018
 31
0.0
  0
LINE
  5
D5A9
330
18
100
AcDbEntity
  8
DRAW2
100
AcDbLine
 10
1001.151722995069
 20
229.4419225328018
 30
0.0
 11
1001.151722995069
 21
230.9419225328017
 31
0.0
  0
LINE
  5
D5AA
330
18
100
AcDbEntity
  8
DRAW2
100
AcDbLine
 10
1028.697224841317
 20
258.4191438687536
 30
0.0
 11
1029.697254841317
 21
258.4191438687536
 31
0.0
  0
LINE
  5
D5AB
330
18
100
AcDbEntity
  8
DRAW2
100
AcDbLine
 10
1068.147229841317
 20
271.9191338687537
 30
0.0
 11
1096.747209841317
 21
271.9191338687537
 31
0.0
  0
LINE
  5
D5AC
330
18
100
AcDbEntity
  8
DRAW2
100
AcDbLine
 10
1068.697219841317
 20
270.4191338687536
 30
0.0
 11
1078.697159841317
 21
270.4191338687536
 31
0.0
  0
LINE
  5
D5AD
330
18
100
AcDbEntity
  8
DRAW2
100
AcDbLine
 10
1029.147229841317
 20
303.4191638687536
 30
0.0
 11
1068.147229841317
 21
303.4191638687536
 31
0.0
  0
LINE
  5
D5AE
330
18
100
AcDbEntity
  8
DRAW2
100
AcDbLine
 10
1029.147229841317
 20
313.4191338687537
 30
0.0
 11
1068.147229841317
 21
313.4191338687537
 31
0.0
  0
LINE
  5
D5AF
330
18
100
AcDbEntity
  8
DRAW2
100
AcDbLine
 10
989.1972330624714
 20
274.9191338687537
 30
0.0
 11
1029.147229841317
 21
274.9191338687537
 31
0.0
  0
LINE
  5
D5B0
330
18
100
AcDbEntity
  8
DRAW2
100
AcDbLine
 10
1059.447219841316
 20
313.4191338687537
 30
0.0
 11
1059.447219841316
 21
330.4191338687537
 31
0.0
  0
LINE
  5
D5B1
330
18
100
AcDbEntity
  8
DRAW2
100
AcDbLine
 10
1043.447219841317
 20
313.4191338687537
 30
0.0
 11
1043.447219841317
 21
330.4191338687537
 31
0.0
  0
LINE
  5
D5B2
330
18
100
AcDbEntity
  8
DRAW2
100
AcDbLine
 10
1068.147229841317
 20
302.9191038687538
 30
0.0
 11
1096.747209841317
 21
302.9191038687538
 31
0.0
  0
LINE
  5
D5B3
330
18
100
AcDbEntity
  8
DRAW2
100
AcDbLine
 10
1043.447219841317
 20
330.4191338687537
 30
0.0
 11
1059.447219841316
 21
330.4191338687537
 31
0.0
  0
LINE
  5
D5B4
330
18
100
AcDbEntity
  8
DRAW2
100
AcDbLine
 10
1045.447219841317
 20
332.4191038687538
 30
0.0
 11
1057.447219841317
 21
332.4191038687538
 31
0.0
  0
LINE
  5
D5B5
330
18
100
AcDbEntity
  8
DRAW2
100
AcDbLine
 10
1045.447219841317
 20
332.4191338687537
 30
0.0
 11
1043.447219841317
 21
330.4191338687537
 31
0.0
  0
LINE
  5
D5B6
330
18
100
AcDbEntity
  8
DRAW2
100
AcDbLine
 10
1057.447279841316
 20
332.4190738687537
 30
0.0
 11
1059.447159841317
 21
330.4191638687536
 31
0.0
  0
LINE
  5
D5B9
330
18
100
AcDbEntity
  8
DRAW2
100
AcDbLine
 10
1098.697219841316
 20
213.9191338687536
 30
0.0
 11
1098.697219841316
 21
192.9190738687536
 31
0.0
  0
LINE
  5
D5BA
330
18
100
AcDbEntity
  8
DRAW2
100
AcDbLine
 10
1100.697219841317
 20
211.9191038687535
 30
0.0
 11
1100.697219841317
 21
194.9191338687537
 31
0.0
  0
LINE
  5
D5BB
330
18
100
AcDbEntity
  8
DRAW2
100
AcDbLine
 10
1100.697219841317
 20
194.9190738687535
 30
0.0
 11
1098.697219841316
 21
192.9190738687536
 31
0.0
  0
LINE
  5
D5BC
330
18
100
AcDbEntity
  8
DRAW2
100
AcDbLine
 10
1098.697279841317
 20
213.9190738687537
 30
0.0
 11
1100.697279841317
 21
211.9190738687537
 31
0.0
  0
LINE
  5
D5BD
330
18
100
AcDbEntity
  8
DRAW2
100
AcDbLine
 10
1100.697219841317
 20
265.6091338687537
 30
0.0
 11
1100.697219841317
 21
248.6091038687535
 31
0.0
  0
LINE
  5
D5BE
330
18
100
AcDbEntity
  8
DRAW2
100
AcDbLine
 10
1098.697219841316
 20
267.6091338687538
 30
0.0
 11
1098.697219841316
 21
246.6091338687538
 31
0.0
  0
LINE
  5
D5BF
330
18
100
AcDbEntity
  8
DRAW2
100
AcDbLine
 10
1100.697189841316
 20
248.6091038687535
 30
0.0
 11
1098.697219841316
 21
246.6091338687538
 31
0.0
  0
LINE
  5
D5C0
330
18
100
AcDbEntity
  8
DRAW2
100
AcDbLine
 10
1098.697249841317
 20
267.6091038687536
 30
0.0
 11
1100.697279841317
 21
265.6090738687536
 31
0.0
  0
LINE
  5
D5C1
330
18
100
AcDbEntity
  8
DRAW2
100
AcDbLine
 10
1098.747239841316
 20
273.9191338687537
 30
0.0
 11
1098.747239841316
 21
300.9191338687537
 31
0.0
  0
LINE
  5
D5C2
330
18
100
AcDbEntity
  8
DRAW2
100
AcDbLine
 10
980.5739192595448
 20
418.2070850409691
 30
0.0
 11
943.6972198413178
 21
418.2070850409689
 31
0.0
  0
LINE
  5
D5C3
330
18
100
AcDbEntity
  8
DRAW2
100
AcDbLine
 10
943.6972198413178
 20
566.2070850409691
 30
0.0
 11
1028.697219841317
 21
566.2070850409691
 31
0.0
  0
LINE
  5
D5C4
330
18
100
AcDbEntity
  8
DRAW2
100
AcDbLine
 10
1028.697219841317
 20
523.6236411857788
 30
0.0
 11
943.6972198413178
 21
523.6236411857788
 31
0.0
  0
LINE
  5
D5C5
330
18
100
AcDbEntity
  8
DRAW2
100
AcDbLine
 10
1028.697219841317
 20
460.790528896159
 30
0.0
 11
943.6972198413178
 21
460.790528896159
 31
0.0
  0
LINE
  5
D5C6
330
18
100
AcDbEntity
  8
DRAW2
100
AcDbLine
 10
1029.247219841317
 20
479.7070850409689
 30
0.0
 11
943.2472198413178
 21
479.7070850409689
 31
0.0
  0
LINE
  5
D5C7
330
18
100
AcDbEntity
  8
DRAW2
100
AcDbLine
 10
1029.247219841317
 20
504.7070850409689
 30
0.0
 11
943.2472198413178
 21
504.7070850409689
 31
0.0
  0
LINE
  5
D5C8
330
18
100
AcDbEntity
  8
DRAW2
100
AcDbLine
 10
974.6972198413176
 20
405.2170506664223
 30
0.0
 11
953.6972198413176
 21
405.2170506664223
 31
0.0
  0
LINE
  5
D5C9
330
18
100
AcDbEntity
  8
DRAW2
100
AcDbLine
 10
873.6972198413177
 20
564.7070850409692
 30
0.0
 11
873.6972198413177
 21
543.7070850409692
 31
0.0
  0
LINE
  5
D5CA
330
18
100
AcDbEntity
  8
DRAW2
100
AcDbLine
 10
871.6972198413179
 20
562.707085040969
 30
0.0
 11
871.6972198413179
 21
545.707085040969
 31
0.0
  0
LINE
  5
D5CB
330
18
100
AcDbEntity
  8
DRAW2
100
AcDbLine
 10
893.6972198413178
 20
543.7070850409692
 30
0.0
 11
893.6972198413178
 21
564.7070850409692
 31
0.0
  0
LINE
  5
D5CC
330
18
100
AcDbEntity
  8
DRAW2
100
AcDbLine
 10
942.6972198413178
 20
566.2070850409691
 30
0.0
 11
942.6972198413178
 21
526.2070850409692
 31
0.0
  0
LINE
  5
D5CD
330
18
100
AcDbEntity
  8
DRAW2
100
AcDbLine
 10
893.6972198413178
 20
566.2070850409691
 30
0.0
 11
893.6972198413178
 21
418.2070850409689
 31
0.0
  0
LINE
  5
D5CE
330
18
100
AcDbEntity
  8
DRAW2
100
AcDbLine
 10
893.6972198413178
 20
566.2070850409691
 30
0.0
 11
893.6972198413178
 21
418.2070850409689
 31
0.0
  0
LINE
  5
D5CF
330
18
100
AcDbEntity
  8
DRAW2
100
AcDbLine
 10
903.6972198413176
 20
566.2070850409691
 30
0.0
 11
903.6972198413176
 21
418.2070850409689
 31
0.0
  0
LINE
  5
D5D0
330
18
100
AcDbEntity
  8
DRAW2
100
AcDbLine
 10
903.6972198413176
 20
566.2070850409691
 30
0.0
 11
903.6972198413176
 21
418.2070850409689
 31
0.0
  0
LINE
  5
D5D1
330
18
100
AcDbEntity
  8
DRAW2
100
AcDbLine
 10
943.6972198413178
 20
566.2070850409691
 30
0.0
 11
943.6972198413178
 21
418.2070850409689
 31
0.0
  0
LINE
  5
D5D2
330
18
100
AcDbEntity
  8
DRAW2
100
AcDbLine
 10
904.2472198413175
 20
526.2070850409692
 30
0.0
 11
904.2472198413175
 21
458.207085040969
 31
0.0
  0
LINE
  5
D5D3
330
18
100
AcDbEntity
  8
DRAW2
100
AcDbLine
 10
943.2472198413178
 20
526.2070850409692
 30
0.0
 11
943.2472198413178
 21
458.207085040969
 31
0.0
  0
LINE
  5
D5D4
330
18
100
AcDbEntity
  8
DRAW2
100
AcDbLine
 10
873.6972198413177
 20
471.7070850409688
 30
0.0
 11
873.6972198413177
 21
450.7070850409689
 31
0.0
  0
LINE
  5
D5D5
330
18
100
AcDbEntity
  8
DRAW2
100
AcDbLine
 10
871.6972198413179
 20
469.7070850409688
 30
0.0
 11
871.6972198413179
 21
452.7070850409688
 31
0.0
  0
LINE
  5
D5D6
330
18
100
AcDbEntity
  8
DRAW2
100
AcDbLine
 10
893.6972198413178
 20
450.7070850409689
 30
0.0
 11
893.6972198413178
 21
471.7070850409688
 31
0.0
  0
LINE
  5
D5D7
330
18
100
AcDbEntity
  8
DRAW2
100
AcDbLine
 10
903.6972198413176
 20
418.2070850409689
 30
0.0
 11
893.6972198413178
 21
418.2070850409689
 31
0.0
  0
LINE
  5
D5D9
330
18
100
AcDbEntity
  8
DRAW2
100
AcDbLine
 10
893.6972198413178
 20
419.7070850409688
 30
0.0
 11
893.6972198413178
 21
440.7070850409688
 31
0.0
  0
LINE
  5
D5DA
330
18
100
AcDbEntity
  8
DRAW2
100
AcDbLine
 10
871.6972198413179
 20
438.7070850409688
 30
0.0
 11
871.6972198413177
 21
421.7070850409688
 31
0.0
  0
LINE
  5
D5DB
330
18
100
AcDbEntity
  8
DRAW2
100
AcDbLine
 10
873.6972198413177
 20
440.7070850409688
 30
0.0
 11
873.6972198413177
 21
419.7070850409688
 31
0.0
  0
LINE
  5
D5DC
330
18
100
AcDbEntity
  8
DRAW2
100
AcDbLine
 10
873.6972198413177
 20
419.7070850409688
 30
0.0
 11
893.6972198413178
 21
419.7070850409688
 31
0.0
  0
LINE
  5
D5DD
330
18
100
AcDbEntity
  8
DRAW2
100
AcDbLine
 10
871.6972198413177
 20
421.7070850409688
 30
0.0
 11
873.6972198413177
 21
419.7070850409688
 31
0.0
  0
LINE
  5
D5DE
330
18
100
AcDbEntity
  8
DRAW2
100
AcDbLine
 10
873.6972198413177
 20
450.7070850409689
 30
0.0
 11
893.6972198413178
 21
450.7070850409689
 31
0.0
  0
LINE
  5
D5DF
330
18
100
AcDbEntity
  8
DRAW2
100
AcDbLine
 10
893.6972198413178
 20
440.7070850409688
 30
0.0
 11
873.6972198413177
 21
440.7070850409688
 31
0.0
  0
LINE
  5
D5E0
330
18
100
AcDbEntity
  8
DRAW2
100
AcDbLine
 10
871.6972198413179
 20
452.7070850409688
 30
0.0
 11
873.6972198413177
 21
450.7070850409689
 31
0.0
  0
LINE
  5
D5E1
330
18
100
AcDbEntity
  8
DRAW2
100
AcDbLine
 10
873.6972198413177
 20
440.7070850409688
 30
0.0
 11
871.6972198413179
 21
438.7070850409688
 31
0.0
  0
LINE
  5
D5E3
330
18
100
AcDbEntity
  8
DRAW2
100
AcDbLine
 10
953.6972198413176
 20
405.2170506664223
 30
0.0
 11
953.6972198413176
 21
418.2070850409689
 31
0.0
  0
LINE
  5
D5E4
330
18
100
AcDbEntity
  8
DRAW2
100
AcDbLine
 10
904.2472198413175
 20
458.207085040969
 30
0.0
 11
943.2472198413178
 21
458.207085040969
 31
0.0
  0
LINE
  5
D5E5
330
18
100
AcDbEntity
  8
DRAW2
100
AcDbLine
 10
903.6972198413176
 20
418.2070850409689
 30
0.0
 11
942.6972198413178
 21
418.2070850409689
 31
0.0
  0
LINE
  5
D5E6
330
18
100
AcDbEntity
  8
DRAW2
100
AcDbLine
 10
942.6972198413178
 20
458.207085040969
 30
0.0
 11
942.6972198413178
 21
418.2070850409689
 31
0.0
  0
LINE
  5
D5E7
330
18
100
AcDbEntity
  8
DRAW2
100
AcDbLine
 10
962.4024824643331
 20
433.1513905190573
 30
0.0
 11
962.4024824643331
 21
430.7192813722741
 31
0.0
  0
LINE
  5
D5E8
330
18
100
AcDbEntity
  8
DRAW2
100
AcDbLine
 10
903.6972198413176
 20
460.7905291144028
 30
0.0
 11
893.6972198413178
 21
460.7905291144028
 31
0.0
  0
LINE
  5
D5E9
330
18
100
AcDbEntity
  8
DRAW2
100
AcDbLine
 10
903.6972198413176
 20
523.623676048649
 30
0.0
 11
893.6972198413178
 21
523.623676048649
 31
0.0
  0
LINE
  5
D5EB
330
18
100
AcDbEntity
  8
DRAW2
100
AcDbLine
 10
893.6972198413178
 20
471.7070850409688
 30
0.0
 11
873.6972198413177
 21
471.7070850409688
 31
0.0
  0
LINE
  5
D5EC
330
18
100
AcDbEntity
  8
DRAW2
100
AcDbLine
 10
873.6972198413177
 20
471.7070850409688
 30
0.0
 11
871.6972198413179
 21
469.7070850409688
 31
0.0
  0
LINE
  5
D5EE
330
18
100
AcDbEntity
  8
DRAW2
100
AcDbLine
 10
893.6972198413178
 20
512.7070850409689
 30
0.0
 11
893.6972198413178
 21
533.7070850409689
 31
0.0
  0
LINE
  5
D5EF
330
18
100
AcDbEntity
  8
DRAW2
100
AcDbLine
 10
871.6972198413177
 20
531.7070850409687
 30
0.0
 11
871.6972198413177
 21
514.7070850409687
 31
0.0
  0
LINE
  5
D5F0
330
18
100
AcDbEntity
  8
DRAW2
100
AcDbLine
 10
873.6972198413177
 20
533.7070850409689
 30
0.0
 11
873.6972198413177
 21
512.7070850409689
 31
0.0
  0
LINE
  5
D5F1
330
18
100
AcDbEntity
  8
DRAW2
100
AcDbLine
 10
873.6972198413177
 20
512.7070850409689
 30
0.0
 11
893.6972198413178
 21
512.7070850409689
 31
0.0
  0
LINE
  5
D5F2
330
18
100
AcDbEntity
  8
DRAW2
100
AcDbLine
 10
871.6972198413177
 20
514.7070850409687
 30
0.0
 11
873.6972198413177
 21
512.7070850409689
 31
0.0
  0
LINE
  5
D5F3
330
18
100
AcDbEntity
  8
DRAW2
100
AcDbLine
 10
873.6972198413177
 20
543.7070850409692
 30
0.0
 11
893.6972198413178
 21
543.7070850409692
 31
0.0
  0
LINE
  5
D5F4
330
18
100
AcDbEntity
  8
DRAW2
100
AcDbLine
 10
893.6972198413178
 20
533.7070850409689
 30
0.0
 11
873.6972198413177
 21
533.7070850409689
 31
0.0
  0
LINE
  5
D5F5
330
18
100
AcDbEntity
  8
DRAW2
100
AcDbLine
 10
871.6972198413179
 20
545.707085040969
 30
0.0
 11
873.6972198413177
 21
543.7070850409692
 31
0.0
  0
LINE
  5
D5F6
330
18
100
AcDbEntity
  8
DRAW2
100
AcDbLine
 10
873.6972198413177
 20
533.7070850409689
 30
0.0
 11
871.6972198413177
 21
531.7070850409687
 31
0.0
  0
LINE
  5
D5F7
330
18
100
AcDbEntity
  8
DRAW2
100
AcDbLine
 10
904.2472198413175
 20
522.2070850409692
 30
0.0
 11
904.2472198413175
 21
462.2070850409691
 31
0.0
  0
LINE
  5
D5F8
330
18
100
AcDbEntity
  8
DRAW2
100
AcDbLine
 10
943.2472198413178
 20
462.2070850409691
 30
0.0
 11
943.2472198413178
 21
522.2070850409692
 31
0.0
  0
LINE
  5
D5F9
330
18
100
AcDbEntity
  8
DRAW2
100
AcDbLine
 10
943.2472198413178
 20
462.207085040969
 30
0.0
 11
904.2472198413175
 21
462.207085040969
 31
0.0
  0
LINE
  5
D5FA
330
18
100
AcDbEntity
  8
DRAW2
100
AcDbLine
 10
904.2472198413175
 20
462.2070850409691
 30
0.0
 11
943.2472198413178
 21
462.2070850409691
 31
0.0
  0
CIRCLE
  5
D5FB
330
18
100
AcDbEntity
  8
DRAW2
100
AcDbCircle
 10
920.9472198413177
 20
470.207085040969
 30
0.0
 40
6.0
  0
CIRCLE
  5
D5FC
330
18
100
AcDbEntity
  8
DRAW2
100
AcDbCircle
 10
920.9472198413177
 20
470.207085040969
 30
0.0
 40
8.0
  0
LINE
  5
D5FD
330
18
100
AcDbEntity
  8
DRAW2
100
AcDbLine
 10
943.2472198413178
 20
522.2070850409692
 30
0.0
 11
904.2472198413175
 21
522.2070850409692
 31
0.0
  0
LINE
  5
D5FE
330
18
100
AcDbEntity
  8
DRAW2
100
AcDbLine
 10
904.2472198413175
 20
526.2070850409692
 30
0.0
 11
943.2472198413178
 21
526.2070850409692
 31
0.0
  0
LINE
  5
D5FF
330
18
100
AcDbEntity
  8
DRAW2
100
AcDbLine
 10
943.2472198413178
 20
522.2070850409692
 30
0.0
 11
904.2472198413175
 21
522.2070850409692
 31
0.0
  0
CIRCLE
  5
D600
330
18
100
AcDbEntity
  8
DRAW2
100
AcDbCircle
 10
920.9472198413177
 20
514.2070850409692
 30
0.0
 40
6.0
  0
CIRCLE
  5
D601
330
18
100
AcDbEntity
  8
DRAW2
100
AcDbCircle
 10
920.9472198413177
 20
514.2070850409692
 30
0.0
 40
8.0
  0
LINE
  5
D602
330
18
100
AcDbEntity
  8
DRAW2
100
AcDbLine
 10
903.6972198413176
 20
566.2070850409691
 30
0.0
 11
893.6972198413178
 21
566.2070850409691
 31
0.0
  0
LINE
  5
D604
330
18
100
AcDbEntity
  8
DRAW2
100
AcDbLine
 10
893.6972198413178
 20
564.7070850409692
 30
0.0
 11
873.6972198413177
 21
564.7070850409692
 31
0.0
  0
LINE
  5
D605
330
18
100
AcDbEntity
  8
DRAW2
100
AcDbLine
 10
873.6972198413177
 20
564.7070850409692
 30
0.0
 11
871.6972198413179
 21
562.707085040969
 31
0.0
  0
LINE
  5
D606
330
18
100
AcDbEntity
  8
DRAW2
100
AcDbLine
 10
942.6972198413178
 20
566.2070850409691
 30
0.0
 11
903.6972198413176
 21
566.2070850409691
 31
0.0
  0
LINE
  5
D607
330
18
100
AcDbEntity
  8
DRAW2
100
AcDbLine
 10
1098.697219841316
 20
564.7070850409687
 30
0.0
 11
1098.697219841316
 21
543.7070850409687
 31
0.0
  0
LINE
  5
D608
330
18
100
AcDbEntity
  8
DRAW2
100
AcDbLine
 10
1100.697219841317
 20
562.7070850409689
 30
0.0
 11
1100.697219841317
 21
545.7070850409689
 31
0.0
  0
LINE
  5
D609
330
18
100
AcDbEntity
  8
DRAW2
100
AcDbLine
 10
1078.697219841317
 20
543.7070850409687
 30
0.0
 11
1078.697219841317
 21
564.7070850409687
 31
0.0
  0
LINE
  5
D60A
330
18
100
AcDbEntity
  8
DRAW2
100
AcDbLine
 10
1029.697219841317
 20
566.2070850409691
 30
0.0
 11
1029.697219841317
 21
526.2070850409692
 31
0.0
  0
LINE
  5
D60B
330
18
100
AcDbEntity
  8
DRAW2
100
AcDbLine
 10
1078.697219841317
 20
566.2070850409691
 30
0.0
 11
1078.697219841317
 21
418.2070850409689
 31
0.0
  0
LINE
  5
D60C
330
18
100
AcDbEntity
  8
DRAW2
100
AcDbLine
 10
1068.697219841317
 20
566.2070850409691
 30
0.0
 11
1068.697219841317
 21
418.2070850409689
 31
0.0
  0
LINE
  5
D60D
330
18
100
AcDbEntity
  8
DRAW2
100
AcDbLine
 10
1068.697219841317
 20
566.2070850409691
 30
0.0
 11
1068.697219841317
 21
418.2070850409689
 31
0.0
  0
LINE
  5
D60E
330
18
100
AcDbEntity
  8
DRAW2
100
AcDbLine
 10
1028.697219841317
 20
566.2070850409691
 30
0.0
 11
1028.697219841317
 21
418.2070850409689
 31
0.0
  0
LINE
  5
D60F
330
18
100
AcDbEntity
  8
DRAW2
100
AcDbLine
 10
1098.697219841316
 20
543.7070850409687
 30
0.0
 11
1078.697219841317
 21
543.7070850409687
 31
0.0
  0
LINE
  5
D610
330
18
100
AcDbEntity
  8
DRAW2
100
AcDbLine
 10
1078.697219841317
 20
533.7070850409689
 30
0.0
 11
1098.697219841316
 21
533.7070850409689
 31
0.0
  0
LINE
  5
D612
330
18
100
AcDbEntity
  8
DRAW2
100
AcDbLine
 10
1098.697219841316
 20
419.7070850409688
 30
0.0
 11
1078.697219841317
 21
419.7070850409688
 31
0.0
  0
LINE
  5
D614
330
18
100
AcDbEntity
  8
DRAW2
100
AcDbLine
 10
1078.697219841317
 20
471.7070850409688
 30
0.0
 11
1098.697219841316
 21
471.7070850409688
 31
0.0
  0
LINE
  5
D615
330
18
100
AcDbEntity
  8
DRAW2
100
AcDbLine
 10
1098.697219841316
 20
450.7070850409689
 30
0.0
 11
1078.697219841317
 21
450.7070850409689
 31
0.0
  0
LINE
  5
D616
330
18
100
AcDbEntity
  8
DRAW2
100
AcDbLine
 10
1078.697219841317
 20
440.7070850409688
 30
0.0
 11
1098.697219841316
 21
440.7070850409688
 31
0.0
  0
LINE
  5
D617
330
18
100
AcDbEntity
  8
DRAW2
100
AcDbLine
 10
1096.747219841317
 20
476.7070850409689
 30
0.0
 11
1098.747219841317
 21
478.707085040969
 31
0.0
  0
LINE
  5
D619
330
18
100
AcDbEntity
  8
DRAW2
100
AcDbLine
 10
1098.697219841316
 20
512.7070850409689
 30
0.0
 11
1078.697219841317
 21
512.7070850409689
 31
0.0
  0
LINE
  5
D61A
330
18
100
AcDbEntity
  8
DRAW2
100
AcDbLine
 10
1096.747219841317
 20
507.7070850409691
 30
0.0
 11
1098.747219841317
 21
505.7070850409689
 31
0.0
  0
LINE
  5
D61B
330
18
100
AcDbEntity
  8
DRAW2
100
AcDbLine
 10
1078.697219841317
 20
450.7070850409689
 30
0.0
 11
1078.697219841317
 21
471.7070850409688
 31
0.0
  0
LINE
  5
D61C
330
18
100
AcDbEntity
  8
DRAW2
100
AcDbLine
 10
1068.247219841317
 20
526.2070850409692
 30
0.0
 11
1068.247219841317
 21
458.207085040969
 31
0.0
  0
LINE
  5
D61D
330
18
100
AcDbEntity
  8
DRAW2
100
AcDbLine
 10
1029.247219841317
 20
526.2070850409692
 30
0.0
 11
1029.247219841317
 21
458.207085040969
 31
0.0
  0
LINE
  5
D61E
330
18
100
AcDbEntity
  8
DRAW2
100
AcDbLine
 10
1068.247219841317
 20
458.207085040969
 30
0.0
 11
1029.247219841317
 21
458.207085040969
 31
0.0
  0
LINE
  5
D61F
330
18
100
AcDbEntity
  8
DRAW2
100
AcDbLine
 10
1029.697219841317
 20
418.2070850409689
 30
0.0
 11
1068.697219841317
 21
418.2070850409689
 31
0.0
  0
LINE
  5
D620
330
18
100
AcDbEntity
  8
DRAW2
100
AcDbLine
 10
992.1333226602412
 20
409.9341355184725
 30
0.0
 11
992.1333226602412
 21
413.3341355184724
 31
0.0
  0
LINE
  5
D621
330
18
100
AcDbEntity
  8
DRAW2
100
AcDbLine
 10
980.1668568760163
 20
413.3341355184724
 30
0.0
 11
980.1668568760163
 21
409.9341355184725
 31
0.0
  0
LINE
  5
D623
330
18
100
AcDbEntity
  8
DRAW2
100
AcDbLine
 10
1018.697219841316
 20
418.2070850409691
 30
0.0
 11
1018.697219841316
 21
405.2170506664223
 31
0.0
  0
LINE
  5
D624
330
18
100
AcDbEntity
  8
DRAW2
100
AcDbLine
 10
974.6972198413176
 20
418.2070850409691
 30
0.0
 11
974.6972198413176
 21
405.2170506664223
 31
0.0
  0
LINE
  5
D625
330
18
100
AcDbEntity
  8
DRAW2
100
AcDbLine
 10
997.6972198413177
 20
405.2170506664223
 30
0.0
 11
997.6972198413177
 21
418.2070850409689
 31
0.0
  0
LINE
  5
D626
330
18
100
AcDbEntity
  8
DRAW2
100
AcDbLine
 10
1018.697219841316
 20
405.2170506664223
 30
0.0
 11
997.6972198413177
 21
405.2170506664223
 31
0.0
  0
LINE
  5
D627
330
18
100
AcDbEntity
  8
DRAW2
100
AcDbLine
 10
983.1500897681356
 20
408.1700339033346
 30
0.0
 11
983.1500897681356
 21
386.8846728513953
 31
0.0
  0
LINE
  5
D628
330
18
100
AcDbEntity
  8
DRAW2
100
AcDbLine
 10
989.1500897681357
 20
408.1700339033346
 30
0.0
 11
989.1500897681357
 21
387.8849835804433
 31
0.0
  0
LINE
  5
D629
330
18
100
AcDbEntity
  8
DRAW2
100
AcDbLine
 10
980.4000897681357
 20
411.1230783599575
 30
0.0
 11
980.4000897681357
 21
408.6030466052268
 31
0.0
  0
LINE
  5
D62A
330
18
100
AcDbEntity
  8
DRAW2
100
AcDbLine
 10
980.1668568760163
 20
409.9341355184725
 30
0.0
 11
980.4000897681357
 21
409.8551959565871
 31
0.0
  0
LINE
  5
D62B
330
18
100
AcDbEntity
  8
DRAW2
100
AcDbLine
 10
991.9000897681357
 20
408.6030466052268
 30
0.0
 11
991.9000897681357
 21
411.1230783599575
 31
0.0
  0
LINE
  5
D62C
330
18
100
AcDbEntity
  8
DRAW2
100
AcDbLine
 10
991.9000897681357
 20
409.8539424650525
 30
0.0
 11
992.1333226602412
 21
409.9341355184725
 31
0.0
  0
LINE
  5
D62D
330
18
100
AcDbEntity
  8
DRAW2
100
AcDbLine
 10
1028.697219841317
 20
418.2070850409689
 30
0.0
 11
991.7326230379725
 21
418.2070850409691
 31
0.0
  0
LINE
  5
D62E
330
18
100
AcDbEntity
  8
DRAW2
100
AcDbLine
 10
986.197219841318
 20
419.7240356280774
 30
0.0
 11
980.1668568760163
 21
418.097275239287
 31
0.0
  0
LINE
  5
D62F
330
18
100
AcDbEntity
  8
DRAW2
100
AcDbLine
 10
989.5138446316732
 20
423.4349703609628
 30
0.0
 11
982.8805950509623
 21
423.4349703609628
 31
0.0
  0
LINE
  5
D630
330
18
100
AcDbEntity
  8
DRAW2
100
AcDbLine
 10
989.5138446316732
 20
428.6311227836693
 30
0.0
 11
982.8805950509623
 21
428.6311227836693
 31
0.0
  0
LINE
  5
D631
330
18
100
AcDbEntity
  8
DRAW2
100
AcDbLine
 10
980.1668568760163
 20
413.3341355184724
 30
0.0
 11
986.197219841318
 21
414.774903386344
 31
0.0
  0
LINE
  5
D632
330
18
100
AcDbEntity
  8
DRAW2
100
AcDbLine
 10
969.8427271694136
 20
425.9692603437935
 30
0.0
 11
970.6340150168912
 21
426.1976854696674
 31
0.0
  0
LINE
  5
D633
330
18
100
AcDbEntity
  8
DRAW2
100
AcDbLine
 10
969.0514393219356
 20
426.1976854696674
 30
0.0
 11
969.8427271694136
 21
425.9692603437935
 31
0.0
  0
LINE
  5
D634
330
18
100
AcDbEntity
  8
DRAW2
100
AcDbLine
 10
981.1972198413178
 20
418.3752276059477
 30
0.0
 11
981.1972198413178
 21
418.6170533677336
 31
0.0
  0
LINE
  5
D635
330
18
100
AcDbEntity
  8
DRAW2
100
AcDbLine
 10
981.997219841318
 20
420.9349703609627
 30
0.0
 11
981.997219841318
 21
419.9735193643588
 31
0.0
  0
LINE
  5
D636
330
18
100
AcDbEntity
  8
DRAW2
100
AcDbLine
 10
981.1972198413181
 20
422.5932827561403
 30
0.0
 11
981.1972198413181
 21
418.4349703609625
 31
0.0
  0
LINE
  5
D637
330
18
100
AcDbEntity
  8
DRAW2
100
AcDbLine
 10
982.8805950509623
 20
423.4349703609628
 30
0.0
 11
981.1972198413181
 21
422.5932827561403
 31
0.0
  0
LINE
  5
D638
330
18
100
AcDbEntity
  8
DRAW2
100
AcDbLine
 10
982.8805950509623
 20
428.6311227836693
 30
0.0
 11
982.8805950509623
 21
423.4349703609628
 31
0.0
  0
LINE
  5
D639
330
18
100
AcDbEntity
  8
DRAW2
100
AcDbLine
 10
981.1972198413181
 20
427.789435178847
 30
0.0
 11
981.1972198413181
 21
422.5932827561403
 31
0.0
  0
LINE
  5
D63A
330
18
100
AcDbEntity
  8
DRAW2
100
AcDbLine
 10
982.8805950509623
 20
428.6311227836693
 30
0.0
 11
981.1972198413181
 21
427.789435178847
 31
0.0
  0
LINE
  5
D63B
330
18
100
AcDbEntity
  8
DRAW2
100
AcDbLine
 10
981.2052852417933
 20
430.4872305647053
 30
0.0
 11
981.2052852417933
 21
427.7934678790848
 31
0.0
  0
LINE
  5
D63C
330
18
100
AcDbEntity
  8
DRAW2
100
AcDbLine
 10
980.1668568760163
 20
418.097275239287
 30
0.0
 11
980.1668568760163
 21
413.3341355184724
 31
0.0
  0
LINE
  5
D63D
330
18
100
AcDbEntity
  8
DRAW2
100
AcDbLine
 10
986.197219841318
 20
419.7240356280774
 30
0.0
 11
992.1333226602412
 21
418.097275239287
 31
0.0
  0
LINE
  5
D63E
330
18
100
AcDbEntity
  8
DRAW2
100
AcDbLine
 10
991.1972198413183
 20
418.6170533677336
 30
0.0
 11
991.1972198413183
 21
418.3538097084683
 31
0.0
  0
LINE
  5
D63F
330
18
100
AcDbEntity
  8
DRAW2
100
AcDbLine
 10
990.3972198413182
 20
420.9349703609627
 30
0.0
 11
990.3972198413182
 21
419.9735193643588
 31
0.0
  0
LINE
  5
D640
330
18
100
AcDbEntity
  8
DRAW2
100
AcDbLine
 10
991.1972198413181
 20
422.5932827561403
 30
0.0
 11
991.1972198413181
 21
418.4349703609625
 31
0.0
  0
LINE
  5
D641
330
18
100
AcDbEntity
  8
DRAW2
100
AcDbLine
 10
989.5138446316732
 20
423.4349703609628
 30
0.0
 11
991.1972198413181
 21
422.5932827561403
 31
0.0
  0
LINE
  5
D642
330
18
100
AcDbEntity
  8
DRAW2
100
AcDbLine
 10
989.5138446316732
 20
428.6311227836693
 30
0.0
 11
989.5138446316732
 21
423.4349703609628
 31
0.0
  0
LINE
  5
D643
330
18
100
AcDbEntity
  8
DRAW2
100
AcDbLine
 10
991.1972198413181
 20
427.789435178847
 30
0.0
 11
991.1972198413181
 21
422.5932827561403
 31
0.0
  0
LINE
  5
D644
330
18
100
AcDbEntity
  8
DRAW2
100
AcDbLine
 10
989.5138446316732
 20
428.6311227836693
 30
0.0
 11
991.1972198413181
 21
427.789435178847
 31
0.0
  0
LINE
  5
D645
330
18
100
AcDbEntity
  8
DRAW2
100
AcDbLine
 10
991.1891544408419
 20
430.4872305647053
 30
0.0
 11
991.1891544408419
 21
427.793467879085
 31
0.0
  0
LINE
  5
D646
330
18
100
AcDbEntity
  8
DRAW2
100
AcDbLine
 10
986.197219841318
 20
414.774903386344
 30
0.0
 11
992.1333226602412
 21
413.3341355184724
 31
0.0
  0
LINE
  5
D647
330
18
100
AcDbEntity
  8
DRAW2
100
AcDbLine
 10
986.197219841318
 20
419.7240356280774
 30
0.0
 11
986.197219841318
 21
414.774903386344
 31
0.0
  0
LINE
  5
D648
330
18
100
AcDbEntity
  8
DRAW2
100
AcDbLine
 10
992.1333226602412
 20
413.3341355184724
 30
0.0
 11
992.1333226602412
 21
418.097275239287
 31
0.0
  0
LINE
  5
D649
330
18
100
AcDbEntity
  8
DRAW2
100
AcDbLine
 10
986.1972198413177
 20
440.1227603437937
 30
0.0
 11
986.9885076887952
 21
440.3511854696675
 31
0.0
  0
LINE
  5
D64A
330
18
100
AcDbEntity
  8
DRAW2
100
AcDbLine
 10
985.40593199384
 20
440.3511854696675
 30
0.0
 11
986.1972198413177
 21
440.1227603437937
 31
0.0
  0
LINE
  5
D64B
330
18
100
AcDbEntity
  8
DRAW2
100
AcDbLine
 10
1029.697219841317
 20
458.207085040969
 30
0.0
 11
1029.697219841317
 21
418.2070850409689
 31
0.0
  0
LINE
  5
D64C
330
18
100
AcDbEntity
  8
DRAW2
100
AcDbLine
 10
1001.960404665743
 20
426.1976854696674
 30
0.0
 11
1002.751692513222
 21
425.9692603437935
 31
0.0
  0
LINE
  5
D64D
330
18
100
AcDbEntity
  8
DRAW2
100
AcDbLine
 10
1002.751692513222
 20
425.9692603437935
 30
0.0
 11
1003.542980360699
 21
426.1976854696674
 31
0.0
  0
LINE
  5
D64E
330
18
100
AcDbEntity
  8
DRAW2
100
AcDbLine
 10
1009.902565700157
 20
433.4599119153313
 30
0.0
 11
1009.902565700157
 21
430.7192813722741
 31
0.0
  0
LINE
  5
D64F
330
18
100
AcDbEntity
  8
DRAW2
100
AcDbLine
 10
1078.697219841317
 20
419.7070850409688
 30
0.0
 11
1078.697219841317
 21
440.7070850409688
 31
0.0
  0
LINE
  5
D650
330
18
100
AcDbEntity
  8
DRAW2
100
AcDbLine
 10
1078.697219841317
 20
418.2070850409689
 30
0.0
 11
1068.697219841317
 21
418.2070850409689
 31
0.0
  0
LINE
  5
D651
330
18
100
AcDbEntity
  8
DRAW2
100
AcDbLine
 10
1029.247219841317
 20
522.2070850409692
 30
0.0
 11
1068.247219841317
 21
522.2070850409692
 31
0.0
  0
LINE
  5
D652
330
18
100
AcDbEntity
  8
DRAW2
100
AcDbLine
 10
1068.247219841317
 20
526.2070850409692
 30
0.0
 11
1029.247219841317
 21
526.2070850409692
 31
0.0
  0
LINE
  5
D653
330
18
100
AcDbEntity
  8
DRAW2
100
AcDbLine
 10
1029.247219841317
 20
522.2070850409692
 30
0.0
 11
1068.247219841317
 21
522.2070850409692
 31
0.0
  0
LINE
  5
D654
330
18
100
AcDbEntity
  8
DRAW2
100
AcDbLine
 10
1029.247219841317
 20
462.207085040969
 30
0.0
 11
1068.247219841317
 21
462.207085040969
 31
0.0
  0
LINE
  5
D655
330
18
100
AcDbEntity
  8
DRAW2
100
AcDbLine
 10
1068.247219841317
 20
462.2070850409691
 30
0.0
 11
1029.247219841317
 21
462.2070850409691
 31
0.0
  0
LINE
  5
D656
330
18
100
AcDbEntity
  8
DRAW2
100
AcDbLine
 10
1029.247219841317
 20
462.2070850409691
 30
0.0
 11
1029.247219841317
 21
522.2070850409692
 31
0.0
  0
LINE
  5
D657
330
18
100
AcDbEntity
  8
DRAW2
100
AcDbLine
 10
1096.747219841317
 20
507.7070850409691
 30
0.0
 11
1096.747219841317
 21
476.7070850409689
 31
0.0
  0
LINE
  5
D658
330
18
100
AcDbEntity
  8
DRAW2
100
AcDbLine
 10
1068.247219841317
 20
522.2070850409692
 30
0.0
 11
1068.247219841317
 21
462.2070850409691
 31
0.0
  0
CIRCLE
  5
D659
330
18
100
AcDbEntity
  8
DRAW2
100
AcDbCircle
 10
1051.447219841317
 20
470.207085040969
 30
0.0
 40
8.0
  0
CIRCLE
  5
D65A
330
18
100
AcDbEntity
  8
DRAW2
100
AcDbCircle
 10
1051.447219841317
 20
470.207085040969
 30
0.0
 40
6.0
  0
LINE
  5
D65B
330
18
100
AcDbEntity
  8
DRAW2
100
AcDbLine
 10
1078.697219841317
 20
476.7070850409689
 30
0.0
 11
1096.747219841317
 21
476.7070850409689
 31
0.0
  0
LINE
  5
D65C
330
18
100
AcDbEntity
  8
DRAW2
100
AcDbLine
 10
1078.697219841317
 20
460.7905291144028
 30
0.0
 11
1068.697219841317
 21
460.7905291144028
 31
0.0
  0
CIRCLE
  5
D65D
330
18
100
AcDbEntity
  8
DRAW2
100
AcDbCircle
 10
1051.547219841316
 20
514.2070850409692
 30
0.0
 40
6.0
  0
CIRCLE
  5
D65E
330
18
100
AcDbEntity
  8
DRAW2
100
AcDbCircle
 10
1051.547219841316
 20
514.2070850409692
 30
0.0
 40
8.0
  0
LINE
  5
D65F
330
18
100
AcDbEntity
  8
DRAW2
100
AcDbLine
 10
1078.697219841317
 20
512.7070850409689
 30
0.0
 11
1078.697219841317
 21
533.7070850409689
 31
0.0
  0
LINE
  5
D660
330
18
100
AcDbEntity
  8
DRAW2
100
AcDbLine
 10
1078.697219841317
 20
507.7070850409691
 30
0.0
 11
1096.747219841317
 21
507.7070850409691
 31
0.0
  0
LINE
  5
D661
330
18
100
AcDbEntity
  8
DRAW2
100
AcDbLine
 10
1078.697219841317
 20
523.623676048649
 30
0.0
 11
1068.697219841317
 21
523.623676048649
 31
0.0
  0
LINE
  5
D662
330
18
100
AcDbEntity
  8
DRAW2
100
AcDbLine
 10
1098.697219841316
 20
471.7070850409688
 30
0.0
 11
1098.697219841316
 21
450.7070850409689
 31
0.0
  0
LINE
  5
D663
330
18
100
AcDbEntity
  8
DRAW2
100
AcDbLine
 10
1100.697219841317
 20
469.7070850409687
 30
0.0
 11
1100.697219841317
 21
452.7070850409687
 31
0.0
  0
LINE
  5
D664
330
18
100
AcDbEntity
  8
DRAW2
100
AcDbLine
 10
1100.697219841317
 20
438.7070850409688
 30
0.0
 11
1100.697219841317
 21
421.7070850409688
 31
0.0
  0
LINE
  5
D665
330
18
100
AcDbEntity
  8
DRAW2
100
AcDbLine
 10
1098.697219841316
 20
440.7070850409688
 30
0.0
 11
1098.697219841316
 21
419.7070850409688
 31
0.0
  0
LINE
  5
D666
330
18
100
AcDbEntity
  8
DRAW2
100
AcDbLine
 10
1100.697219841317
 20
421.7070850409688
 30
0.0
 11
1098.697219841316
 21
419.7070850409688
 31
0.0
  0
LINE
  5
D667
330
18
100
AcDbEntity
  8
DRAW2
100
AcDbLine
 10
1100.697219841317
 20
452.7070850409687
 30
0.0
 11
1098.697219841316
 21
450.7070850409689
 31
0.0
  0
LINE
  5
D668
330
18
100
AcDbEntity
  8
DRAW2
100
AcDbLine
 10
1098.697219841316
 20
440.7070850409688
 30
0.0
 11
1100.697219841317
 21
438.7070850409688
 31
0.0
  0
LINE
  5
D669
330
18
100
AcDbEntity
  8
DRAW2
100
AcDbLine
 10
1098.747219841317
 20
505.7070850409689
 30
0.0
 11
1098.747219841317
 21
478.707085040969
 31
0.0
  0
LINE
  5
D66A
330
18
100
AcDbEntity
  8
DRAW2
100
AcDbLine
 10
1098.697219841316
 20
471.7070850409688
 30
0.0
 11
1100.697219841317
 21
469.7070850409687
 31
0.0
  0
LINE
  5
D66B
330
18
100
AcDbEntity
  8
DRAW2
100
AcDbLine
 10
1100.697219841317
 20
531.7070850409687
 30
0.0
 11
1100.697219841317
 21
514.7070850409687
 31
0.0
  0
LINE
  5
D66C
330
18
100
AcDbEntity
  8
DRAW2
100
AcDbLine
 10
1098.697219841316
 20
533.7070850409689
 30
0.0
 11
1098.697219841316
 21
512.7070850409689
 31
0.0
  0
LINE
  5
D66D
330
18
100
AcDbEntity
  8
DRAW2
100
AcDbLine
 10
1100.697219841317
 20
514.7070850409687
 30
0.0
 11
1098.697219841316
 21
512.7070850409689
 31
0.0
  0
LINE
  5
D66E
330
18
100
AcDbEntity
  8
DRAW2
100
AcDbLine
 10
1100.697219841317
 20
545.7070850409689
 30
0.0
 11
1098.697219841316
 21
543.7070850409687
 31
0.0
  0
LINE
  5
D66F
330
18
100
AcDbEntity
  8
DRAW2
100
AcDbLine
 10
1098.697219841316
 20
533.7070850409689
 30
0.0
 11
1100.697219841317
 21
531.7070850409687
 31
0.0
  0
LINE
  5
D671
330
18
100
AcDbEntity
  8
DRAW2
100
AcDbLine
 10
1078.697219841317
 20
564.7070850409687
 30
0.0
 11
1098.697219841316
 21
564.7070850409687
 31
0.0
  0
LINE
  5
D672
330
18
100
AcDbEntity
  8
DRAW2
100
AcDbLine
 10
1068.697219841317
 20
566.2070850409691
 30
0.0
 11
1029.697219841317
 21
566.2070850409691
 31
0.0
  0
LINE
  5
D673
330
18
100
AcDbEntity
  8
DRAW2
100
AcDbLine
 10
1078.697219841317
 20
566.2070850409691
 30
0.0
 11
1068.697219841317
 21
566.2070850409691
 31
0.0
  0
LINE
  5
D674
330
18
100
AcDbEntity
  8
DRAW2
100
AcDbLine
 10
1098.697219841316
 20
564.7070850409687
 30
0.0
 11
1100.697219841317
 21
562.7070850409689
 31
0.0
  0
SPLINE
  5
D676
330
18
100
AcDbEntity
  8
DRAW3
100
AcDbSpline
210
0.0
220
0.0
230
1.0
 70
     8
 71
     3
 72
    10
 73
     6
 74
     4
 42
0.0000000001
 43
0.0000000001
 44
0.0000000001
 40
0.0
 40
0.0
 40
0.0
 40
0.0
 40
0.3934537606274742
 40
0.8633942176752862
 40
1.429935674776778
 40
1.429935674776778
 40
1.429935674776778
 40
1.429935674776778
 10
1319.389557189587
 20
238.735040583674
 30
0.0
 10
1319.28453135869
 20
238.6148558457895
 30
0.0
 10
1319.054062866133
 20
238.351122675272
 30
0.0
 10
1318.661505803826
 20
238.9250511384251
 30
0.0
 10
1318.324024573996
 20
238.6990338503558
 30
0.0
 10
1318.139557189586
 20
238.5754927041334
 30
0.0
 11
1319.389557189587
 21
238.735040583674
 31
0.0
 11
1319.073117977108
 21
238.501219954649
 31
0.0
 11
1318.677142903283
 21
238.7542965716634
 31
0.0
 11
1318.139557189586
 21
238.5754927041334
 31
0.0
  0
SPLINE
  5
D677
330
18
100
AcDbEntity
  8
DRAW3
100
AcDbSpline
210
0.0
220
0.0
230
1.0
 70
     8
 71
     3
 72
    10
 73
     6
 74
     4
 42
0.0000000001
 43
0.0000000001
 44
0.0000000001
 40
0.0
 40
0.0
 40
0.0
 40
0.0
 40
0.3934537606269593
 40
0.8633942176745492
 40
1.202033207996414
 40
1.202033207996414
 40
1.202033207996414
 40
1.202033207996414
 10
1326.264557189585
 20
238.7350405836737
 30
0.0
 10
1326.160259234532
 20
238.6102843089901
 30
0.0
 10
1325.931387991403
 20
238.3365193664242
 30
0.0
 10
1325.588981026206
 20
238.8969526042618
 30
0.0
 10
1325.360321480726
 20
238.6703820926157
 30
0.0
 10
1325.264557189585
 20
238.5754927041329
 30
0.0
 11
1326.264557189585
 21
238.7350405836737
 31
0.0
 11
1325.948117977107
 21
238.5012199546485
 31
0.0
 11
1325.552142903282
 21
238.7542965716629
 31
0.0
 11
1325.264557189585
 21
238.5754927041329
 31
0.0
  0
SPLINE
  5
D678
330
18
100
AcDbEntity
  8
DRAW3
100
AcDbSpline
210
0.0
220
0.0
230
1.0
 70
     8
 71
     3
 72
    10
 73
     6
 74
     4
 42
0.0000000001
 43
0.0000000001
 44
0.0000000001
 40
0.0
 40
0.0
 40
0.0
 40
0.0
 40
0.3934537606274742
 40
0.8633942176752862
 40
1.429935674776778
 40
1.429935674776778
 40
1.429935674776778
 40
1.429935674776778
 10
1319.389557189587
 20
240.735040583674
 30
0.0
 10
1319.28453135869
 20
240.6148558457895
 30
0.0
 10
1319.054062866133
 20
240.351122675272
 30
0.0
 10
1318.661505803826
 20
240.9250511384251
 30
0.0
 10
1318.324024573996
 20
240.6990338503558
 30
0.0
 10
1318.139557189586
 20
240.5754927041334
 30
0.0
 11
1319.389557189587
 21
240.735040583674
 31
0.0
 11
1319.073117977108
 21
240.501219954649
 31
0.0
 11
1318.677142903283
 21
240.7542965716634
 31
0.0
 11
1318.139557189586
 21
240.5754927041334
 31
0.0
  0
SPLINE
  5
D679
330
18
100
AcDbEntity
  8
DRAW3
100
AcDbSpline
210
0.0
220
0.0
230
1.0
 70
     8
 71
     3
 72
    10
 73
     6
 74
     4
 42
0.0000000001
 43
0.0000000001
 44
0.0000000001
 40
0.0
 40
0.0
 40
0.0
 40
0.0
 40
0.3934537606269593
 40
0.8633942176745492
 40
1.202033207996414
 40
1.202033207996414
 40
1.202033207996414
 40
1.202033207996414
 10
1326.264557189585
 20
240.7350405836737
 30
0.0
 10
1326.160259234532
 20
240.6102843089901
 30
0.0
 10
1325.931387991403
 20
240.3365193664242
 30
0.0
 10
1325.588981026206
 20
240.8969526042618
 30
0.0
 10
1325.360321480726
 20
240.6703820926157
 30
0.0
 10
1325.264557189585
 20
240.5754927041329
 30
0.0
 11
1326.264557189585
 21
240.7350405836737
 31
0.0
 11
1325.948117977107
 21
240.5012199546485
 31
0.0
 11
1325.552142903282
 21
240.7542965716629
 31
0.0
 11
1325.264557189585
 21
240.5754927041329
 31
0.0
  0
SPLINE
  5
D67A
330
18
100
AcDbEntity
  8
DRAW3
100
AcDbSpline
210
0.0
220
0.0
230
1.0
 70
     8
 71
     3
 72
    10
 73
     6
 74
     4
 42
0.0000000001
 43
0.0000000001
 44
0.0000000001
 40
0.0
 40
0.0
 40
0.0
 40
0.0
 40
0.7869075212544336
 40
1.726788435350586
 40
2.626116616137161
 40
2.626116616137161
 40
2.626116616137161
 40
2.626116616137161
 10
1343.264557189594
 20
238.7350405836737
 30
0.0
 10
1343.054830975948
 20
238.4910319959295
 30
0.0
 10
1342.594608153657
 20
237.955579994186
 30
0.0
 10
1341.867602256685
 20
239.0774216280639
 30
0.0
 10
1341.294694865693
 20
238.6331720048041
 30
0.0
 10
1341.014557189595
 20
238.4159448245923
 30
0.0
 11
1343.264557189594
 21
238.7350405836737
 31
0.0
 11
1342.631678764637
 21
238.2673993256235
 31
0.0
 11
1341.839728616986
 21
238.7735525596522
 31
0.0
 11
1341.014557189595
 21
238.4159448245923
 31
0.0
  0
SPLINE
  5
D67B
330
18
100
AcDbEntity
  8
DRAW3
100
AcDbSpline
210
0.0
220
0.0
230
1.0
 70
     8
 71
     3
 72
    10
 73
     6
 74
     4
 42
0.0000000001
 43
0.0000000001
 44
0.0000000001
 40
0.0
 40
0.0
 40
0.0
 40
0.0
 40
0.7869075212544336
 40
1.726788435350586
 40
2.626116616137161
 40
2.626116616137161
 40
2.626116616137161
 40
2.626116616137161
 10
1343.264557189594
 20
240.7350405836737
 30
0.0
 10
1343.054830975948
 20
240.4910319959295
 30
0.0
 10
1342.594608153657
 20
239.955579994186
 30
0.0
 10
1341.867602256685
 20
241.0774216280639
 30
0.0
 10
1341.294694865693
 20
240.6331720048041
 30
0.0
 10
1341.014557189595
 20
240.4159448245923
 30
0.0
 11
1343.264557189594
 21
240.7350405836737
 31
0.0
 11
1342.631678764637
 21
240.2673993256235
 31
0.0
 11
1341.839728616986
 21
240.7735525596522
 31
0.0
 11
1341.014557189595
 21
240.4159448245923
 31
0.0
  0
SPLINE
  5
D67C
330
18
100
AcDbEntity
  8
DRAW3
100
AcDbSpline
210
0.0
220
0.0
230
1.0
 70
     8
 71
     3
 72
    10
 73
     6
 74
     4
 42
0.0000000001
 43
0.0000000001
 44
0.0000000001
 40
0.0
 40
0.0
 40
0.0
 40
0.0
 40
1.972684243528213
 40
4.621558289201288
 40
6.679776794358739
 40
6.679776794358739
 40
6.679776794358739
 40
6.679776794358739
 10
1405.422767620349
 20
270.769930608491
 30
0.0
 10
1405.882312407384
 20
270.1936586110166
 30
0.0
 10
1406.958923135506
 20
268.8435821172749
 30
0.0
 10
1404.678474576365
 20
266.6610323807847
 30
0.0
 10
1405.892315500489
 20
265.3452627152721
 30
0.0
 10
1406.423078349397
 20
264.769930608491
 30
0.0
 11
1405.422767620349
 21
270.769930608491
 31
0.0
 11
1406.317783017679
 21
269.011968560207
 31
0.0
 11
1405.370118261911
 21
266.5384154032049
 31
0.0
 11
1406.423078349397
 21
264.769930608491
 31
0.0
  0
SPLINE
  5
D67D
330
18
100
AcDbEntity
  8
DRAW3
100
AcDbSpline
210
0.0
220
0.0
230
1.0
 70
     8
 71
     3
 72
    10
 73
     6
 74
     4
 42
0.0000000001
 43
0.0000000001
 44
0.0000000001
 40
0.0
 40
0.0
 40
0.0
 40
0.0
 40
1.972684243528626
 40
4.621558289202027
 40
6.679776794359476
 40
6.679776794359476
 40
6.679776794359476
 40
6.679776794359476
 10
1407.422767620349
 20
270.769930608491
 30
0.0
 10
1407.882312407384
 20
270.1936586110166
 30
0.0
 10
1408.958923135508
 20
268.8435821172749
 30
0.0
 10
1406.678474576364
 20
266.6610323807848
 30
0.0
 10
1407.892315500489
 20
265.345262715272
 30
0.0
 10
1408.423078349397
 20
264.769930608491
 30
0.0
 11
1407.422767620349
 21
270.769930608491
 31
0.0
 11
1408.31778301768
 21
269.011968560207
 31
0.0
 11
1407.370118261911
 21
266.5384154032049
 31
0.0
 11
1408.423078349397
 21
264.769930608491
 31
0.0
  0
CIRCLE
  5
D67E
330
18
100
AcDbEntity
  8
DRAW2
100
AcDbCircle
 10
1494.347161043336
 20
149.7256136013178
 30
0.0
 40
10.50000000004285
  0
CIRCLE
  5
D67F
330
18
100
AcDbEntity
  8
DRAW2
100
AcDbCircle
 10
1494.347161043336
 20
149.7256136013178
 30
0.0
 40
8.499970000000075
  0
CIRCLE
  5
D682
330
18
100
AcDbEntity
  8
DRAW2
100
AcDbCircle
 10
1494.347270839331
 20
257.1127775269386
 30
0.0
 40
10.50000000004285
  0
CIRCLE
  5
D683
330
18
100
AcDbEntity
  8
DRAW2
100
AcDbCircle
 10
1494.347270839331
 20
257.1127775269386
 30
0.0
 40
8.499970000000075
  0
ARC
  5
D686
330
18
100
AcDbEntity
  8
DRAW2
100
AcDbCircle
 10
1525.347219941318
 20
287.4191338687543
 30
0.0
 40
34.0
100
AcDbArc
 50
151.9275300000028
 51
208.0725442316483
  0
LINE
  5
D68B
330
18
100
AcDbEntity
  8
DRAW2
100
AcDbLine
 10
1490.474989941318
 20
69.27076386875433
 30
0.0
 11
1493.347249941318
 21
88.41913386875445
 31
0.0
  0
ARC
  5
D68C
330
18
100
AcDbEntity
  8
DRAW2
100
AcDbCircle
 10
1525.347219941318
 20
119.4190738687542
 30
0.0
 40
34.0
100
AcDbArc
 50
151.9274800000014
 51
208.072400000004
  0
LINE
  5
D68D
330
18
100
AcDbEntity
  8
DRAW2
100
AcDbLine
 10
1455.347189941318
 20
88.41907386875437
 30
0.0
 11
1595.347199941318
 21
88.41907386875437
 31
0.0
  0
LINE
  5
D68F
330
18
100
AcDbEntity
  8
DRAW2
100
AcDbLine
 10
1455.347189941318
 20
103.4190738687543
 30
0.0
 11
1595.347199941318
 21
103.4190738687543
 31
0.0
  0
ARC
  5
D691
330
18
100
AcDbEntity
  8
DRAW2
100
AcDbCircle
 10
1525.347219941318
 20
203.4191638687543
 30
0.0
 40
74.0
100
AcDbArc
 50
113.2315742799872
 51
246.7685600000002
  0
LINE
  5
D692
330
18
100
AcDbEntity
  8
DRAW2
100
AcDbLine
 10
1438.357219941318
 20
171.9191338687544
 30
0.0
 11
1438.357219941318
 21
180.4191338687544
 31
0.0
  0
LINE
  5
D693
330
18
100
AcDbEntity
  8
DRAW2
100
AcDbLine
 10
1337.564557189585
 20
176.4195041554071
 30
0.0
 11
1337.564557189585
 21
186.4195041554076
 31
0.0
  0
LINE
  5
D694
330
18
100
AcDbEntity
  8
DRAW2
100
AcDbLine
 10
1339.964557189586
 20
176.4195041554071
 30
0.0
 11
1339.964557189586
 21
186.4195041554076
 31
0.0
  0
LINE
  5
D695
330
18
100
AcDbEntity
  8
DRAW2
100
AcDbLine
 10
1344.564557189585
 20
176.4195041554071
 30
0.0
 11
1344.564557189585
 21
186.4195041554076
 31
0.0
  0
LINE
  5
D696
330
18
100
AcDbEntity
  8
DRAW2
100
AcDbLine
 10
1346.964557189586
 20
176.4195041554071
 30
0.0
 11
1346.964557189586
 21
186.4195041554076
 31
0.0
  0
LINE
  5
D697
330
18
100
AcDbEntity
  8
DRAW2
100
AcDbLine
 10
1326.964557189586
 20
176.4195041554071
 30
0.0
 11
1326.964557189586
 21
186.4195041554076
 31
0.0
  0
LINE
  5
D698
330
18
100
AcDbEntity
  8
DRAW2
100
AcDbLine
 10
1324.564557189584
 20
176.4195041554071
 30
0.0
 11
1324.564557189584
 21
186.4195041554076
 31
0.0
  0
LINE
  5
D69B
330
18
100
AcDbEntity
  8
DRAW2
100
AcDbLine
 10
1317.564557189585
 20
176.4195041554071
 30
0.0
 11
1317.564557189585
 21
186.4195041554076
 31
0.0
  0
LINE
  5
D69C
330
18
100
AcDbEntity
  8
DRAW2
100
AcDbLine
 10
1319.964557189586
 20
176.4195041554071
 30
0.0
 11
1319.964557189586
 21
186.4195041554076
 31
0.0
  0
LINE
  5
D69F
330
18
100
AcDbEntity
  8
DRAW2
100
AcDbLine
 10
1324.564557189584
 20
176.4195041554071
 30
0.0
 11
1326.964557189586
 21
176.4195041554074
 31
0.0
  0
LINE
  5
D6A0
330
18
100
AcDbEntity
  8
DRAW2
100
AcDbLine
 10
1317.564557189585
 20
176.4195041554071
 30
0.0
 11
1319.964557189586
 21
176.4195041554074
 31
0.0
  0
LINE
  5
D6A1
330
18
100
AcDbEntity
  8
DRAW2
100
AcDbLine
 10
1337.564557189585
 20
176.4195041554071
 30
0.0
 11
1339.964557189586
 21
176.4195041554074
 31
0.0
  0
LINE
  5
D6A2
330
18
100
AcDbEntity
  8
DRAW2
100
AcDbLine
 10
1344.564557189585
 20
176.4195041554071
 30
0.0
 11
1346.964557189586
 21
176.4195041554074
 31
0.0
  0
LINE
  5
D6A3
330
18
100
AcDbEntity
  8
DRAW2
100
AcDbLine
 10
1460.219469941318
 20
69.27076386875433
 30
0.0
 11
1457.347219941318
 21
88.41910386875429
 31
0.0
  0
LINE
  5
D6A5
330
18
100
AcDbEntity
  8
DRAW2
100
AcDbLine
 10
1489.486039941318
 20
68.41907386875437
 30
0.0
 11
1461.208419941318
 21
68.41907386875437
 31
0.0
  0
ARC
  5
D6A6
330
18
100
AcDbEntity
  8
DRAW2
100
AcDbCircle
 10
1461.208419941318
 20
69.41910386875452
 30
0.0
 40
1.0
100
AcDbArc
 50
188.5310499999986
 51
270.0000200000018
  0
ARC
  5
D6A7
330
18
100
AcDbEntity
  8
DRAW2
100
AcDbCircle
 10
1489.486039941318
 20
69.41910386875452
 30
0.0
 40
1.0
100
AcDbArc
 50
270.0000200000018
 51
351.4689300000039
  0
LINE
  5
D6AA
330
18
100
AcDbEntity
  8
DRAW2
100
AcDbLine
 10
1455.347189941318
 20
103.4190738687543
 30
0.0
 11
1455.347189941318
 21
88.41907386875437
 31
0.0
  0
LINE
  5
D6AB
330
18
100
AcDbEntity
  8
DRAW2
100
AcDbLine
 10
1485.847219941318
 20
103.4190738687543
 30
0.0
 11
1485.847219941318
 21
123.4190738687543
 31
0.0
  0
LINE
  5
D6AC
330
18
100
AcDbEntity
  8
DRAW2
100
AcDbLine
 10
1464.847219941318
 20
103.4190738687543
 30
0.0
 11
1464.847219941318
 21
123.4190738687543
 31
0.0
  0
LINE
  5
D6AD
330
18
100
AcDbEntity
  8
DRAW2
100
AcDbLine
 10
1466.847249941318
 20
125.4190738687543
 30
0.0
 11
1483.847219941318
 21
125.4190738687543
 31
0.0
  0
LINE
  5
D6AE
330
18
100
AcDbEntity
  8
DRAW2
100
AcDbLine
 10
1464.847219941318
 20
123.4190438687543
 30
0.0
 11
1485.847219941318
 21
123.4190438687543
 31
0.0
  0
LINE
  5
D6AF
330
18
100
AcDbEntity
  8
DRAW2
100
AcDbLine
 10
1464.847189941318
 20
123.4190138687545
 30
0.0
 11
1466.847189941318
 21
125.4190138687545
 31
0.0
  0
LINE
  5
D6B0
330
18
100
AcDbEntity
  8
DRAW2
100
AcDbLine
 10
1483.847129941318
 20
125.4190738687543
 30
0.0
 11
1485.847129941318
 21
123.4190438687543
 31
0.0
  0
LINE
  5
D6B1
330
18
100
AcDbEntity
  8
DRAW2
100
AcDbLine
 10
1438.357219941318
 20
171.9191338687544
 30
0.0
 11
1457.925056152255
 21
171.9191338687544
 31
0.0
  0
LINE
  5
D6B4
330
18
100
AcDbEntity
  8
DRAW2
100
AcDbLine
 10
1469.526084732089
 20
150.1066257260765
 30
0.0
 11
1463.151318961473
 21
157.7037757351536
 31
0.0
  0
LINE
  5
D6B9
330
18
100
AcDbEntity
  8
DRAW2
100
AcDbLine
 10
1469.526084732089
 20
150.1066257260765
 30
0.0
 11
1471.90546420453
 21
152.233282680667
 31
0.0
  0
LINE
  5
D6BA
330
18
100
AcDbEntity
  8
DRAW3
100
AcDbLine
 10
1469.152625130861
 20
150.5516975475285
 30
0.0
 11
1471.505244966668
 21
152.654437103483
 31
0.0
  0
LINE
  5
D6BF
330
18
100
AcDbEntity
  8
DRAW3
100
AcDbLine
 10
1463.524778562701
 20
157.2587039137015
 30
0.0
 11
1466.004100927202
 21
159.2104452758961
 31
0.0
  0
LINE
  5
D6C0
330
18
100
AcDbEntity
  8
DRAW2
100
AcDbLine
 10
1463.151318961473
 20
157.7037757351536
 30
0.0
 11
1465.658842127719
 21
159.6777169822851
 31
0.0
  0
LINE
  5
D6C8
330
18
100
AcDbEntity
  8
DRAW2
100
AcDbLine
 10
1357.466598218457
 20
266.1449306084904
 30
0.0
 11
1361.123128761041
 21
266.1449306084904
 31
0.0
  0
LINE
  5
D6CA
330
18
100
AcDbEntity
  8
DRAW2
100
AcDbLine
 10
1360.26455718959
 20
267.1449306084899
 30
0.0
 11
1375.636862124176
 21
267.1449306084908
 31
0.0
  0
LINE
  5
D6CC
330
18
100
AcDbEntity
  8
DRAW2
100
AcDbLine
 10
1344.389557189585
 20
269.3949306084899
 30
0.0
 11
1375.636862124176
 21
269.3949306084904
 31
0.0
  0
ARC
  5
D6CE
330
18
100
AcDbEntity
  8
DRAW2
100
AcDbCircle
 10
1368.264557189586
 20
241.1449306084914
 30
0.0
 40
25.0
100
AcDbArc
 50
90.0
 51
180.0
  0
ARC
  5
D6CF
330
18
100
AcDbEntity
  8
DRAW2
100
AcDbCircle
 10
1368.264557189586
 20
241.1449306084914
 30
0.0
 40
26.0
100
AcDbArc
 50
90.0
 51
180.0
  0
ARC
  5
D6D1
330
18
100
AcDbEntity
  8
DRAW2
100
AcDbCircle
 10
1367.26455718959
 20
243.1449306084899
 30
0.0
 40
25.0
100
AcDbArc
 50
90.0
 51
180.0
  0
ARC
  5
D6D2
330
18
100
AcDbEntity
  8
DRAW2
100
AcDbCircle
 10
1367.26455718959
 20
243.1449306084899
 30
0.0
 40
26.25
100
AcDbArc
 50
90.0
 51
180.0
  0
ARC
  5
D6D4
330
18
100
AcDbEntity
  8
DRAW2
100
AcDbCircle
 10
1344.389557189586
 20
243.1449306084904
 30
0.0
 40
25.0
100
AcDbArc
 50
90.0
 51
180.0
  0
ARC
  5
D6D5
330
18
100
AcDbEntity
  8
DRAW2
100
AcDbCircle
 10
1344.389557189586
 20
243.1449306084904
 30
0.0
 40
26.25
100
AcDbArc
 50
90.0
 51
180.0
  0
TEXT
  5
D6D6
330
18
100
AcDbEntity
  8
DRAW4
100
AcDbText
 10
1343.864557189586
 20
224.5518840530251
 30
0.0
 40
3.2
  1
A
 50
90.0
 51
10.0
  7
DIMFONT
 72
     1
 11
1342.264557189587
 21
225.9233126244537
 31
0.0
100
AcDbText
 73
     2
  0
LINE
  5
D6D8
330
18
100
AcDbEntity
  8
DRAW2
100
AcDbLine
 10
1340.264557189593
 20
235.4782262646426
 30
0.0
 11
1340.264557189577
 21
215.4782262646426
 31
0.0
  0
LINE
  5
D6D9
330
18
100
AcDbEntity
  8
DRAW2
100
AcDbLine
 10
1344.264557189593
 20
235.4782262646426
 30
0.0
 11
1344.264557189585
 21
215.4782262646426
 31
0.0
  0
LINE
  5
D6DA
330
18
100
AcDbEntity
  8
DRAW2
100
AcDbLine
 10
1318.139557189585
 20
197.4195041554068
 30
0.0
 11
1318.139557189586
 21
238.5754927041328
 31
0.0
  0
LINE
  5
D6DB
330
18
100
AcDbEntity
  8
DRAW2
100
AcDbLine
 10
1319.389557189585
 20
197.4195041554068
 30
0.0
 11
1319.389557189586
 21
238.7350405836726
 31
0.0
  0
LINE
  5
D6DC
330
18
100
AcDbEntity
  8
DRAW2
100
AcDbLine
 10
1325.264557189585
 20
197.419504155407
 30
0.0
 11
1325.264557189585
 21
238.5754927041329
 31
0.0
  0
LINE
  5
D6DD
330
18
100
AcDbEntity
  8
DRAW2
100
AcDbLine
 10
1326.264557189585
 20
197.419504155407
 30
0.0
 11
1326.264557189585
 21
238.7350405836737
 31
0.0
  0
LINE
  5
D6DE
330
18
100
AcDbEntity
  8
DRAW2
100
AcDbLine
 10
1329.764557189585
 20
193.4195041554071
 30
0.0
 11
1323.014557189585
 21
193.4195041554066
 31
0.0
  0
LINE
  5
D6DF
330
18
100
AcDbEntity
  8
DRAW2
100
AcDbLine
 10
1323.164557189586
 20
188.9195041554071
 30
0.0
 11
1328.364557189585
 21
188.9195041554071
 31
0.0
  0
LINE
  5
D6E0
330
18
100
AcDbEntity
  8
DRAW2
100
AcDbLine
 10
1323.164557189585
 20
192.9195041554071
 30
0.0
 11
1328.364557189585
 21
192.9195041554071
 31
0.0
  0
LINE
  5
D6E1
330
18
100
AcDbEntity
  8
DRAW2
100
AcDbLine
 10
1328.364557189585
 20
188.9195041554071
 30
0.0
 11
1326.964557189584
 21
186.4195041554071
 31
0.0
  0
LINE
  5
D6E2
330
18
100
AcDbEntity
  8
DRAW2
100
AcDbLine
 10
1314.764557189585
 20
197.4195041554066
 30
0.0
 11
1329.764557189585
 21
197.4195041554071
 31
0.0
  0
LINE
  5
D6E3
330
18
100
AcDbEntity
  8
DRAW2
100
AcDbLine
 10
1324.514557189585
 20
192.9195041554074
 30
0.0
 11
1324.514557189585
 21
193.4195041554066
 31
0.0
  0
LINE
  5
D6E4
330
18
100
AcDbEntity
  8
DRAW2
100
AcDbLine
 10
1327.014557189585
 20
192.9195041554074
 30
0.0
 11
1327.014557189585
 21
193.4195041554066
 31
0.0
  0
LINE
  5
D6E5
330
18
100
AcDbEntity
  8
DRAW2
100
AcDbLine
 10
1323.164557189586
 20
188.9195041554071
 30
0.0
 11
1323.164557189585
 21
192.9195041554071
 31
0.0
  0
LINE
  5
D6E6
330
18
100
AcDbEntity
  8
DRAW2
100
AcDbLine
 10
1323.014557189585
 20
190.4195041554076
 30
0.0
 11
1323.014557189585
 21
193.4195041554066
 31
0.0
  0
LINE
  5
D6E7
330
18
100
AcDbEntity
  8
DRAW2
100
AcDbLine
 10
1324.564557189584
 20
186.4195041554071
 30
0.0
 11
1326.964557189586
 21
186.4195041554071
 31
0.0
  0
LINE
  5
D6E8
330
18
100
AcDbEntity
  8
DRAW2
100
AcDbLine
 10
1323.164557189586
 20
188.9195041554071
 30
0.0
 11
1324.564557189584
 21
186.4195041554071
 31
0.0
  0
LINE
  5
D6E9
330
18
100
AcDbEntity
  8
DRAW2
100
AcDbLine
 10
1314.764557189585
 20
193.4195041554071
 30
0.0
 11
1314.764557189585
 21
197.4195041554066
 31
0.0
  0
LINE
  5
D6EA
330
18
100
AcDbEntity
  8
DRAW2
100
AcDbLine
 10
1316.164557189585
 20
188.9195041554071
 30
0.0
 11
1321.364557189585
 21
188.9195041554071
 31
0.0
  0
LINE
  5
D6EB
330
18
100
AcDbEntity
  8
DRAW2
100
AcDbLine
 10
1316.164557189585
 20
192.9195041554071
 30
0.0
 11
1321.364557189585
 21
192.9195041554071
 31
0.0
  0
LINE
  5
D6EC
330
18
100
AcDbEntity
  8
DRAW2
100
AcDbLine
 10
1314.764557189585
 20
193.4195041554071
 30
0.0
 11
1321.514557189585
 21
193.4195041554066
 31
0.0
  0
LINE
  5
D6ED
330
18
100
AcDbEntity
  8
DRAW2
100
AcDbLine
 10
1317.514557189585
 20
192.9195041554074
 30
0.0
 11
1317.514557189585
 21
193.4195041554066
 31
0.0
  0
LINE
  5
D6EE
330
18
100
AcDbEntity
  8
DRAW2
100
AcDbLine
 10
1320.014557189585
 20
192.9195041554074
 30
0.0
 11
1320.014557189585
 21
193.4195041554066
 31
0.0
  0
LINE
  5
D6EF
330
18
100
AcDbEntity
  8
DRAW2
100
AcDbLine
 10
1316.164557189585
 20
188.9195041554071
 30
0.0
 11
1316.164557189585
 21
192.9195041554071
 31
0.0
  0
LINE
  5
D6F0
330
18
100
AcDbEntity
  8
DRAW2
100
AcDbLine
 10
1321.364557189585
 20
188.9195041554071
 30
0.0
 11
1321.364557189585
 21
192.9195041554071
 31
0.0
  0
LINE
  5
D6F1
330
18
100
AcDbEntity
  8
DRAW2
100
AcDbLine
 10
1321.514557189585
 20
190.4195041554076
 30
0.0
 11
1321.514557189585
 21
193.4195041554066
 31
0.0
  0
LINE
  5
D6F2
330
18
100
AcDbEntity
  8
DRAW2
100
AcDbLine
 10
1317.564557189585
 20
186.4195041554071
 30
0.0
 11
1319.964557189586
 21
186.4195041554071
 31
0.0
  0
LINE
  5
D6F3
330
18
100
AcDbEntity
  8
DRAW2
100
AcDbLine
 10
1316.164557189585
 20
188.9195041554071
 30
0.0
 11
1317.564557189585
 21
186.4195041554071
 31
0.0
  0
LINE
  5
D6F4
330
18
100
AcDbEntity
  8
DRAW2
100
AcDbLine
 10
1321.364557189585
 20
188.9195041554071
 30
0.0
 11
1319.964557189584
 21
186.4195041554071
 31
0.0
  0
LINE
  5
D6F5
330
18
100
AcDbEntity
  8
DRAW2
100
AcDbLine
 10
1321.514557189585
 20
190.4195041554076
 30
0.0
 11
1323.014557189585
 21
190.4195041554076
 31
0.0
  0
ARC
  5
D6F7
330
18
100
AcDbEntity
  8
DRAW2
100
AcDbCircle
 10
1320.264557189585
 20
198.4195041554066
 30
0.0
 40
26.0
100
AcDbArc
 50
0.0
 51
19.94844358880153
  0
ARC
  5
D6F8
330
18
100
AcDbEntity
  8
DRAW2
100
AcDbCircle
 10
1320.264557189585
 20
198.4195041554066
 30
0.0
 40
25.0
100
AcDbArc
 50
0.0
 51
19.94844358880153
  0
ARC
  5
D6FA
330
18
100
AcDbEntity
  8
DRAW2
100
AcDbCircle
 10
1364.389557189585
 20
198.419504155406
 30
0.0
 40
26.25
100
AcDbArc
 50
160.4757284897118
 51
180.0
  0
ARC
  5
D6FB
330
18
100
AcDbEntity
  8
DRAW2
100
AcDbCircle
 10
1364.389557189585
 20
198.419504155406
 30
0.0
 40
25.0
100
AcDbArc
 50
160.4757284897118
 51
180.0
  0
LINE
  5
D6FC
330
18
100
AcDbEntity
  8
DRAW2
100
AcDbLine
 10
1343.164557189584
 20
188.9195041554071
 30
0.0
 11
1348.364557189585
 21
188.9195041554071
 31
0.0
  0
LINE
  5
D6FD
330
18
100
AcDbEntity
  8
DRAW2
100
AcDbLine
 10
1343.164557189584
 20
192.9195041554071
 30
0.0
 11
1348.364557189585
 21
192.9195041554071
 31
0.0
  0
LINE
  5
D6FE
330
18
100
AcDbEntity
  8
DRAW2
100
AcDbLine
 10
1334.764557189585
 20
197.4195041554066
 30
0.0
 11
1349.764557189585
 21
197.4195041554071
 31
0.0
  0
LINE
  5
D6FF
330
18
100
AcDbEntity
  8
DRAW2
100
AcDbLine
 10
1349.764557189585
 20
193.4195041554071
 30
0.0
 11
1343.014557189585
 21
193.4195041554066
 31
0.0
  0
LINE
  5
D700
330
18
100
AcDbEntity
  8
DRAW2
100
AcDbLine
 10
1343.164557189584
 20
188.9195041554071
 30
0.0
 11
1344.564557189585
 21
186.4195041554071
 31
0.0
  0
LINE
  5
D701
330
18
100
AcDbEntity
  8
DRAW2
100
AcDbLine
 10
1341.514557189585
 20
190.4195041554076
 30
0.0
 11
1343.014557189585
 21
190.4195041554076
 31
0.0
  0
LINE
  5
D702
330
18
100
AcDbEntity
  8
DRAW2
100
AcDbLine
 10
1336.164557189585
 20
188.9195041554071
 30
0.0
 11
1341.364557189585
 21
188.9195041554071
 31
0.0
  0
LINE
  5
D703
330
18
100
AcDbEntity
  8
DRAW2
100
AcDbLine
 10
1344.514557189585
 20
192.9195041554074
 30
0.0
 11
1344.514557189585
 21
193.4195041554066
 31
0.0
  0
LINE
  5
D704
330
18
100
AcDbEntity
  8
DRAW2
100
AcDbLine
 10
1340.014557189585
 20
192.9195041554074
 30
0.0
 11
1340.014557189585
 21
193.4195041554066
 31
0.0
  0
LINE
  5
D705
330
18
100
AcDbEntity
  8
DRAW2
100
AcDbLine
 10
1337.514557189585
 20
192.9195041554074
 30
0.0
 11
1337.514557189585
 21
193.4195041554066
 31
0.0
  0
LINE
  5
D706
330
18
100
AcDbEntity
  8
DRAW2
100
AcDbLine
 10
1336.164557189585
 20
192.9195041554071
 30
0.0
 11
1341.364557189585
 21
192.9195041554071
 31
0.0
  0
LINE
  5
D707
330
18
100
AcDbEntity
  8
DRAW2
100
AcDbLine
 10
1343.014557189585
 20
190.4195041554076
 30
0.0
 11
1343.014557189585
 21
193.4195041554066
 31
0.0
  0
LINE
  5
D708
330
18
100
AcDbEntity
  8
DRAW2
100
AcDbLine
 10
1341.514557189585
 20
190.4195041554076
 30
0.0
 11
1341.514557189585
 21
193.4195041554066
 31
0.0
  0
LINE
  5
D709
330
18
100
AcDbEntity
  8
DRAW2
100
AcDbLine
 10
1341.364557189585
 20
188.9195041554071
 30
0.0
 11
1341.364557189585
 21
192.9195041554071
 31
0.0
  0
LINE
  5
D70A
330
18
100
AcDbEntity
  8
DRAW2
100
AcDbLine
 10
1343.164557189584
 20
188.9195041554071
 30
0.0
 11
1343.164557189584
 21
192.9195041554071
 31
0.0
  0
LINE
  5
D70B
330
18
100
AcDbEntity
  8
DRAW2
100
AcDbLine
 10
1336.164557189585
 20
188.9195041554071
 30
0.0
 11
1336.164557189585
 21
192.9195041554071
 31
0.0
  0
LINE
  5
D70C
330
18
100
AcDbEntity
  8
DRAW2
100
AcDbLine
 10
1328.364557189585
 20
188.9195041554071
 30
0.0
 11
1328.364557189585
 21
192.9195041554071
 31
0.0
  0
LINE
  5
D70D
330
18
100
AcDbEntity
  8
DRAW2
100
AcDbLine
 10
1334.764557189585
 20
193.4195041554071
 30
0.0
 11
1334.764557189585
 21
197.4195041554066
 31
0.0
  0
LINE
  5
D70E
330
18
100
AcDbEntity
  8
DRAW2
100
AcDbLine
 10
1329.764557189585
 20
193.4195041554071
 30
0.0
 11
1329.764557189585
 21
197.4195041554066
 31
0.0
  0
LINE
  5
D70F
330
18
100
AcDbEntity
  8
DRAW2
100
AcDbLine
 10
1334.764557189585
 20
193.4195041554071
 30
0.0
 11
1341.514557189585
 21
193.4195041554066
 31
0.0
  0
LINE
  5
D710
330
18
100
AcDbEntity
  8
DRAW2
100
AcDbLine
 10
1338.139557189585
 20
198.4195041554062
 30
0.0
 11
1338.139557189585
 21
197.4195041554066
 31
0.0
  0
LINE
  5
D711
330
18
100
AcDbEntity
  8
DRAW2
100
AcDbLine
 10
1339.389557189585
 20
198.4195041554062
 30
0.0
 11
1339.389557189585
 21
197.4195041554066
 31
0.0
  0
LINE
  5
D712
330
18
100
AcDbEntity
  8
DRAW2
100
AcDbLine
 10
1337.564557189585
 20
186.4195041554071
 30
0.0
 11
1339.964557189586
 21
186.4195041554071
 31
0.0
  0
LINE
  5
D713
330
18
100
AcDbEntity
  8
DRAW2
100
AcDbLine
 10
1341.364557189585
 20
188.9195041554071
 30
0.0
 11
1339.964557189585
 21
186.4195041554071
 31
0.0
  0
LINE
  5
D714
330
18
100
AcDbEntity
  8
DRAW2
100
AcDbLine
 10
1336.164557189585
 20
188.9195041554071
 30
0.0
 11
1337.564557189585
 21
186.4195041554071
 31
0.0
  0
LINE
  5
D715
330
18
100
AcDbEntity
  8
DRAW2
100
AcDbLine
 10
1349.764557189585
 20
193.4195041554071
 30
0.0
 11
1349.764557189585
 21
197.4195041554066
 31
0.0
  0
LINE
  5
D716
330
18
100
AcDbEntity
  8
DRAW2
100
AcDbLine
 10
1347.014557189585
 20
192.9195041554074
 30
0.0
 11
1347.014557189585
 21
193.4195041554066
 31
0.0
  0
LINE
  5
D717
330
18
100
AcDbEntity
  8
DRAW2
100
AcDbLine
 10
1348.364557189585
 20
188.9195041554071
 30
0.0
 11
1348.364557189585
 21
192.9195041554071
 31
0.0
  0
LINE
  5
D718
330
18
100
AcDbEntity
  8
DRAW2
100
AcDbLine
 10
1345.264557189585
 20
198.4195041554066
 30
0.0
 11
1345.264557189585
 21
197.4195041554066
 31
0.0
  0
LINE
  5
D719
330
18
100
AcDbEntity
  8
DRAW2
100
AcDbLine
 10
1346.264557189585
 20
198.4195041554066
 30
0.0
 11
1346.264557189585
 21
197.4195041554066
 31
0.0
  0
LINE
  5
D71A
330
18
100
AcDbEntity
  8
DRAW2
100
AcDbLine
 10
1344.564557189585
 20
186.4195041554071
 30
0.0
 11
1346.964557189586
 21
186.4195041554071
 31
0.0
  0
LINE
  5
D71B
330
18
100
AcDbEntity
  8
DRAW2
100
AcDbLine
 10
1348.364557189585
 20
188.9195041554071
 30
0.0
 11
1346.964557189584
 21
186.4195041554071
 31
0.0
  0
ARC
  5
D71C
330
18
100
AcDbEntity
  8
DRAW2
100
AcDbCircle
 10
1367.264557189585
 20
215.4782262646383
 30
0.0
 40
24.0
100
AcDbArc
 50
180.0
 51
199.9484435888015
  0
LINE
  5
D71E
330
18
100
AcDbEntity
  8
DRAW2
100
AcDbLine
 10
1342.264557189585
 20
215.1298116032076
 30
0.0
 11
1342.264557189585
 21
215.4782262646426
 31
0.0
  0
LINE
  5
D71F
330
18
100
AcDbEntity
  8
DRAW2
100
AcDbLine
 10
1341.01455718958
 20
215.1298116032076
 30
0.0
 11
1341.01455718958
 21
215.4782262646426
 31
0.0
  0
LINE
  5
D720
330
18
100
AcDbEntity
  8
DRAW2
100
AcDbLine
 10
1340.264557189577
 20
215.4782262646426
 30
0.0
 11
1344.264557189585
 21
215.4782262646426
 31
0.0
  0
ARC
  5
D723
330
18
100
AcDbEntity
  8
DRAW2
100
AcDbCircle
 10
1317.264557189585
 20
215.1298116032076
 30
0.0
 40
23.75
100
AcDbArc
 50
340.4757284897117
 51
0.0
  0
ARC
  5
D724
330
18
100
AcDbEntity
  8
DRAW2
100
AcDbCircle
 10
1367.264557189585
 20
215.4782262646383
 30
0.0
 40
25.0
100
AcDbArc
 50
180.0
 51
199.9484435888015
  0
ARC
  5
D725
330
18
100
AcDbEntity
  8
DRAW2
100
AcDbCircle
 10
1317.264557189585
 20
215.1298116032076
 30
0.0
 40
25.0
100
AcDbArc
 50
340.4757284897117
 51
0.0
  0
ARC
  5
D727
330
18
100
AcDbEntity
  8
DRAW2
100
AcDbCircle
 10
1351.264557189586
 20
241.144930608491
 30
0.0
 40
25.0
100
AcDbArc
 50
90.0
 51
180.0
  0
ARC
  5
D728
330
18
100
AcDbEntity
  8
DRAW2
100
AcDbCircle
 10
1351.264557189586
 20
241.144930608491
 30
0.0
 40
26.0
100
AcDbArc
 50
90.0
 51
180.0
  0
LINE
  5
D729
330
18
100
AcDbEntity
  8
DRAW2
100
AcDbLine
 10
1325.264557189585
 20
240.5754927041329
 30
0.0
 11
1325.264557189585
 21
241.1449306084904
 31
0.0
  0
LINE
  5
D72B
330
18
100
AcDbEntity
  8
DRAW2
100
AcDbLine
 10
1326.264557189585
 20
240.7350405836737
 30
0.0
 11
1326.264557189585
 21
241.1449306084904
 31
0.0
  0
LINE
  5
D72D
330
18
100
AcDbEntity
  8
DRAW2
100
AcDbLine
 10
1318.139557189586
 20
240.5754927041335
 30
0.0
 11
1318.139557189586
 21
243.1449306084904
 31
0.0
  0
LINE
  5
D72E
330
18
100
AcDbEntity
  8
DRAW2
100
AcDbLine
 10
1319.389557189587
 20
240.735040583674
 30
0.0
 11
1319.389557189587
 21
243.1449306084904
 31
0.0
  0
LINE
  5
D730
330
18
100
AcDbEntity
  8
DRAW2
100
AcDbLine
 10
1341.014557189593
 20
235.4782262646426
 30
0.0
 11
1341.014557189593
 21
238.4159448245916
 31
0.0
  0
LINE
  5
D731
330
18
100
AcDbEntity
  8
DRAW2
100
AcDbLine
 10
1342.264557189594
 20
235.4782262646426
 30
0.0
 11
1342.264557189594
 21
238.4817378454933
 31
0.0
  0
LINE
  5
D733
330
18
100
AcDbEntity
  8
DRAW2
100
AcDbLine
 10
1343.264557189594
 20
235.4782262646426
 30
0.0
 11
1343.264557189594
 21
238.7350405836735
 31
0.0
  0
LINE
  5
D734
330
18
100
AcDbEntity
  8
DRAW2
100
AcDbLine
 10
1340.264557189593
 20
235.4782262646426
 30
0.0
 11
1344.264557189593
 21
235.4782262646426
 31
0.0
  0
LINE
  5
D737
330
18
100
AcDbEntity
  8
DRAW2
100
AcDbLine
 10
1341.014557189595
 20
240.4159448245923
 30
0.0
 11
1341.014557189595
 21
243.1449306084899
 31
0.0
  0
LINE
  5
D738
330
18
100
AcDbEntity
  8
DRAW2
100
AcDbLine
 10
1342.264557189594
 20
240.4817378454933
 30
0.0
 11
1342.264557189594
 21
243.1449306084896
 31
0.0
  0
LINE
  5
D739
330
18
100
AcDbEntity
  8
DRAW2
100
AcDbLine
 10
1343.264557189594
 20
240.7350405836735
 30
0.0
 11
1343.264557189594
 21
241.144930608491
 31
0.0
  0
LINE
  5
D73A
330
18
100
AcDbEntity
  8
DRAW2
100
AcDbLine
 10
1344.389557189585
 20
268.1449306084899
 30
0.0
 11
1359.2606518928
 21
268.1449306084904
 31
0.0
  0
LINE
  5
D73B
330
18
100
AcDbEntity
  8
DRAW2
100
AcDbLine
 10
1351.264557189584
 20
267.1449306084896
 30
0.0
 11
1356.631472030521
 21
267.1449306084899
 31
0.0
  0
LINE
  5
D73C
330
18
100
AcDbEntity
  8
DRAW2
100
AcDbLine
 10
1351.264557189585
 20
266.1449306084904
 30
0.0
 11
1354.612976260709
 21
266.1449306084904
 31
0.0
  0
LINE
  5
D73D
330
18
100
AcDbEntity
  8
DRAW2
100
AcDbLine
 10
1426.046099091854
 20
260.7506927220246
 30
0.0
 11
1439.810168803684
 21
252.8040033687548
 31
0.0
  0
ARC
  5
D73F
330
18
100
AcDbEntity
  8
DRAW2
100
AcDbCircle
 10
1411.046099091852
 20
234.7699306084908
 30
0.0
 40
36.0
100
AcDbArc
 50
59.99999999999985
 51
90.0
  0
LINE
  5
D741
330
18
100
AcDbEntity
  8
DRAW2
100
AcDbLine
 10
1375.636862124176
 20
264.7699306084898
 30
0.0
 11
1406.423078349397
 21
264.7699306084904
 31
0.0
  0
LINE
  5
D742
330
18
100
AcDbEntity
  8
DRAW2
100
AcDbLine
 10
1375.636862124176
 20
270.7699306084898
 30
0.0
 11
1405.422767620349
 21
270.7699306084904
 31
0.0
  0
LINE
  5
D743
330
18
100
AcDbEntity
  8
DRAW2
100
AcDbLine
 10
1367.26455718959
 20
268.1449306084899
 30
0.0
 11
1375.636862124176
 21
268.1449306084899
 31
0.0
  0
LINE
  5
D744
330
18
100
AcDbEntity
  8
DRAW2
100
AcDbLine
 10
1368.264557189586
 20
266.1449306084914
 30
0.0
 11
1375.636862124176
 21
266.1449306084914
 31
0.0
  0
LINE
  5
D745
330
18
100
AcDbEntity
  8
DRAW2
100
AcDbLine
 10
1375.636862124177
 20
270.7699306084903
 30
0.0
 11
1375.636862124176
 21
264.7699306084903
 31
0.0
  0
LINE
  5
D746
330
18
100
AcDbEntity
  8
DRAW2
100
AcDbLine
 10
1407.422767620349
 20
270.769930608491
 30
0.0
 11
1411.046099091852
 21
270.769930608491
 31
0.0
  0
LINE
  5
D747
330
18
100
AcDbEntity
  8
DRAW2
100
AcDbLine
 10
1408.423078349397
 20
264.769930608491
 30
0.0
 11
1411.046099091852
 21
264.769930608491
 31
0.0
  0
ARC
  5
D748
330
18
100
AcDbEntity
  8
DRAW2
100
AcDbCircle
 10
1411.046099091852
 20
234.7699306084908
 30
0.0
 40
30.0
100
AcDbArc
 50
59.99999999999985
 51
90.0
  0
LINE
  5
D749
330
18
100
AcDbEntity
  8
DRAW2
100
AcDbLine
 10
1456.065187638562
 20
229.4191638687538
 30
0.0
 11
1451.252365465053
 21
221.0831113364427
 31
0.0
  0
CIRCLE
  5
D74B
330
18
100
AcDbEntity
  8
DRAW2
100
AcDbCircle
 10
1463.34721194135
 20
203.419227259502
 30
0.0
 40
10.50000000004285
  0
CIRCLE
  5
D74C
330
18
100
AcDbEntity
  8
DRAW2
100
AcDbCircle
 10
1463.34721194135
 20
203.419227259502
 30
0.0
 40
8.499970000000075
  0
LINE
  5
D74D
330
18
100
AcDbEntity
  8
DRAW2
100
AcDbLine
 10
1438.357219941318
 20
192.9191638687543
 30
0.0
 11
1451.959550677333
 21
192.9191638687543
 31
0.0
  0
LINE
  5
D74F
330
18
100
AcDbEntity
  8
DRAW2
100
AcDbLine
 10
1438.357219941318
 20
180.4191338687544
 30
0.0
 11
1440.857219941318
 21
180.4191338687544
 31
0.0
  0
LINE
  5
D750
330
18
100
AcDbEntity
  8
DRAW2
100
AcDbLine
 10
1438.357219941318
 20
184.4191638687543
 30
0.0
 11
1440.857219941318
 21
184.4191638687543
 31
0.0
  0
LINE
  5
D751
330
18
100
AcDbEntity
  8
DRAW2
100
AcDbLine
 10
1438.357219941318
 20
184.4191638687543
 30
0.0
 11
1438.357219941318
 21
192.9191638687543
 31
0.0
  0
LINE
  5
D752
330
18
100
AcDbEntity
  8
DRAW2
100
AcDbLine
 10
1440.857219941318
 20
180.4191338687544
 30
0.0
 11
1440.857219941318
 21
184.4191638687543
 31
0.0
  0
LINE
  5
D753
330
18
100
AcDbEntity
  8
DRAW2
100
AcDbLine
 10
1452.776642466513
 20
217.8936685225719
 30
0.0
 11
1451.984416272623
 21
218.3510605288738
 31
0.0
  0
LINE
  5
D754
330
18
100
AcDbEntity
  8
DRAW2
100
AcDbLine
 10
1451.984416272623
 20
218.3510605288738
 30
0.0
 11
1451.252365465053
 21
221.0831113364426
 31
0.0
  0
LINE
  5
D757
330
18
100
AcDbEntity
  8
DRAW2
100
AcDbLine
 10
1460.335099184343
 20
238.7663583073585
 30
0.0
 11
1457.585970542538
 21
240.2410514952782
 31
0.0
  0
LINE
  5
D758
330
18
100
AcDbEntity
  8
DRAW3
100
AcDbLine
 10
1458.814464741587
 20
240.2410514952781
 30
0.0
 11
1460.614499579309
 21
239.2754731397065
 31
0.0
  0
LINE
  5
D759
330
18
100
AcDbEntity
  8
DRAW2
100
AcDbLine
 10
1461.771257684017
 20
249.3623670990299
 30
0.0
 11
1456.771257684017
 21
240.7021130611854
 31
0.0
  0
LINE
  5
D75A
330
18
100
AcDbEntity
  8
DRAW2
100
AcDbLine
 10
1463.482652241586
 20
248.326589424536
 30
0.0
 11
1458.523964741587
 21
239.7378907356793
 31
0.0
  0
LINE
  5
D75B
330
18
100
AcDbEntity
  8
DRAW2
100
AcDbLine
 10
1460.425537378958
 20
248.1955248185393
 30
0.0
 11
1456.237450356727
 21
250.6135179882139
 31
0.0
  0
LINE
  5
D75C
330
18
100
AcDbEntity
  8
DRAW2
100
AcDbLine
 10
1456.575105261311
 20
252.3623670990299
 30
0.0
 11
1461.771257684017
 21
249.3623670990299
 31
0.0
  0
LINE
  5
D75D
330
18
100
AcDbEntity
  8
DRAW2
100
AcDbLine
 10
1446.783245015037
 20
258.8817256518684
 30
0.0
 11
1441.033245015037
 21
248.9224335083473
 31
0.0
  0
LINE
  5
D75E
330
18
100
AcDbEntity
  8
DRAW2
100
AcDbLine
 10
1454.504804453742
 20
252.7765009133696
 30
0.0
 11
1450.181304453743
 21
245.2879792468459
 31
0.0
  0
LINE
  5
D75F
330
18
100
AcDbEntity
  8
DRAW2
100
AcDbLine
 10
1454.257188268082
 20
253.70061709903
 30
0.0
 11
1449.257188268082
 21
245.0403630611856
 31
0.0
  0
LINE
  5
D760
330
18
100
AcDbEntity
  8
DRAW2
100
AcDbLine
 10
1456.575105261311
 20
252.3623670990299
 30
0.0
 11
1451.575105261311
 21
243.7021130611856
 31
0.0
  0
LINE
  5
D761
330
18
100
AcDbEntity
  8
DRAW2
100
AcDbLine
 10
1453.27843554342
 20
255.1317256518683
 30
0.0
 11
1447.528435543419
 21
245.1724335083473
 31
0.0
  0
LINE
  5
D764
330
18
100
AcDbEntity
  8
DRAW2
100
AcDbLine
 10
1443.074270418821
 20
250.4575932072408
 30
0.0
 11
1441.342219515036
 21
249.4575930405905
 31
0.0
  0
LINE
  5
D765
330
18
100
AcDbEntity
  8
DRAW2
100
AcDbLine
 10
1438.868181505576
 20
250.1724335083474
 30
0.0
 11
1441.033245015037
 21
248.9224335083473
 31
0.0
  0
LINE
  5
D766
330
18
100
AcDbEntity
  8
DRAW2
100
AcDbLine
 10
1443.074270418821
 20
250.4575932072408
 30
0.0
 11
1447.837410139636
 21
247.7075932072408
 31
0.0
  0
LINE
  5
D767
330
18
100
AcDbEntity
  8
DRAW2
100
AcDbLine
 10
1441.033245217931
 20
247.6155513253733
 30
0.0
 11
1445.982377459665
 21
244.7581684933535
 31
0.0
  0
LINE
  5
D768
330
18
100
AcDbEntity
  8
DRAW2
100
AcDbLine
 10
1441.033245015037
 20
248.9224335083473
 30
0.0
 11
1441.033245217931
 21
247.6155513253733
 31
0.0
  0
LINE
  5
D769
330
18
100
AcDbEntity
  8
DRAW2
100
AcDbLine
 10
1447.837410139636
 20
247.7075932072408
 30
0.0
 11
1449.569461043419
 21
248.7075933738909
 31
0.0
  0
LINE
  5
D76A
330
18
100
AcDbEntity
  8
DRAW2
100
AcDbLine
 10
1457.108912588601
 20
242.4509621720015
 30
0.0
 11
1452.920825566372
 21
244.8689553416761
 31
0.0
  0
LINE
  5
D76B
330
18
100
AcDbEntity
  8
DRAW2
100
AcDbLine
 10
1451.575105261311
 20
243.7021130611856
 30
0.0
 11
1456.771257684017
 21
240.7021130611854
 31
0.0
  0
LINE
  5
D76C
330
18
100
AcDbEntity
  8
DRAW2
100
AcDbLine
 10
1449.257188268082
 20
245.0403630611856
 30
0.0
 11
1447.903435543419
 21
245.8219525611855
 31
0.0
  0
LINE
  5
D76D
330
18
100
AcDbEntity
  8
DRAW2
100
AcDbLine
 10
1450.181304453743
 20
245.2879792468459
 30
0.0
 11
1449.257188268082
 21
245.0403630611856
 31
0.0
  0
LINE
  5
D76E
330
18
100
AcDbEntity
  8
DRAW2
100
AcDbLine
 10
1447.837410139636
 20
247.7075932072408
 30
0.0
 11
1447.837410043419
 21
245.7075930405903
 31
0.0
  0
LINE
  5
D76F
330
18
100
AcDbEntity
  8
DRAW2
100
AcDbLine
 10
1447.528435543419
 20
245.1724335083473
 30
0.0
 11
1445.982377459664
 21
244.7581684933534
 31
0.0
  0
LINE
  5
D770
330
18
100
AcDbEntity
  8
DRAW2
100
AcDbLine
 10
1452.079137961549
 20
243.4111096460229
 30
0.0
 11
1452.920825566372
 21
244.8689553416761
 31
0.0
  0
LINE
  5
D771
330
18
100
AcDbEntity
  8
DRAW2
100
AcDbLine
 10
1452.920825566372
 20
246.0329690023268
 30
0.0
 11
1452.920825566372
 21
244.8689553416761
 31
0.0
  0
LINE
  5
D772
330
18
100
AcDbEntity
  8
DRAW2
100
AcDbLine
 10
1451.97510526131
 20
244.3949333842131
 30
0.0
 11
1450.243054453743
 21
245.3949333842131
 31
0.0
  0
LINE
  5
D773
330
18
100
AcDbEntity
  8
DRAW3
100
AcDbLine
 10
1450.181304453743
 20
245.2879792468459
 30
0.0
 11
1448.241685543419
 21
246.4078187468458
 31
0.0
  0
LINE
  5
D774
330
18
100
AcDbEntity
  8
DRAW2
100
AcDbLine
 10
1456.26722498378
 20
240.9931164763483
 30
0.0
 11
1457.108912588601
 21
242.4509621720015
 31
0.0
  0
LINE
  5
D775
330
18
100
AcDbEntity
  8
DRAW2
100
AcDbLine
 10
1458.116977989078
 20
243.0329690023269
 30
0.0
 11
1457.108912588601
 21
242.4509621720015
 31
0.0
  0
LINE
  5
D776
330
18
100
AcDbEntity
  8
DRAW2
100
AcDbLine
 10
1457.585970542538
 20
240.2410514952782
 30
0.0
 11
1456.775290384255
 21
240.7090979028893
 31
0.0
  0
LINE
  5
D777
330
18
100
AcDbEntity
  8
DRAW3
100
AcDbLine
 10
1457.585970542538
 20
240.2410514952782
 30
0.0
 11
1458.814464741587
 21
240.2410514952781
 31
0.0
  0
LINE
  5
D778
330
18
100
AcDbEntity
  8
DRAW2
100
AcDbLine
 10
1444.040831303684
 20
260.131725768431
 30
0.0
 11
1438.579506303683
 21
250.6724333917849
 31
0.0
  0
LINE
  5
D779
330
18
100
AcDbEntity
  8
DRAW2
100
AcDbLine
 10
1444.618181505576
 20
260.1317256518683
 30
0.0
 11
1438.868181505576
 21
250.1724335083474
 31
0.0
  0
LINE
  5
D77B
330
18
100
AcDbEntity
  8
DRAW2
100
AcDbLine
 10
1429.046099091852
 20
265.946845144731
 30
0.0
 11
1442.810168803682
 21
258.0001557914608
 31
0.0
  0
LINE
  5
D77C
330
18
100
AcDbEntity
  8
DRAW2
100
AcDbLine
 10
1443.074270418821
 20
250.4575932072408
 30
0.0
 11
1443.074270515037
 21
252.4575933738911
 31
0.0
  0
LINE
  5
D77D
330
18
100
AcDbEntity
  8
DRAW2
100
AcDbLine
 10
1438.868181505576
 20
250.1724335083474
 30
0.0
 11
1438.579506303683
 21
250.6724333917849
 31
0.0
  0
LINE
  5
D77E
330
18
100
AcDbEntity
  8
DRAW2
100
AcDbLine
 10
1444.618181505576
 20
260.1317256518683
 30
0.0
 11
1444.040831303684
 21
260.131725768431
 31
0.0
  0
LINE
  5
D77F
330
18
100
AcDbEntity
  8
DRAW2
100
AcDbLine
 10
1446.783245015037
 20
258.8817256518684
 30
0.0
 11
1447.915038286693
 21
259.5351665676438
 31
0.0
  0
LINE
  5
D780
330
18
100
AcDbEntity
  8
DRAW2
100
AcDbLine
 10
1446.474270418821
 20
256.3465659529749
 30
0.0
 11
1444.742219515037
 21
255.3465657863247
 31
0.0
  0
LINE
  5
D781
330
18
100
AcDbEntity
  8
DRAW2
100
AcDbLine
 10
1446.474270418821
 20
256.3465659529749
 30
0.0
 11
1446.474270515037
 21
258.3465661196253
 31
0.0
  0
LINE
  5
D782
330
18
100
AcDbEntity
  8
DRAW2
100
AcDbLine
 10
1444.618181505576
 20
260.1317256518683
 30
0.0
 11
1446.783245015037
 21
258.8817256518684
 31
0.0
  0
LINE
  5
D783
330
18
100
AcDbEntity
  8
DRAW2
100
AcDbLine
 10
1454.257188268082
 20
253.70061709903
 30
0.0
 11
1452.90343554342
 21
254.48220659903
 31
0.0
  0
LINE
  5
D784
330
18
100
AcDbEntity
  8
DRAW2
100
AcDbLine
 10
1454.504804453742
 20
252.7765009133696
 30
0.0
 11
1454.257188268082
 21
253.70061709903
 31
0.0
  0
LINE
  5
D785
330
18
100
AcDbEntity
  8
DRAW2
100
AcDbLine
 10
1451.237410139635
 20
253.5965659529749
 30
0.0
 11
1451.237410043419
 21
251.5965657863246
 31
0.0
  0
LINE
  5
D786
330
18
100
AcDbEntity
  8
DRAW2
100
AcDbLine
 10
1451.237410139635
 20
253.5965659529749
 30
0.0
 11
1452.969461043419
 21
254.5965661196252
 31
0.0
  0
LINE
  5
D787
330
18
100
AcDbEntity
  8
DRAW2
100
AcDbLine
 10
1453.27843554342
 20
255.1317256518683
 30
0.0
 11
1452.864170528425
 21
256.677783735624
 31
0.0
  0
LINE
  5
D788
330
18
100
AcDbEntity
  8
DRAW2
100
AcDbLine
 10
1455.22938495625
 20
250.0315111578886
 30
0.0
 11
1456.237450356727
 21
250.6135179882139
 31
0.0
  0
LINE
  5
D789
330
18
100
AcDbEntity
  8
DRAW2
100
AcDbLine
 10
1457.079137961549
 20
252.0713636838671
 30
0.0
 11
1456.237450356727
 21
250.6135179882139
 31
0.0
  0
LINE
  5
D78A
330
18
100
AcDbEntity
  8
DRAW2
100
AcDbLine
 10
1456.175105261311
 20
251.6695467760023
 30
0.0
 11
1454.443054453743
 21
252.6695467760024
 31
0.0
  0
LINE
  5
D78B
330
18
100
AcDbEntity
  8
DRAW2
100
AcDbLine
 10
1446.474270418821
 20
256.3465659529749
 30
0.0
 11
1451.237410139635
 21
253.5965659529749
 31
0.0
  0
LINE
  5
D78C
330
18
100
AcDbEntity
  8
DRAW2
100
AcDbLine
 10
1447.915038286693
 20
259.5351665676438
 30
0.0
 11
1452.864170528425
 21
256.6777837356239
 31
0.0
  0
LINE
  5
D78D
330
18
100
AcDbEntity
  8
DRAW3
100
AcDbLine
 10
1454.504804453742
 20
252.7765009133696
 30
0.0
 11
1452.565185543419
 21
253.8963404133696
 31
0.0
  0
LINE
  5
D78E
330
18
100
AcDbEntity
  8
DRAW2
100
AcDbLine
 10
1461.26722498378
 20
249.6533705141926
 30
0.0
 11
1460.425537378958
 21
248.1955248185393
 31
0.0
  0
LINE
  5
D78F
330
18
100
AcDbEntity
  8
DRAW2
100
AcDbLine
 10
1460.425537378958
 20
247.0315111578886
 30
0.0
 11
1460.425537378958
 21
248.1955248185395
 31
0.0
  0
LINE
  5
D790
330
18
100
AcDbEntity
  8
DRAW2
100
AcDbLine
 10
1465.566964295805
 20
247.0347692750434
 30
0.0
 11
1462.577905142063
 21
248.8873358497151
 31
0.0
  0
LINE
  5
D791
330
18
100
AcDbEntity
  8
DRAW2
100
AcDbLine
 10
1462.577905142063
 20
248.8873358497151
 30
0.0
 11
1461.76722498378
 21
249.3553822573261
 31
0.0
  0
LINE
  5
D792
330
18
100
AcDbEntity
  8
DRAW3
100
AcDbLine
 10
1463.192152241586
 20
247.823428664937
 30
0.0
 11
1465.225664954301
 21
246.563093058655
 31
0.0
  0
LINE
  5
D793
330
18
100
AcDbEntity
  8
DRAW3
100
AcDbLine
 10
1462.577905142063
 20
248.8873358497151
 30
0.0
 11
1463.192152241586
 21
247.823428664937
 31
0.0
  0
LINE
  5
D795
330
18
100
AcDbEntity
  8
DRAW2
100
AcDbLine
 10
1476.526642466513
 20
259.0298752023327
 30
0.0
 11
1475.734416272623
 21
259.4872672086344
 31
0.0
  0
LINE
  5
D796
330
18
100
AcDbEntity
  8
DRAW2
100
AcDbLine
 10
1473.002365465054
 20
258.7552164010657
 30
0.0
 11
1468.189543291545
 21
250.419163868755
 31
0.0
  0
LINE
  5
D797
330
18
100
AcDbEntity
  8
DRAW2
100
AcDbLine
 10
1473.002365465054
 20
258.7552164010657
 30
0.0
 11
1475.734416272623
 21
259.4872672086344
 31
0.0
  0
ARC
  5
D799
330
18
100
AcDbEntity
  8
DRAW2
100
AcDbCircle
 10
1525.347219941318
 20
203.4191638687543
 30
0.0
 40
74.0
100
AcDbArc
 50
293.2314099999968
 51
66.76855499999914
  0
LINE
  5
D79A
330
18
100
AcDbEntity
  8
DRAW2
100
AcDbLine
 10
1590.474979941317
 20
69.27077386875453
 30
0.0
 11
1593.347229941318
 21
88.41913386875445
 31
0.0
  0
LINE
  5
D79C
330
18
100
AcDbEntity
  8
DRAW2
100
AcDbLine
 10
1539.347109941318
 20
88.41910386875429
 30
0.0
 11
1539.347109941318
 21
71.41909386875432
 31
0.0
  0
LINE
  5
D79D
330
18
100
AcDbEntity
  8
DRAW2
100
AcDbLine
 10
1555.347159941318
 20
88.41910386875429
 30
0.0
 11
1555.347159941318
 21
71.41909386875432
 31
0.0
  0
LINE
  5
D79E
330
18
100
AcDbEntity
  8
DRAW2
100
AcDbLine
 10
1560.219489941317
 20
69.27076386875433
 30
0.0
 11
1557.347229941318
 21
88.41910386875429
 31
0.0
  0
LINE
  5
D7A0
330
18
100
AcDbEntity
  8
DRAW2
100
AcDbLine
 10
1495.347029941318
 20
88.41910386875429
 30
0.0
 11
1495.347029941318
 21
71.41909386875432
 31
0.0
  0
LINE
  5
D7A1
330
18
100
AcDbEntity
  8
DRAW2
100
AcDbLine
 10
1511.347059941318
 20
88.41910386875429
 30
0.0
 11
1511.347059941318
 21
71.41909386875432
 31
0.0
  0
LINE
  5
D7A3
330
18
100
AcDbEntity
  8
DRAW2
100
AcDbLine
 10
1511.347189941318
 20
71.41895386875443
 30
0.0
 11
1495.347189941318
 21
71.41895386875443
 31
0.0
  0
LINE
  5
D7A4
330
18
100
AcDbEntity
  8
DRAW2
100
AcDbLine
 10
1509.347219941318
 20
69.41898386875435
 30
0.0
 11
1497.347189941318
 21
69.41898386875435
 31
0.0
  0
LINE
  5
D7A5
330
18
100
AcDbEntity
  8
DRAW2
100
AcDbLine
 10
1497.347249941318
 20
69.41913386875445
 30
0.0
 11
1495.347249941318
 21
71.4191038687545
 31
0.0
  0
LINE
  5
D7A6
330
18
100
AcDbEntity
  8
DRAW2
100
AcDbLine
 10
1509.347079941318
 20
69.41915386875439
 30
0.0
 11
1511.347079941318
 21
71.41916386875435
 31
0.0
  0
LINE
  5
D7A7
330
18
100
AcDbEntity
  8
DRAW2
100
AcDbLine
 10
1555.347189941318
 20
71.41904386875443
 30
0.0
 11
1539.347189941318
 21
71.41904386875443
 31
0.0
  0
LINE
  5
D7A8
330
18
100
AcDbEntity
  8
DRAW2
100
AcDbLine
 10
1553.347189941318
 20
69.41902386875449
 30
0.0
 11
1541.347219941318
 21
69.41902386875449
 31
0.0
  0
LINE
  5
D7A9
330
18
100
AcDbEntity
  8
DRAW2
100
AcDbLine
 10
1541.347139941318
 20
69.41915386875439
 30
0.0
 11
1539.347159941318
 21
71.41912386875445
 31
0.0
  0
LINE
  5
D7AA
330
18
100
AcDbEntity
  8
DRAW2
100
AcDbLine
 10
1553.347109941318
 20
69.41912386875447
 30
0.0
 11
1555.347109941318
 21
71.41912386875445
 31
0.0
  0
LINE
  5
D7AB
330
18
100
AcDbEntity
  8
DRAW2
100
AcDbLine
 10
1589.486039941318
 20
68.41907386875437
 30
0.0
 11
1561.208409941318
 21
68.41907386875437
 31
0.0
  0
ARC
  5
D7AC
330
18
100
AcDbEntity
  8
DRAW2
100
AcDbCircle
 10
1561.208409941318
 20
69.41910386875452
 30
0.0
 40
1.0
100
AcDbArc
 50
188.5310499999986
 51
270.0000200000018
  0
ARC
  5
D7AD
330
18
100
AcDbEntity
  8
DRAW2
100
AcDbCircle
 10
1589.486039941318
 20
69.41910386875452
 30
0.0
 40
1.0
100
AcDbArc
 50
270.0000200000018
 51
351.4689300000039
  0
CIRCLE
  5
D7AE
330
18
100
AcDbEntity
  8
DRAW2
100
AcDbCircle
 10
1556.347169043303
 20
149.72555021057
 30
0.0
 40
10.50000000004285
  0
CIRCLE
  5
D7AF
330
18
100
AcDbEntity
  8
DRAW2
100
AcDbCircle
 10
1556.347169043303
 20
149.72555021057
 30
0.0
 40
8.499970000000075
  0
LINE
  5
D7B2
330
18
100
AcDbEntity
  8
HIDDEN
100
AcDbLine
 10
1525.347219941318
 20
160.4191638687543
 30
0.0
 11
1560.554370413821
 21
160.4191638687542
 31
0.0
  0
LINE
  5
D7B3
330
18
100
AcDbEntity
  8
HIDDEN
100
AcDbLine
 10
1525.347219941318
 20
168.4191638687543
 30
0.0
 11
1560.554339941318
 21
168.4191638687543
 31
0.0
  0
ARC
  5
D7B5
330
18
100
AcDbEntity
  8
DRAW2
100
AcDbCircle
 10
1525.347219941318
 20
119.4190738687542
 30
0.0
 40
34.0
100
AcDbArc
 50
331.9274599999955
 51
28.07243300000454
  0
CIRCLE
  5
D7B6
330
18
100
AcDbEntity
  8
DRAW2
100
AcDbCircle
 10
1525.347219941318
 20
119.4190738687542
 30
0.0
 40
7.0
  0
CIRCLE
  5
D7B7
330
18
100
AcDbEntity
  8
DRAW2
100
AcDbCircle
 10
1525.347219941318
 20
119.4190738687542
 30
0.0
 40
12.5
  0
CIRCLE
  5
D7B8
330
18
100
AcDbEntity
  8
HIDDEN
100
AcDbCircle
 10
1525.347219941318
 20
164.4191638687543
 30
0.0
 40
4.0
  0
LINE
  5
D7B9
330
18
100
AcDbEntity
  8
DRAW2
100
AcDbLine
 10
1495.347189941318
 20
135.4191038687541
 30
0.0
 11
1555.347189941318
 21
135.4191038687541
 31
0.0
  0
LINE
  5
D7BA
330
18
100
AcDbEntity
  8
DRAW2
100
AcDbLine
 10
1493.930559941318
 20
136.4190438687544
 30
0.0
 11
1556.763689941318
 21
136.4190438687544
 31
0.0
  0
LINE
  5
D7BB
330
18
100
AcDbEntity
  8
DRAW2
100
AcDbLine
 10
1585.847229941318
 20
103.4190738687543
 30
0.0
 11
1585.847229941318
 21
123.4190738687543
 31
0.0
  0
LINE
  5
D7BC
330
18
100
AcDbEntity
  8
DRAW2
100
AcDbLine
 10
1564.847219941318
 20
103.4190738687543
 30
0.0
 11
1564.847219941318
 21
123.4190738687543
 31
0.0
  0
LINE
  5
D7BD
330
18
100
AcDbEntity
  8
DRAW2
100
AcDbLine
 10
1590.347199941318
 20
103.4190738687543
 30
0.0
 11
1590.347199941318
 21
88.41910386875429
 31
0.0
  0
LINE
  5
D7BE
330
18
100
AcDbEntity
  8
DRAW2
100
AcDbLine
 10
1564.847219941318
 20
123.4190438687543
 30
0.0
 11
1585.847229941318
 21
123.4190438687543
 31
0.0
  0
LINE
  5
D7BF
330
18
100
AcDbEntity
  8
DRAW2
100
AcDbLine
 10
1566.847229941318
 20
125.4190738687543
 30
0.0
 11
1583.847229941318
 21
125.4190738687543
 31
0.0
  0
LINE
  5
D7C0
330
18
100
AcDbEntity
  8
DRAW2
100
AcDbLine
 10
1564.847219941318
 20
123.4190138687545
 30
0.0
 11
1566.847199941318
 21
125.4190138687545
 31
0.0
  0
LINE
  5
D7C1
330
18
100
AcDbEntity
  8
DRAW2
100
AcDbLine
 10
1583.847139941318
 20
125.4191038687543
 30
0.0
 11
1585.847139941318
 21
123.4191038687541
 31
0.0
  0
LINE
  5
D7C2
330
18
100
AcDbEntity
  8
DRAW2
100
AcDbLine
 10
1595.347199941318
 20
103.4190738687543
 30
0.0
 11
1595.347199941318
 21
88.41910386875429
 31
0.0
  0
LINE
  5
D7C3
330
18
100
AcDbEntity
  8
HIDDEN
100
AcDbLine
 10
1593.845396674031
 20
175.4192166479699
 30
0.0
 11
1576.347219941318
 21
175.4192166479699
 31
0.0
  0
LINE
  5
D7C4
330
18
100
AcDbEntity
  8
HIDDEN
100
AcDbLine
 10
1576.347219941318
 20
153.4192166479699
 30
0.0
 11
1576.347219941318
 21
175.4192166479699
 31
0.0
  0
LINE
  5
D7C5
330
18
100
AcDbEntity
  8
HIDDEN
100
AcDbLine
 10
1579.899975103717
 20
153.4192166479699
 30
0.0
 11
1576.347219941318
 21
153.4192166479699
 31
0.0
  0
LINE
  5
D7C6
330
18
100
AcDbEntity
  8
HIDDEN
100
AcDbLine
 10
1576.347219941318
 20
159.8192166479696
 30
0.0
 11
1572.847219941318
 21
159.8192166479696
 31
0.0
  0
LINE
  5
D7C7
330
18
100
AcDbEntity
  8
HIDDEN
100
AcDbLine
 10
1576.347219941318
 20
169.0192166479698
 30
0.0
 11
1572.847219941318
 21
169.0192166479698
 31
0.0
  0
LINE
  5
D7C8
330
18
100
AcDbEntity
  8
HIDDEN
100
AcDbLine
 10
1566.347249941318
 20
169.7925066479698
 30
0.0
 11
1576.347219941318
 21
170.1417210068856
 31
0.0
  0
LINE
  5
D7C9
330
18
100
AcDbEntity
  8
HIDDEN
100
AcDbLine
 10
1566.347219941318
 20
170.6484966479699
 30
0.0
 11
1576.347219941318
 21
170.9977066479699
 31
0.0
  0
LINE
  5
D7CA
330
18
100
AcDbEntity
  8
HIDDEN
100
AcDbLine
 10
1576.347219941318
 20
158.6967423910211
 30
0.0
 11
1566.347219941318
 21
159.0459566479698
 31
0.0
  0
LINE
  5
D7CB
330
18
100
AcDbEntity
  8
HIDDEN
100
AcDbLine
 10
1576.347219941318
 20
157.8407266479699
 30
0.0
 11
1566.347219941318
 21
158.1899066479699
 31
0.0
  0
LINE
  5
D7CC
330
18
100
AcDbEntity
  8
HIDDEN
100
AcDbLine
 10
1567.389128667903
 20
170.6848811426109
 30
0.0
 11
1566.347219941318
 21
169.6099041479696
 31
0.0
  0
LINE
  5
D7CD
330
18
100
AcDbEntity
  8
HIDDEN
100
AcDbLine
 10
1560.554339941318
 20
168.4192166479699
 30
0.0
 11
1561.347219941318
 21
169.7925066479698
 31
0.0
  0
LINE
  5
D7CE
330
18
100
AcDbEntity
  8
HIDDEN
100
AcDbLine
 10
1561.347219941318
 20
169.7925066479698
 30
0.0
 11
1566.347219941318
 21
169.7925066479698
 31
0.0
  0
LINE
  5
D7CF
330
18
100
AcDbEntity
  8
HIDDEN
100
AcDbLine
 10
1564.864579941318
 20
169.7925066479698
 30
0.0
 11
1566.347219941318
 21
170.6484966479699
 31
0.0
  0
LINE
  5
D7D0
330
18
100
AcDbEntity
  8
HIDDEN
100
AcDbLine
 10
1567.389155627904
 20
158.1535243376658
 30
0.0
 11
1566.347219941318
 21
159.2285291479696
 31
0.0
  0
LINE
  5
D7D1
330
18
100
AcDbEntity
  8
HIDDEN
100
AcDbLine
 10
1561.347219941318
 20
159.0459266479696
 30
0.0
 11
1566.347219941318
 21
159.0459266479698
 31
0.0
  0
LINE
  5
D7D2
330
18
100
AcDbEntity
  8
HIDDEN
100
AcDbLine
 10
1566.347219941318
 20
158.1899066479699
 30
0.0
 11
1564.864579941318
 21
159.0459266479698
 31
0.0
  0
LINE
  5
D7D3
330
18
100
AcDbEntity
  8
HIDDEN
100
AcDbLine
 10
1561.347219941318
 20
159.0459266479696
 30
0.0
 11
1560.554339941318
 21
160.4192166479696
 31
0.0
  0
ARC
  5
D7D4
330
18
100
AcDbEntity
  8
HIDDEN
100
AcDbCircle
 10
1560.869994366266
 20
164.4192166479698
 30
0.0
 40
6.5
100
AcDbArc
 50
327.4210296071939
 51
32.57897039280595
  0
ARC
  5
D7D5
330
18
100
AcDbEntity
  8
HIDDEN
100
AcDbCircle
 10
1587.648909034121
 20
164.4192166479695
 30
0.0
 40
15.5
100
AcDbArc
 50
162.7360436771849
 51
197.2639563228149
  0
LINE
  5
D7D6
330
18
100
AcDbEntity
  8
HIDDEN
100
AcDbLine
 10
1560.554339941318
 20
160.4192166479696
 30
0.0
 11
1560.554339941318
 21
168.4192166479699
 31
0.0
  0
LINE
  5
D7D7
330
18
100
AcDbEntity
  8
HIDDEN
100
AcDbLine
 10
1566.347219941318
 20
158.1899366479699
 30
0.0
 11
1566.347219941318
 21
170.6485266479699
 31
0.0
  0
LINE
  5
D7D8
330
18
100
AcDbEntity
  8
HIDDEN
100
AcDbLine
 10
1561.347219941318
 20
159.0459266479696
 30
0.0
 11
1561.347219941318
 21
169.7925066479698
 31
0.0
  0
ARC
  5
D7D9
330
18
100
AcDbEntity
  8
DRAW2
100
AcDbCircle
 10
1525.347219941318
 20
287.4191338687543
 30
0.0
 40
34.0
100
AcDbArc
 50
331.9275099999973
 51
28.07248699999762
  0
CIRCLE
  5
D7DA
330
18
100
AcDbEntity
  8
DRAW2
100
AcDbCircle
 10
1556.347278839298
 20
257.1127141361908
 30
0.0
 40
10.50000000004285
  0
CIRCLE
  5
D7DB
330
18
100
AcDbEntity
  8
DRAW2
100
AcDbCircle
 10
1556.347278839298
 20
257.1127141361908
 30
0.0
 40
8.499970000000075
  0
LINE
  5
D7DF
330
18
100
AcDbEntity
  8
DRAW2
100
AcDbLine
 10
1495.347235941337
 20
271.4191038687545
 30
0.0
 11
1555.347189941318
 21
271.4191038687545
 31
0.0
  0
LINE
  5
D7E0
330
18
100
AcDbEntity
  8
DRAW2
100
AcDbLine
 10
1493.930599817582
 20
270.4191338687544
 30
0.0
 11
1556.763689941318
 21
270.4191338687544
 31
0.0
  0
CIRCLE
  5
D7E1
330
18
100
AcDbEntity
  8
DRAW2
100
AcDbCircle
 10
1587.347227941285
 20
203.4191004780065
 30
0.0
 40
10.50000000004285
  0
CIRCLE
  5
D7E2
330
18
100
AcDbEntity
  8
DRAW2
100
AcDbCircle
 10
1587.347227941285
 20
203.4191004780065
 30
0.0
 40
8.499970000000075
  0
LINE
  5
D7E6
330
18
100
AcDbEntity
  8
DRAW2
100
AcDbLine
 10
1539.347199941317
 20
313.4191338687543
 30
0.0
 11
1539.347199941317
 21
330.4191338687544
 31
0.0
  0
LINE
  5
D7E7
330
18
100
AcDbEntity
  8
DRAW2
100
AcDbLine
 10
1555.347189941318
 20
313.4191338687543
 30
0.0
 11
1555.347189941318
 21
330.4191338687544
 31
0.0
  0
LINE
  5
D7E9
330
18
100
AcDbEntity
  8
DRAW2
100
AcDbLine
 10
1511.347219941318
 20
313.4191338687543
 30
0.0
 11
1511.347219941318
 21
330.4191338687544
 31
0.0
  0
LINE
  5
D7EA
330
18
100
AcDbEntity
  8
DRAW2
100
AcDbLine
 10
1495.347249941318
 20
313.4191338687543
 30
0.0
 11
1495.347249941318
 21
330.4191338687544
 31
0.0
  0
LINE
  5
D7EB
330
18
100
AcDbEntity
  8
DRAW2
100
AcDbLine
 10
1495.347189941318
 20
303.4191638687543
 30
0.0
 11
1555.347189941318
 21
303.4191638687543
 31
0.0
  0
CIRCLE
  5
D7EC
330
18
100
AcDbEntity
  8
DRAW2
100
AcDbCircle
 10
1525.347219941318
 20
287.4191338687543
 30
0.0
 40
7.0
  0
CIRCLE
  5
D7ED
330
18
100
AcDbEntity
  8
DRAW2
100
AcDbCircle
 10
1525.347219941318
 20
287.4191338687543
 30
0.0
 40
12.5
  0
LINE
  5
D7EE
330
18
100
AcDbEntity
  8
DRAW2
100
AcDbLine
 10
1495.347189941318
 20
313.4191338687543
 30
0.0
 11
1555.347189941318
 21
313.4191338687543
 31
0.0
  0
LINE
  5
D7EF
330
18
100
AcDbEntity
  8
DRAW2
100
AcDbLine
 10
1495.347249941318
 20
313.4191338687543
 30
0.0
 11
1495.347249941318
 21
303.4191038687545
 31
0.0
  0
LINE
  5
D7F0
330
18
100
AcDbEntity
  8
DRAW2
100
AcDbLine
 10
1555.347189941318
 20
313.4191338687543
 30
0.0
 11
1555.347189941318
 21
303.4191038687545
 31
0.0
  0
LINE
  5
D7F1
330
18
100
AcDbEntity
  8
DRAW2
100
AcDbLine
 10
1495.347189941318
 20
330.4191338687544
 30
0.0
 11
1511.347189941318
 21
330.4191338687544
 31
0.0
  0
LINE
  5
D7F2
330
18
100
AcDbEntity
  8
DRAW2
100
AcDbLine
 10
1497.347189941318
 20
332.4191038687545
 30
0.0
 11
1509.347219941318
 21
332.4191038687545
 31
0.0
  0
LINE
  5
D7F3
330
18
100
AcDbEntity
  8
DRAW2
100
AcDbLine
 10
1497.347159941318
 20
332.4190738687543
 30
0.0
 11
1495.347159941318
 21
330.4190738687543
 31
0.0
  0
LINE
  5
D7F4
330
18
100
AcDbEntity
  8
DRAW2
100
AcDbLine
 10
1509.347019941317
 20
332.4189838687543
 30
0.0
 11
1511.347019941318
 21
330.4189838687543
 31
0.0
  0
LINE
  5
D7F5
330
18
100
AcDbEntity
  8
DRAW2
100
AcDbLine
 10
1539.347189941318
 20
330.4191338687544
 30
0.0
 11
1555.347189941318
 21
330.4191338687544
 31
0.0
  0
LINE
  5
D7F6
330
18
100
AcDbEntity
  8
DRAW2
100
AcDbLine
 10
1541.347219941318
 20
332.4191038687545
 30
0.0
 11
1553.347189941318
 21
332.4191038687545
 31
0.0
  0
LINE
  5
D7F7
330
18
100
AcDbEntity
  8
DRAW2
100
AcDbLine
 10
1541.347049941318
 20
332.4191038687545
 30
0.0
 11
1539.347079941318
 21
330.4191038687545
 31
0.0
  0
LINE
  5
D7F8
330
18
100
AcDbEntity
  8
DRAW2
100
AcDbLine
 10
1553.346959941318
 20
332.4190438687543
 30
0.0
 11
1555.346989941318
 21
330.4190138687545
 31
0.0
  0
VIEWPORT
  5
37
330
15
100
AcDbEntity
 67
     1
  8
0
100
AcDbViewport
 10
296.9950122070311
 20
209.9950000476836
 30
0.0
 40
632.1056339387388
 41
423.1939163498098
 68
     1
 69
     1
 12
296.9950122070311
 22
209.9950000476836
 13
0.0
 23
0.0
 14
10.0
 24
10.0
 15
10.0
 25
10.0
 16
0.0
 26
0.0
 36
1.0
 17
0.0
 27
0.0
 37
0.0
 42
50.0
 43
0.0
 44
0.0
 45
423.1939163498098
 50
0.0
 51
0.0
 72
   100
 90
    32768
  1

281
     0
 71
     1
 74
     0
110
0.0
120
0.0
130
0.0
111
1.0
121
0.0
131
0.0
112
0.0
122
1.0
132
0.0
 79
     0
146
0.0
  0
ENDSEC
  0
SECTION
  2
OBJECTS
  0
DICTIONARY
  5
C
330
0
100
AcDbDictionary
281
     1
  3
ACAD_GROUP
350
D
  3
ACAD_IMAGE_VARS
350
7A9
  3
ACAD_LAYOUT
350
1AD
  3
ACAD_MLINESTYLE
350
1B
  3
ACAD_PLOTSETTINGS
350
1AE
  3
ACAD_PLOTSTYLENAME
350
1AB
  0
DICTIONARY
  5
D
102
{ACAD_REACTORS
330
C
102
}
330
C
100
AcDbDictionary
281
     1
  3
*A1
350
1485
  3
*A2
350
CCE0
  0
RASTERVARIABLES
  5
7A9
102
{ACAD_REACTORS
330
C
102
}
330
C
100
AcDbRasterVariables
 90
        0
 70
     1
 71
     1
 72
     0
  0
DICTIONARY
  5
1AD
102
{ACAD_REACTORS
330
C
102
}
330
C
100
AcDbDictionary
281
     1
  3
Model
350
1AF
  3
ﾚｲｱｳﾄ1
350
1B0
  0
DICTIONARY
  5
1B
102
{ACAD_REACTORS
330
C
102
}
330
C
100
AcDbDictionary
281
     1
  3
STANDARD
350
1C
  0
DICTIONARY
  5
1AE
102
{ACAD_REACTORS
330
C
102
}
330
C
100
AcDbDictionary
281
     1
  3
AdobePDF_A2
350
BECB
  3
普通紙Ａ３_XL-5800_WinNT40
350
298B
  3
普通紙Ａ３からＡ４_XL-5800_WinNT40
350
298C
  0
ACDBDICTIONARYWDFLT
  5
1AB
102
{ACAD_REACTORS
330
C
102
}
330
C
100
AcDbDictionary
281
     1
  3
Normal
350
1AC
100
AcDbDictionaryWithDefault
340
1AC
  0
GROUP
  5
1485
102
{ACAD_REACTORS
330
D
102
}
330
D
100
AcDbGroup
300

 70
     1
 71
     1
  0
GROUP
  5
CCE0
102
{ACAD_REACTORS
330
D
102
}
330
D
100
AcDbGroup
300

 70
     1
 71
     1
  0
LAYOUT
  5
1AF
102
{ACAD_REACTORS
330
1AD
102
}
330
1AD
100
AcDbPlotSettings
  1

  2
FUJITSU XL-5800
  4
A4
  6

 40
5.873749732971191
 41
5.704405784606932
 42
5.873748779296875
 43
5.873748779296875
 44
210.0579986572264
 45
296.9259948730469
 46
-934.06
 47
-482.3299999999998
 48
0.0
 49
0.0
140
0.0
141
0.0
142
1.0
143
1.0
 70
 11956
 72
     1
 73
     0
 74
     0
  7
LineScale_10.ctb
 75
    16
147
1.0
148
1033.210332103321
149
625.0
100
AcDbLayout
  1
Model
 70
     1
 71
     0
 10
0.0
 20
0.0
 11
12.0
 21
9.0
 12
0.0
 22
0.0
 32
0.0
 14
0.0
 24
0.0
 34
0.0
 15
0.0
 25
0.0
 35
0.0
146
0.0
 13
0.0
 23
0.0
 33
0.0
 16
1.0
 26
0.0
 36
0.0
 17
0.0
 27
1.0
 37
0.0
 76
     0
330
18
  0
LAYOUT
  5
1B0
102
{ACAD_REACTORS
330
1AD
102
}
330
1AD
100
AcDbPlotSettings
  1
AdobePDF_A2
  2
Adobe PDF
  4
User66
  6
A1
 40
3.174999952316283
 41
3.174999952316283
 42
3.17498779296875
 43
3.17498779296875
 44
420.0
 45
594.0
 46
-3.169999999999998
 47
-3.169999999999998
 48
0.0
 49
0.0
140
594.0
141
420.0
142
1.0
143
1.0
 70
   692
 72
     1
 73
     1
 74
     4
  7
LineScale_10.ctb
 75
    16
147
1.0
148
0.0
149
0.0
100
AcDbLayout
  1
ﾚｲｱｳﾄ1
 70
     1
 71
     1
 10
-0.0049877929687501
 20
-0.0049999523162843
 11
593.9950122070312
 21
419.9950000476837
 12
0.0
 22
0.0
 32
0.0
 14
1.000000000000000E+20
 24
1.000000000000000E+20
 34
1.000000000000000E+20
 15
-1.000000000000000E+20
 25
-1.000000000000000E+20
 35
-1.000000000000000E+20
146
0.0
 13
0.0
 23
0.0
 33
0.0
 16
1.0
 26
0.0
 36
0.0
 17
0.0
 27
1.0
 37
0.0
 76
     0
330
15
331
37
  0
MLINESTYLE
  5
1C
102
{ACAD_REACTORS
330
1B
102
}
330
1B
100
AcDbMlineStyle
  2
STANDARD
 70
     0
  3

 62
   256
 51
90.0
 52
90.0
 71
     2
 49
0.5
 62
   256
  6
BYLAYER
 49
-0.5
 62
   256
  6
BYLAYER
  0
PLOTSETTINGS
  5
BECB
102
{ACAD_REACTORS
330
1AE
102
}
330
1AE
100
AcDbPlotSettings
  1
AdobePDF_A2
  2
Adobe PDF
  4
User66
  6
A1
 40
3.174999952316283
 41
3.174999952316283
 42
3.17498779296875
 43
3.17498779296875
 44
420.0
 45
594.0
 46
-3.169999999999998
 47
-3.169999999999998
 48
0.0
 49
0.0
140
594.0
141
420.0
142
1.0
143
1.0
 70
   692
 72
     1
 73
     1
 74
     4
  7
LineScale_10.ctb
 75
    16
147
1.0
148
0.0
149
0.0
  0
PLOTSETTINGS
  5
298B
102
{ACAD_REACTORS
330
1AE
102
}
330
1AE
100
AcDbPlotSettings
  1
普通紙Ａ３_XL-5800_WinNT40
  2
FUJITSU XL-5800
  4
A3
  6
A1
 40
5.873749732971191
 41
5.873747825622557
 42
5.70440673828125
 43
5.873748779296875
 44
296.9259948730469
 45
420.1159973144531
 46
-5.009999999999998
 47
-6.7
 48
0.0
 49
0.0
140
420.0
141
297.0
142
1.0
143
1.0
 70
   688
 72
     1
 73
     1
 74
     4
  7
LineScale_10.ctb
 75
    16
147
1.0
148
0.0
149
0.0
  0
PLOTSETTINGS
  5
298C
102
{ACAD_REACTORS
330
1AE
102
}
330
1AE
100
AcDbPlotSettings
  1
普通紙Ａ３からＡ４_XL-5800_WinNT40
  2
FUJITSU XL-5800
  4
A4
  6
A1
 40
5.873749732971191
 41
5.704405784606932
 42
5.873748779296875
 43
5.873748779296875
 44
210.0579986572264
 45
296.9259948730469
 46
-6.4
 47
-5.459999999999999
 48
0.0
 49
0.0
140
420.0
141
297.0
142
0.7071066999999999
143
1.0
 70
   672
 72
     1
 73
     1
 74
     4
  7
LineScale_07.ctb
 75
     0
147
0.7071066999999999
148
0.0
149
0.0
  0
ACDBPLACEHOLDER
  5
1AC
102
{ACAD_REACTORS
330
1AB
102
}
330
1AB
  0
ENDSEC
  0
EOF
