  0
SECTION
  2
HEADER
  9
$ACADVER
  1
AC1015
  9
$ACADMAINTVER
 70
     6
  9
$DWGCODEPAGE
  3
ANSI_932
  9
$INSBASE
 10
0.0
 20
0.0
 30
0.0
  9
$EXTMIN
 10
1028.323092797818
 20
65.6432910498338
 30
-0.0000000100021362
  9
$EXTMAX
 10
1756.072405870299
 20
600.9721343582432
 30
0.0000000100021363
  9
$LIMMIN
 10
-841.0
 20
-594.0
  9
$LIMMAX
 10
841.0
 20
594.0
  9
$ORTHOMODE
 70
     0
  9
$REGENMODE
 70
     1
  9
$FILLMODE
 70
     1
  9
$QTEXTMODE
 70
     0
  9
$MIRRTEXT
 70
     0
  9
$LTSCALE
 40
7.0
  9
$ATTMODE
 70
     1
  9
$TEXTSIZE
 40
3.2
  9
$TRACEWID
 40
1.0
  9
$TEXTSTYLE
  7
DIMFONT
  9
$CLAYER
  8
DRAW2
  9
$CELTYPE
  6
BYLAYER
  9
$CECOLOR
 62
   256
  9
$CELTSCALE
 40
1.0
  9
$DISPSILH
 70
     0
  9
$DIMSCALE
 40
2.0
  9
$DIMASZ
 40
3.0
  9
$DIMEXO
 40
0.0
  9
$DIMDLI
 40
10.0
  9
$DIMRND
 40
0.0
  9
$DIMDLE
 40
0.0
  9
$DIMEXE
 40
1.0
  9
$DIMTP
 40
0.0
  9
$DIMTM
 40
0.0
  9
$DIMTXT
 40
3.2
  9
$DIMCEN
 40
0.0
  9
$DIMTSZ
 40
0.0
  9
$DIMTOL
 70
     0
  9
$DIMLIM
 70
     0
  9
$DIMTIH
 70
     0
  9
$DIMTOH
 70
     0
  9
$DIMSE1
 70
     0
  9
$DIMSE2
 70
     0
  9
$DIMTAD
 70
     3
  9
$DIMZIN
 70
     8
  9
$DIMBLK
  1

  9
$DIMASO
 70
     1
  9
$DIMSHO
 70
     1
  9
$DIMPOST
  1

  9
$DIMAPOST
  1

  9
$DIMALT
 70
     0
  9
$DIMALTD
 70
     2
  9
$DIMALTF
 40
25.4
  9
$DIMLFAC
 40
1.0
  9
$DIMTOFL
 70
     1
  9
$DIMTVP
 40
0.0
  9
$DIMTIX
 70
     0
  9
$DIMSOXD
 70
     0
  9
$DIMSAH
 70
     1
  9
$DIMBLK1
  1
OPEN
  9
$DIMBLK2
  1
OPEN
  9
$DIMSTYLE
  2
1_2
  9
$DIMCLRD
 70
     0
  9
$DIMCLRE
 70
     0
  9
$DIMCLRT
 70
     0
  9
$DIMTFAC
 40
0.75
  9
$DIMGAP
 40
1.0
  9
$DIMJUST
 70
     0
  9
$DIMSD1
 70
     0
  9
$DIMSD2
 70
     0
  9
$DIMTOLJ
 70
     1
  9
$DIMTZIN
 70
     8
  9
$DIMALTZ
 70
     0
  9
$DIMALTTZ
 70
     0
  9
$DIMUPT
 70
     0
  9
$DIMDEC
 70
     4
  9
$DIMTDEC
 70
     4
  9
$DIMALTU
 70
     2
  9
$DIMALTTD
 70
     2
  9
$DIMTXSTY
  7
DIMFONT
  9
$DIMAUNIT
 70
     0
  9
$DIMADEC
 70
     2
  9
$DIMALTRND
 40
0.0
  9
$DIMAZIN
 70
     2
  9
$DIMDSEP
 70
    46
  9
$DIMATFIT
 70
     1
  9
$DIMFRAC
 70
     0
  9
$DIMLDRBLK
  1
OPEN
  9
$DIMLUNIT
 70
     2
  9
$DIMLWD
 70
    -2
  9
$DIMLWE
 70
    -2
  9
$DIMTMOVE
 70
     0
  9
$LUNITS
 70
     2
  9
$LUPREC
 70
     4
  9
$SKETCHINC
 40
1.0
  9
$FILLETRAD
 40
0.0
  9
$AUNITS
 70
     0
  9
$AUPREC
 70
     4
  9
$MENU
  1
acad
  9
$ELEVATION
 40
0.0
  9
$PELEVATION
 40
0.0
  9
$THICKNESS
 40
0.0
  9
$LIMCHECK
 70
     0
  9
$CHAMFERA
 40
1.0
  9
$CHAMFERB
 40
1.0
  9
$CHAMFERC
 40
0.0
  9
$CHAMFERD
 40
0.0
  9
$SKPOLY
 70
     0
  9
$TDCREATE
 40
2452311.864408912
  9
$TDUCREATE
 40
2452311.489408912
  9
$TDUPDATE
 40
2454973.581395208
  9
$TDUUPDATE
 40
2454973.206395208
  9
$TDINDWG
 40
1.3243729861
  9
$TDUSRTIMER
 40
1.3243726968
  9
$USRTIMER
 70
     1
  9
$ANGBASE
 50
0.0
  9
$ANGDIR
 70
     0
  9
$PDMODE
 70
    35
  9
$PDSIZE
 40
0.5
  9
$PLINEWID
 40
0.0
  9
$SPLFRAME
 70
     0
  9
$SPLINETYPE
 70
     6
  9
$SPLINESEGS
 70
     8
  9
$HANDSEED
  5
C0FB
  9
$SURFTAB1
 70
     6
  9
$SURFTAB2
 70
     6
  9
$SURFTYPE
 70
     6
  9
$SURFU
 70
     6
  9
$SURFV
 70
     6
  9
$UCSBASE
  2

  9
$UCSNAME
  2

  9
$UCSORG
 10
0.0
 20
0.0
 30
0.0
  9
$UCSXDIR
 10
1.0
 20
0.0
 30
0.0
  9
$UCSYDIR
 10
0.0
 20
1.0
 30
0.0
  9
$UCSORTHOREF
  2

  9
$UCSORTHOVIEW
 70
     0
  9
$UCSORGTOP
 10
0.0
 20
0.0
 30
0.0
  9
$UCSORGBOTTOM
 10
0.0
 20
0.0
 30
0.0
  9
$UCSORGLEFT
 10
0.0
 20
0.0
 30
0.0
  9
$UCSORGRIGHT
 10
0.0
 20
0.0
 30
0.0
  9
$UCSORGFRONT
 10
0.0
 20
0.0
 30
0.0
  9
$UCSORGBACK
 10
0.0
 20
0.0
 30
0.0
  9
$PUCSBASE
  2

  9
$PUCSNAME
  2

  9
$PUCSORG
 10
0.0
 20
0.0
 30
0.0
  9
$PUCSXDIR
 10
1.0
 20
0.0
 30
0.0
  9
$PUCSYDIR
 10
0.0
 20
1.0
 30
0.0
  9
$PUCSORTHOREF
  2

  9
$PUCSORTHOVIEW
 70
     0
  9
$PUCSORGTOP
 10
0.0
 20
0.0
 30
0.0
  9
$PUCSORGBOTTOM
 10
0.0
 20
0.0
 30
0.0
  9
$PUCSORGLEFT
 10
0.0
 20
0.0
 30
0.0
  9
$PUCSORGRIGHT
 10
0.0
 20
0.0
 30
0.0
  9
$PUCSORGFRONT
 10
0.0
 20
0.0
 30
0.0
  9
$PUCSORGBACK
 10
0.0
 20
0.0
 30
0.0
  9
$USERI1
 70
     0
  9
$USERI2
 70
     0
  9
$USERI3
 70
     0
  9
$USERI4
 70
     0
  9
$USERI5
 70
     0
  9
$USERR1
 40
0.0
  9
$USERR2
 40
0.0
  9
$USERR3
 40
0.0
  9
$USERR4
 40
0.0
  9
$USERR5
 40
0.0
  9
$WORLDVIEW
 70
     1
  9
$SHADEDGE
 70
     3
  9
$SHADEDIF
 70
    70
  9
$TILEMODE
 70
     1
  9
$MAXACTVP
 70
    48
  9
$PINSBASE
 10
0.0
 20
0.0
 30
0.0
  9
$PLIMCHECK
 70
     0
  9
$PEXTMIN
 10
1.000000000000000E+20
 20
1.000000000000000E+20
 30
1.000000000000000E+20
  9
$PEXTMAX
 10
-1.000000000000000E+20
 20
-1.000000000000000E+20
 30
-1.000000000000000E+20
  9
$PLIMMIN
 10
-0.0049877929687501
 20
-0.0049999523162843
  9
$PLIMMAX
 10
593.9950122070312
 20
419.9950000476837
  9
$UNITMODE
 70
     0
  9
$VISRETAIN
 70
     0
  9
$PLINEGEN
 70
     1
  9
$PSLTSCALE
 70
     1
  9
$TREEDEPTH
 70
  3020
  9
$CMLSTYLE
  2
STANDARD
  9
$CMLJUST
 70
     0
  9
$CMLSCALE
 40
20.0
  9
$PROXYGRAPHICS
 70
     1
  9
$MEASUREMENT
 70
     1
  9
$CELWEIGHT
370
    -1
  9
$ENDCAPS
280
     0
  9
$JOINSTYLE
280
     0
  9
$LWDISPLAY
290
     0
  9
$INSUNITS
 70
     0
  9
$HYPERLINKBASE
  1

  9
$STYLESHEET
  1

  9
$XEDIT
290
     1
  9
$CEPSNTYPE
380
     0
  9
$PSTYLEMODE
290
     1
  9
$FINGERPRINTGUID
  2
{7FD28A7C-F8BA-11D3-9BCC-00A0C977751D}
  9
$VERSIONGUID
  2
{C9051C6B-EE0C-459C-90A1-677A2C5D7606}
  9
$EXTNAMES
290
     1
  9
$PSVPSCALE
 40
0.0
  9
$OLESTARTUP
290
     0
  0
ENDSEC
  0
SECTION
  2
CLASSES
  0
CLASS
  1
LWPOLYLINE
  2
AcDbPolyline
  3
AutoCAD 2000
 90
    32768
280
     0
281
     1
  0
CLASS
  1
ACDBDICTIONARYWDFLT
  2
AcDbDictionaryWithDefault
  3
AutoCAD 2000
 90
        0
280
     0
281
     0
  0
CLASS
  1
ACDBPLACEHOLDER
  2
AcDbPlaceHolder
  3
AutoCAD 2000
 90
        0
280
     0
281
     0
  0
CLASS
  1
LAYOUT
  2
AcDbLayout
  3
AutoCAD 2000
 90
        0
280
     0
281
     0
  0
CLASS
  1
PLOTSETTINGS
  2
AcDbPlotSettings
  3
AutoCAD 2000
 90
        0
280
     0
281
     0
  0
CLASS
  1
RASTERVARIABLES
  2
AcDbRasterVariables
  3
ISM
 90
        0
280
     0
281
     0
  0
ENDSEC
  0
SECTION
  2
TABLES
  0
TABLE
  2
VPORT
  5
8
330
0
100
AcDbSymbolTable
 70
     2
  0
VPORT
  5
C0FA
330
8
100
AcDbSymbolTableRecord
100
AcDbViewportTableRecord
  2
*Active
 70
     0
 10
0.0
 20
0.0
 11
1.0
 21
1.0
 12
1392.197749334059
 22
333.3077127040385
 13
0.0
 23
0.0
 14
5.0
 24
5.0
 15
10.0
 25
10.0
 16
0.0
 26
0.0
 36
1.0
 17
0.0
 27
0.0
 37
0.0
 40
539.3997850826178
 41
1.493654822335025
 42
50.0
 43
0.0
 44
0.0
 50
0.0
 51
0.0
 71
     0
 72
   100
 73
     1
 74
     0
 75
     0
 76
     0
 77
     0
 78
     1
281
     0
 65
     1
110
0.0
120
0.0
130
0.0
111
1.0
121
0.0
131
0.0
112
0.0
122
1.0
132
0.0
 79
     0
146
0.0
  0
ENDTAB
  0
TABLE
  2
LTYPE
  5
5
330
0
100
AcDbSymbolTable
 70
     2
  0
LTYPE
  5
12
330
5
100
AcDbSymbolTableRecord
100
AcDbLinetypeTableRecord
  2
BYBLOCK
 70
     0
  3

 72
    65
 73
     0
 40
0.0
  0
LTYPE
  5
13
330
5
100
AcDbSymbolTableRecord
100
AcDbLinetypeTableRecord
  2
BYLAYER
 70
     0
  3

 72
    65
 73
     0
 40
0.0
  0
LTYPE
  5
14
330
5
100
AcDbSymbolTableRecord
100
AcDbLinetypeTableRecord
  2
CONTINUOUS
 70
     0
  3
Solid line
 72
    65
 73
     0
 40
0.0
  0
LTYPE
  5
23
330
5
100
AcDbSymbolTableRecord
100
AcDbLinetypeTableRecord
  2
HIDDEN
 70
     0
  3
__ __ __ __ __ __ __ __ __ __ __ __ __ __ __ __
 72
    65
 73
     2
 40
0.375
 49
0.25
 74
     0
 49
-0.125
 74
     0
  0
ENDTAB
  0
TABLE
  2
LAYER
  5
2
330
0
100
AcDbSymbolTable
 70
     5
  0
LAYER
  5
E
330
2
100
AcDbSymbolTableRecord
100
AcDbLayerTableRecord
  2
0
 70
     0
 62
     7
  6
CONTINUOUS
370
    -3
390
1AC
  0
LAYER
  5
29
330
2
100
AcDbSymbolTableRecord
100
AcDbLayerTableRecord
  2
DRAW2
 70
     0
 62
     4
  6
CONTINUOUS
370
    -3
390
1AC
  0
LAYER
  5
2A
330
2
100
AcDbSymbolTableRecord
100
AcDbLayerTableRecord
  2
DRAW3
 70
     0
 62
     1
  6
CONTINUOUS
370
    -3
390
1AC
  0
LAYER
  5
2C
330
2
100
AcDbSymbolTableRecord
100
AcDbLayerTableRecord
  2
HIDDEN
 70
     0
 62
     7
  6
HIDDEN
370
    -3
390
1AC
  0
LAYER
  5
133
330
2
100
AcDbSymbolTableRecord
100
AcDbLayerTableRecord
  2
DEFPOINTS
 70
     0
 62
     7
  6
CONTINUOUS
290
     0
370
    -3
390
1AC
  0
ENDTAB
  0
TABLE
  2
STYLE
  5
3
330
0
100
AcDbSymbolTable
 70
     2
  0
STYLE
  5
F
330
3
100
AcDbSymbolTableRecord
100
AcDbTextStyleTableRecord
  2
STANDARD
 70
     0
 40
0.0
 41
1.0
 50
0.0
 71
     0
 42
2.5
  3
txt
  4

  0
STYLE
  5
30
330
3
100
AcDbSymbolTableRecord
100
AcDbTextStyleTableRecord
  2
DIMFONT
 70
     0
 40
0.0
 41
1.0
 50
10.0
 71
     0
 42
3.2
  3
romans.shx
  4
extfont.shx
  0
ENDTAB
  0
TABLE
  2
VIEW
  5
6
330
0
100
AcDbSymbolTable
 70
     5
  0
VIEW
  5
C27
330
6
100
AcDbSymbolTableRecord
100
AcDbViewTableRecord
  2
View1
 70
     0
 40
1250.0
 10
0.0
 20
0.0
 41
2066.420664206642
 11
0.0
 21
0.0
 31
1.0
 12
0.0
 22
0.0
 32
0.0
 42
50.0
 43
0.0
 44
0.0
 50
0.0
 71
     0
281
     0
 72
     1
110
0.0
120
0.0
130
0.0
111
1.0
121
0.0
131
0.0
112
0.0
122
1.0
132
0.0
 79
     0
146
0.0
  0
VIEW
  5
C2A
330
6
100
AcDbSymbolTableRecord
100
AcDbViewTableRecord
  2
A4
 70
     1
 40
314.2148930664061
 10
103.8222427368164
 20
144.5197510242462
 41
519.4401184271216
 11
0.0
 21
0.0
 31
1.0
 12
0.0
 22
0.0
 32
0.0
 42
50.0
 43
0.0
 44
0.0
 50
0.0
 71
     0
281
     0
 72
     1
110
0.0
120
0.0
130
0.0
111
1.0
121
0.0
131
0.0
112
0.0
122
1.0
132
0.0
 79
     0
146
0.0
  0
VIEW
  5
C2B
330
6
100
AcDbSymbolTableRecord
100
AcDbViewTableRecord
  2
A3
 70
     1
 40
314.2148930664061
 10
205.819491624832
 20
151.3197510242461
 41
519.4401184271216
 11
0.0
 21
0.0
 31
1.0
 12
0.0
 22
0.0
 32
0.0
 42
50.0
 43
0.0
 44
0.0
 50
0.0
 71
     0
281
     0
 72
     1
110
0.0
120
0.0
130
0.0
111
1.0
121
0.0
131
0.0
112
0.0
122
1.0
132
0.0
 79
     0
146
0.0
  0
VIEW
  5
C2C
330
6
100
AcDbSymbolTableRecord
100
AcDbViewTableRecord
  2
A2
 70
     1
 40
444.348344177246
 10
293.3145020008086
 20
213.319491624832
 41
734.5684804110931
 11
0.0
 21
0.0
 31
1.0
 12
0.0
 22
0.0
 32
0.0
 42
50.0
 43
0.0
 44
0.0
 50
0.0
 71
     0
281
     0
 72
     1
110
0.0
120
0.0
130
0.0
111
1.0
121
0.0
131
0.0
112
0.0
122
1.0
132
0.0
 79
     0
146
0.0
  0
VIEW
  5
C2D
330
6
100
AcDbSymbolTableRecord
100
AcDbViewTableRecord
  2
A1
 70
     1
 40
628.2954051513671
 10
422.5084997558592
 20
293.4384954071043
 41
1038.658086744695
 11
0.0
 21
0.0
 31
1.0
 12
0.0
 22
0.0
 32
0.0
 42
50.0
 43
0.0
 44
0.0
 50
0.0
 71
     0
281
     0
 72
     1
110
0.0
120
0.0
130
0.0
111
1.0
121
0.0
131
0.0
112
0.0
122
1.0
132
0.0
 79
     0
146
0.0
  0
ENDTAB
  0
TABLE
  2
UCS
  5
7
330
0
100
AcDbSymbolTable
 70
     0
  0
ENDTAB
  0
TABLE
  2
APPID
  5
9
330
0
100
AcDbSymbolTable
 70
     1
  0
APPID
  5
10
330
9
100
AcDbSymbolTableRecord
100
AcDbRegAppTableRecord
  2
ACAD
 70
     0
  0
ENDTAB
  0
TABLE
  2
DIMSTYLE
  5
A
330
0
100
AcDbSymbolTable
 70
     2
100
AcDbDimStyleTable
 71
     1
340
4B
  0
DIMSTYLE
105
4B
330
A
100
AcDbSymbolTableRecord
100
AcDbDimStyleTableRecord
  2
1_2
 70
     0
 40
2.0
 41
3.0
 42
0.0
 43
10.0
 44
1.0
 73
     0
 74
     0
 77
     3
 78
     8
 79
     2
140
3.2
141
0.0
146
0.75
147
1.0
172
     1
173
     1
179
     2
284
     8
289
     1
340
30
341
125
343
125
344
125
  0
DIMSTYLE
105
26A3
330
A
100
AcDbSymbolTableRecord
100
AcDbDimStyleTableRecord
  2
STANDARD
 70
     0
340
F
  0
ENDTAB
  0
TABLE
  2
BLOCK_RECORD
  5
1
330
0
100
AcDbSymbolTable
 70
     1
  0
BLOCK_RECORD
  5
18
330
1
100
AcDbSymbolTableRecord
100
AcDbBlockTableRecord
  2
*MODEL_SPACE
340
1AF
  0
BLOCK_RECORD
  5
15
330
1
100
AcDbSymbolTableRecord
100
AcDbBlockTableRecord
  2
*PAPER_SPACE
340
1B0
  0
BLOCK_RECORD
  5
125
330
1
100
AcDbSymbolTableRecord
100
AcDbBlockTableRecord
  2
_OPEN
340
0
102
{BLKREFS
331
2665
331
2666
331
2671
331
2672
331
267D
331
267E
331
BE8F
331
BE90
331
BEB3
331
BEB4
331
BEBC
331
BEBD
331
BECE
331
BECF
331
BFC4
331
BFC5
331
BFD6
331
BFD7
331
BFF1
331
BFF2
331
BFFA
331
BFFB
331
C00C
331
C00D
331
C01E
331
C01F
331
C027
331
C028
331
C030
331
C031
331
C03A
331
C03B
331
C043
331
C044
331
C055
331
C056
331
C08D
331
C08E
331
C096
331
C097
331
C09F
331
C0A0
331
C0B1
331
C0B2
331
C0E2
331
C0E3
102
}
  0
ENDTAB
  0
ENDSEC
  0
SECTION
  2
BLOCKS
  0
BLOCK
  5
19
330
18
100
AcDbEntity
  8
0
100
AcDbBlockBegin
  2
*MODEL_SPACE
 70
     0
 10
0.0
 20
0.0
 30
0.0
  3
*MODEL_SPACE
  1

  0
ENDBLK
  5
1A
330
18
100
AcDbEntity
  8
0
100
AcDbBlockEnd
  0
BLOCK
  5
16
330
15
100
AcDbEntity
 67
     1
  8
0
100
AcDbBlockBegin
  2
*PAPER_SPACE
 70
     0
 10
0.0
 20
0.0
 30
0.0
  3
*PAPER_SPACE
  1

  0
ENDBLK
  5
17
330
15
100
AcDbEntity
 67
     1
  8
0
100
AcDbBlockEnd
  0
BLOCK
  5
126
330
125
100
AcDbEntity
  8
0
100
AcDbBlockBegin
  2
_OPEN
 70
     0
 10
0.0
 20
0.0
 30
0.0
  3
_OPEN
  1

  0
LINE
  5
127
330
125
100
AcDbEntity
  8
0
  6
ByBlock
 62
     0
100
AcDbLine
 10
-1.0
 20
0.1666666666666666
 30
0.0
 11
0.0
 21
0.0
 31
0.0
  0
LINE
  5
128
330
125
100
AcDbEntity
  8
0
  6
ByBlock
 62
     0
100
AcDbLine
 10
0.0
 20
0.0
 30
0.0
 11
-1.0
 21
-0.1666666666666666
 31
0.0
  0
LINE
  5
129
330
125
100
AcDbEntity
  8
0
  6
ByBlock
 62
     0
100
AcDbLine
 10
0.0
 20
0.0
 30
0.0
 11
-1.0
 21
0.0
 31
0.0
  0
ENDBLK
  5
12A
330
125
100
AcDbEntity
  8
0
100
AcDbBlockEnd
  0
ENDSEC
  0
SECTION
  2
ENTITIES
  0
TEXT
  5
2783
330
18
100
AcDbEntity
  8
0
100
AcDbText
 10
289.9791188454981
 20
596.5343442442899
 30
0.0
 40
3.2
  1

 51
10.0
  7
DIMFONT
100
AcDbText
  0
TEXT
  5
2791
330
18
100
AcDbEntity
  8
0
100
AcDbText
 10
399.046620988657
 20
559.3598774521149
 30
0.0
 40
3.2
  1

 51
10.0
  7
DIMFONT
100
AcDbText
  0
ELLIPSE
  5
BA9A
330
18
100
AcDbEntity
  8
DRAW2
100
AcDbEllipse
 10
1142.843121547311
 20
235.9026316095263
 30
0.0
 11
-24.0
 21
0.0
 31
0.0
210
0.0
220
0.0
230
1.0
 40
0.8660260526085702
 41
6.049180248702747
 42
9.658782675157528
  0
ELLIPSE
  5
BA9B
330
18
100
AcDbEntity
  8
DRAW2
100
AcDbEllipse
 10
1142.843121547321
 20
466.3138650335126
 30
0.0
 11
-24.0
 21
0.0
 31
0.0
210
0.0
220
0.0
230
1.0
 40
0.5
 41
3.005323999992133
 42
6.435844012790266
  0
ELLIPSE
  5
BA9C
330
18
100
AcDbEntity
  8
DRAW2
100
AcDbEllipse
 10
1142.843121547321
 20
442.7076926189506
 30
0.0
 11
-4.5
 21
0.0
 31
0.0
210
0.0
220
0.0
230
1.0
 40
0.5
 41
1.910633236248997
 42
7.51414472452038
  0
ELLIPSE
  5
BA9D
330
18
100
AcDbEntity
  8
DRAW2
100
AcDbEllipse
 10
1142.871511757838
 20
464.5817427093406
 30
0.0
 11
-23.75
 21
0.0
 31
0.0
210
0.0
220
0.0
230
1.0
 40
0.5
 41
1.900720015646058
 42
2.116689640709854
  0
ELLIPSE
  5
BA9E
330
18
100
AcDbEntity
  8
DRAW2
100
AcDbEllipse
 10
1142.843121547321
 20
442.7076926189506
 30
0.0
 11
-1.5
 21
0.0
 31
0.0
210
0.0
220
0.0
230
1.0
 40
0.4999999999999621
 41
3.141592653589792
 42
6.283185307179585
  0
ELLIPSE
  5
BA9F
330
18
100
AcDbEntity
  8
DRAW2
100
AcDbEllipse
 10
1142.843121547321
 20
453.966040188653
 30
0.0
 11
-3.0
 21
0.0
 31
0.0
210
0.0
220
0.0
230
1.0
 40
0.5
 41
3.141592653589792
 42
6.283185307179585
  0
ELLIPSE
  5
BAA0
330
18
100
AcDbEntity
  8
DRAW2
100
AcDbEllipse
 10
1142.843121547321
 20
450.934933954903
 30
0.0
 11
-5.0
 21
0.0
 31
0.0
210
0.0
220
0.0
230
1.0
 40
0.5
 41
9.424777960769381
 42
10.11289689975598
  0
ELLIPSE
  5
BAA1
330
18
100
AcDbEntity
  8
DRAW2
100
AcDbEllipse
 10
1142.843121547321
 20
451.3679466567952
 30
0.0
 11
-4.5
 21
0.0
 31
0.0
210
0.0
220
0.0
230
1.0
 40
0.4999999999999874
 41
3.680502018970531
 42
5.744275941798076
  0
ELLIPSE
  5
BAA2
330
18
100
AcDbEntity
  8
DRAW2
100
AcDbEllipse
 10
1142.843121547321
 20
450.934933954903
 30
0.0
 11
-5.0
 21
0.0
 31
0.0
210
0.0
220
0.0
230
1.0
 40
0.5
 41
5.595066368192981
 42
6.283185307179585
  0
ELLIPSE
  5
BAA3
330
18
100
AcDbEntity
  8
DRAW2
100
AcDbEllipse
 10
1142.843121547321
 20
443.1407053208428
 30
0.0
 11
-5.0
 21
0.0
 31
0.0
210
0.0
220
0.0
230
1.0
 40
0.5
 41
2.453473714603554
 42
6.971304246166114
  0
ELLIPSE
  5
BAA4
330
18
100
AcDbEntity
  8
DRAW2
100
AcDbEllipse
 10
1142.843121547311
 20
237.4025935386049
 30
0.0
 11
22.79999993349264
 21
0.0021304425666638
 31
0.0
210
0.0
220
0.0
230
0.9999999999999998
 40
0.8665181881261037
 41
5.796768117908865
 42
7.684258844293753
  0
ELLIPSE
  5
BAA5
330
18
100
AcDbEntity
  8
DRAW2
100
AcDbEllipse
 10
1158.652121817383
 20
231.5503936296557
 30
0.0
 11
3.5
 21
0.0
 31
0.0
210
0.0
220
0.0
230
-1.0
 40
0.8660254037844358
 41
0.0
 42
6.283185307179585
  0
ELLIPSE
  5
BAA6
330
18
100
AcDbEntity
  8
DRAW2
100
AcDbEllipse
 10
1158.652121817383
 20
229.1753966043541
 30
0.0
 11
4.5
 21
0.0
 31
0.0
210
0.0
220
0.0
230
-1.0
 40
0.8660254037844387
 41
6.283185307179585
 42
9.424777960769381
  0
ELLIPSE
  5
BAA7
330
18
100
AcDbEntity
  8
DRAW2
100
AcDbEllipse
 10
1158.652121817383
 20
229.6753936296557
 30
0.0
 11
4.5
 21
0.0
 31
0.0
210
0.0
220
0.0
230
-1.0
 40
0.8660254037844323
 41
5.57412243407596
 42
10.133840833873
  0
ELLIPSE
  5
BAA8
330
18
100
AcDbEntity
  8
DRAW2
100
AcDbEllipse
 10
1158.652121817383
 20
229.6753936296559
 30
0.0
 11
3.5
 21
0.0
 31
0.0
210
0.0
220
0.0
230
-1.0
 40
0.8660254037844358
 41
0.0
 42
3.141592653589792
  0
ELLIPSE
  5
BAA9
330
18
100
AcDbEntity
  8
DRAW2
100
AcDbEllipse
 10
1158.652121817383
 20
231.6753936296559
 30
0.0
 11
3.25
 21
0.0
 31
0.0
210
0.0
220
0.0
230
-1.0
 40
0.866025403784446
 41
0.0
 42
6.283185307179585
  0
ELLIPSE
  5
BAAA
330
18
100
AcDbEntity
  8
DRAW2
100
AcDbEllipse
 10
1142.843121547127
 20
254.8571294206815
 30
0.0
 11
4.5
 21
0.0
 31
0.0
210
0.0
220
0.0
230
-1.0
 40
0.8660254037844323
 41
9.370320142445708
 42
10.133840833873
  0
ELLIPSE
  5
BAAB
330
18
100
AcDbEntity
  8
DRAW2
100
AcDbEllipse
 10
1142.843121547127
 20
256.7321294206814
 30
0.0
 11
3.5
 21
0.0
 31
0.0
210
0.0
220
0.0
230
-1.0
 40
0.8660254037844358
 41
9.159781056576264
 42
10.55266324354841
  0
ELLIPSE
  5
BAAC
330
18
100
AcDbEntity
  8
DRAW2
100
AcDbEllipse
 10
1142.843121547127
 20
256.8571294206815
 30
0.0
 11
3.25
 21
0.0
 31
0.0
210
0.0
220
0.0
230
-1.0
 40
0.866025403784446
 41
9.159135105263278
 42
10.51584564995182
  0
SPLINE
  5
BAAD
330
18
100
AcDbEntity
  8
DRAW3
100
AcDbSpline
210
0.0
220
0.0
230
1.0
 70
     8
 71
     3
 72
     8
 73
     4
 74
     0
 42
0.0000000001
 43
0.0000000001
 40
7.700391819037563
 40
7.700391819037563
 40
7.700391819037563
 40
7.700391819037563
 40
10.9644303825063
 40
10.9644303825063
 40
10.9644303825063
 40
10.9644303825063
 10
1141.343121547311
 20
277.1856349850796
 30
0.0
 10
1142.807664087126
 20
277.4707781183403
 30
0.0
 10
1143.567391520597
 20
278.2984325741014
 30
0.0
 10
1144.343121547309
 20
278.2667872876757
 30
0.0
  0
ELLIPSE
  5
BAAE
330
18
100
AcDbEntity
  8
DRAW2
100
AcDbEllipse
 10
1142.843121547311
 20
252.995664927731
 30
0.0
 11
-1.5
 21
0.0
 31
0.0
210
0.0
220
0.0
230
1.0
 40
0.8660254037843818
 41
0.0
 42
3.141592653589792
  0
ELLIPSE
  5
BAAF
330
18
100
AcDbEntity
  8
DRAW2
100
AcDbEllipse
 10
1142.843121547311
 20
248.2456649277309
 30
0.0
 11
-5.0
 21
0.0
 31
0.0
210
0.0
220
0.0
230
1.0
 40
0.8660254037844254
 41
6.283185307179585
 42
9.424777960769381
  0
ELLIPSE
  5
BAB0
330
18
100
AcDbEntity
  8
DRAW2
100
AcDbEllipse
 10
1142.843121547311
 20
252.7456649277309
 30
0.0
 11
-5.0
 21
0.0
 31
0.0
210
0.0
220
0.0
230
1.0
 40
0.8660254037844197
 41
5.017081634400085
 42
10.69088163354888
  0
ELLIPSE
  5
BAB1
330
18
100
AcDbEntity
  8
DRAW2
100
AcDbEllipse
 10
1142.843121547311
 20
252.9956649277309
 30
0.0
 11
-4.5
 21
0.0
 31
0.0
210
0.0
220
0.0
230
1.0
 40
0.8660254037844573
 41
5.052225889838811
 42
10.65573737811015
  0
ELLIPSE
  5
BAB2
330
18
100
AcDbEntity
  8
DRAW2
100
AcDbEllipse
 10
1142.843121547127
 20
256.7321294206814
 30
0.0
 11
3.5
 21
0.0
 31
0.0
210
0.0
220
0.0
230
-1.0
 40
0.8660254037844358
 41
5.155300024516098
 42
6.548182211293322
  0
ELLIPSE
  5
BAB3
330
18
100
AcDbEntity
  8
DRAW2
100
AcDbEllipse
 10
1142.843121547127
 20
254.8571294206815
 30
0.0
 11
4.5
 21
0.0
 31
0.0
210
0.0
220
0.0
230
-1.0
 40
0.8660254037844323
 41
5.57412243407596
 42
6.337643125353398
  0
ELLIPSE
  5
BAB4
330
18
100
AcDbEntity
  8
DRAW2
100
AcDbEllipse
 10
1142.843121547127
 20
256.8571294206815
 30
0.0
 11
3.25
 21
0.0
 31
0.0
210
0.0
220
0.0
230
-1.0
 40
0.866025403784446
 41
5.192117618123809
 42
6.548828162608725
  0
ELLIPSE
  5
BAB5
330
18
100
AcDbEntity
  8
DRAW2
100
AcDbEllipse
 10
1142.843121547311
 20
237.4025935386049
 30
0.0
 11
22.79999993349264
 21
0.0021304425666638
 31
0.0
210
0.0
220
0.0
230
0.9999999999999998
 40
0.8665181881261037
 41
3.736529004508868
 42
5.687941036356544
  0
ELLIPSE
  5
BAB6
330
18
100
AcDbEntity
  8
DRAW2
100
AcDbEllipse
 10
1127.034121277237
 20
229.6753936296559
 30
0.0
 11
-3.5
 21
0.0
 31
0.0
210
0.0
220
0.0
230
1.0
 40
0.8660254037844358
 41
0.0
 42
3.141592653589792
  0
ELLIPSE
  5
BAB7
330
18
100
AcDbEntity
  8
DRAW2
100
AcDbEllipse
 10
1127.034121277237
 20
229.1753966043541
 30
0.0
 11
-4.5
 21
0.0
 31
0.0
210
0.0
220
0.0
230
1.0
 40
0.8660254037844387
 41
6.283185307179585
 42
9.424777960769381
  0
ELLIPSE
  5
BAB8
330
18
100
AcDbEntity
  8
DRAW2
100
AcDbEllipse
 10
1127.034121277237
 20
229.6753936296557
 30
0.0
 11
-4.5
 21
0.0
 31
0.0
210
0.0
220
0.0
230
1.0
 40
0.8660254037844323
 41
5.57412243407596
 42
10.133840833873
  0
ELLIPSE
  5
BAB9
330
18
100
AcDbEntity
  8
DRAW2
100
AcDbEllipse
 10
1127.034121277237
 20
231.5503936296557
 30
0.0
 11
-3.5
 21
0.0
 31
0.0
210
0.0
220
0.0
230
1.0
 40
0.8660254037844358
 41
0.0
 42
6.283185307179585
  0
ELLIPSE
  5
BABA
330
18
100
AcDbEntity
  8
DRAW2
100
AcDbEllipse
 10
1127.034121277237
 20
231.6753936296559
 30
0.0
 11
-3.25
 21
0.0
 31
0.0
210
0.0
220
0.0
230
1.0
 40
0.866025403784446
 41
0.0
 42
6.283185307179585
  0
ELLIPSE
  5
BABB
330
18
100
AcDbEntity
  8
DRAW2
100
AcDbEllipse
 10
1142.871511757838
 20
463.7157213690699
 30
0.0
 11
-23.75
 21
0.0
 31
0.0
210
0.0
220
0.0
230
1.0
 40
0.4789475395163639
 41
4.827567965148499
 42
6.245928465400637
  0
ELLIPSE
  5
BABC
330
18
100
AcDbEntity
  8
DRAW2
100
AcDbEllipse
 10
1142.871511757838
 20
464.5817427093406
 30
0.0
 11
-23.75
 21
0.0
 31
0.0
210
0.0
220
0.0
230
1.0
 40
0.5
 41
2.594875541987323
 42
6.832774842188074
  0
ELLIPSE
  5
BABD
330
18
100
AcDbEntity
  8
DRAW2
100
AcDbEllipse
 10
1142.843121547321
 20
468.8856307996887
 30
0.0
 11
-3.25
 21
0.0
 31
0.0
210
0.0
220
0.0
230
1.0
 40
0.5
 41
2.579522850584443
 42
6.845255110184936
  0
ELLIPSE
  5
BABE
330
18
100
AcDbEntity
  8
DRAW2
100
AcDbEllipse
 10
1142.843121547321
 20
469.1021371506346
 30
0.0
 11
-3.5
 21
0.0
 31
0.0
210
0.0
220
0.0
230
1.0
 40
0.5
 41
0.0
 42
6.283185307179585
  0
ELLIPSE
  5
BABF
330
18
100
AcDbEntity
  8
DRAW2
100
AcDbEllipse
 10
1142.843121547321
 20
472.3497324148262
 30
0.0
 11
-3.5
 21
0.0
 31
0.0
210
0.0
220
0.0
230
1.0
 40
0.5000000000000162
 41
3.141592653589792
 42
6.283185307179585
  0
ELLIPSE
  5
BAC0
330
18
100
AcDbEntity
  8
DRAW2
100
AcDbEllipse
 10
1142.843121547321
 20
472.3497324148262
 30
0.0
 11
-4.5
 21
0.0
 31
0.0
210
0.0
220
0.0
230
1.0
 40
0.5000000000000127
 41
2.461918834681553
 42
6.962859126087826
  0
ELLIPSE
  5
BAC1
330
18
100
AcDbEntity
  8
DRAW2
100
AcDbEllipse
 10
1142.843121547321
 20
473.2157552424464
 30
0.0
 11
-4.5
 21
0.0
 31
0.0
210
0.0
220
0.0
230
1.0
 40
0.5000005724809853
 41
3.141592653589792
 42
6.283185307179585
  0
ELLIPSE
  5
BAC2
330
18
100
AcDbEntity
  8
DRAW2
100
AcDbEllipse
 10
1158.702079048503
 20
458.0997213182031
 30
0.0
 11
-4.5
 21
0.0
 31
0.0
210
0.0
220
0.0
230
1.0
 40
0.5000005724809853
 41
3.141592653589792
 42
6.283185307179585
  0
ELLIPSE
  5
BAC3
330
18
100
AcDbEntity
  8
DRAW2
100
AcDbEllipse
 10
1158.702079048503
 20
457.2336984905829
 30
0.0
 11
-4.5
 21
0.0
 31
0.0
210
0.0
220
0.0
230
1.0
 40
0.5000000000000127
 41
2.461918834681553
 42
6.962859126087826
  0
ELLIPSE
  5
BAC4
330
18
100
AcDbEntity
  8
DRAW2
100
AcDbEllipse
 10
1158.702079048503
 20
457.2336984905829
 30
0.0
 11
-3.5
 21
0.0
 31
0.0
210
0.0
220
0.0
230
1.0
 40
0.5000000000000162
 41
3.141592653589792
 42
6.283185307179585
  0
ELLIPSE
  5
BAC5
330
18
100
AcDbEntity
  8
DRAW2
100
AcDbEllipse
 10
1158.702079048503
 20
453.9861032263913
 30
0.0
 11
-3.5
 21
0.0
 31
0.0
210
0.0
220
0.0
230
1.0
 40
0.5
 41
0.0
 42
6.283185307179585
  0
ELLIPSE
  5
BAC6
330
18
100
AcDbEntity
  8
DRAW2
100
AcDbEllipse
 10
1158.702079048503
 20
453.7695968754452
 30
0.0
 11
-3.25
 21
0.0
 31
0.0
210
0.0
220
0.0
230
1.0
 40
0.5
 41
2.579522850584443
 42
6.845255110184936
  0
ELLIPSE
  5
BAC7
330
18
100
AcDbEntity
  8
DRAW2
100
AcDbEllipse
 10
1127.084164046149
 20
458.0997213182031
 30
0.0
 11
-4.5
 21
0.0
 31
0.0
210
0.0
220
0.0
230
1.0
 40
0.5000005724809853
 41
3.141592653589792
 42
6.283185307179585
  0
ELLIPSE
  5
BAC8
330
18
100
AcDbEntity
  8
DRAW2
100
AcDbEllipse
 10
1127.084164046149
 20
457.2336984905829
 30
0.0
 11
-4.5
 21
0.0
 31
0.0
210
0.0
220
0.0
230
1.0
 40
0.5000000000000127
 41
2.461918834681553
 42
6.962859126087826
  0
ELLIPSE
  5
BAC9
330
18
100
AcDbEntity
  8
DRAW2
100
AcDbEllipse
 10
1127.084164046149
 20
457.2336984905829
 30
0.0
 11
-3.5
 21
0.0
 31
0.0
210
0.0
220
0.0
230
1.0
 40
0.5000000000000162
 41
3.141592653589792
 42
6.283185307179585
  0
ELLIPSE
  5
BACA
330
18
100
AcDbEntity
  8
DRAW2
100
AcDbEllipse
 10
1127.084164046149
 20
453.9861032263913
 30
0.0
 11
-3.5
 21
0.0
 31
0.0
210
0.0
220
0.0
230
1.0
 40
0.5
 41
0.0
 42
6.283185307179585
  0
ELLIPSE
  5
BACB
330
18
100
AcDbEntity
  8
DRAW2
100
AcDbEllipse
 10
1127.084164046149
 20
453.7695968754452
 30
0.0
 11
-3.25
 21
0.0
 31
0.0
210
0.0
220
0.0
230
1.0
 40
0.5
 41
2.579522850584443
 42
6.845255110184936
  0
ELLIPSE
  5
BACC
330
18
100
AcDbEntity
  8
DRAW2
100
AcDbEllipse
 10
1142.871511757838
 20
464.5817427093406
 30
0.0
 11
-23.75
 21
0.0
 31
0.0
210
0.0
220
0.0
230
1.0
 40
0.5
 41
1.027030864406647
 42
1.236641806943817
  0
ELLIPSE
  5
BACD
330
18
100
AcDbEntity
  8
DRAW2
100
AcDbEllipse
 10
1142.871511757838
 20
463.7157213690699
 30
0.0
 11
-23.75
 21
0.0
 31
0.0
210
0.0
220
0.0
230
1.0
 40
0.4789475395163639
 41
3.178849495368711
 42
4.600028538187991
  0
ELLIPSE
  5
BACE
330
18
100
AcDbEntity
  8
DRAW2
100
AcDbEllipse
 10
1142.843121547311
 20
236.9025914516006
 30
0.0
 11
23.75698493628773
 21
0.0000038397602148
 31
0.0
210
0.0
220
0.0
230
1.0
 40
0.8679826336961729
 41
1.719036967570553
 42
7.705740725183355
  0
ELLIPSE
  5
BACF
330
18
100
AcDbEntity
  8
DRAW2
100
AcDbEllipse
 10
1142.843121547311
 20
237.4025935386049
 30
0.0
 11
22.79999993349264
 21
0.0021304425666638
 31
0.0
210
0.0
220
0.0
230
0.9999999999999998
 40
0.8665181881261037
 41
1.740363402434776
 42
3.62790302497022
  0
ELLIPSE
  5
BAD0
330
18
100
AcDbEntity
  8
DRAW2
100
AcDbEllipse
 10
1134.843121547311
 20
154.3332605002401
 30
0.0
 11
5.000000000000028
 21
0.0000000006902672
 31
0.0
210
0.0
220
0.0
230
-1.0
 40
0.5655789432460123
 41
3.141592653833853
 42
6.283185307423647
  0
ELLIPSE
  5
BAD1
330
18
100
AcDbEntity
  8
DRAW2
100
AcDbEllipse
 10
1134.843121547311
 20
153.3363714271133
 30
0.0
 11
4.999999999999943
 21
-0.0000000000000804
 31
0.0
210
0.0
220
0.0
230
-1.0
 40
0.6192927609469807
 41
0.0
 42
6.283185307179585
  0
ELLIPSE
  5
BAD2
330
18
100
AcDbEntity
  8
DRAW2
100
AcDbEllipse
 10
1150.843121547311
 20
153.3363714271133
 30
0.0
 11
4.999999999999943
 21
-0.0000000000000804
 31
0.0
210
0.0
220
0.0
230
-1.0
 40
0.6192927609469807
 41
0.0
 42
6.283185307179585
  0
ELLIPSE
  5
BAD3
330
18
100
AcDbEntity
  8
DRAW2
100
AcDbEllipse
 10
1150.843121547311
 20
154.3332605002401
 30
0.0
 11
5.000000000000028
 21
0.0000000006902672
 31
0.0
210
0.0
220
0.0
230
-1.0
 40
0.5655789432460123
 41
3.141592653833853
 42
6.283185307423647
  0
LINE
  5
BAD5
330
18
100
AcDbEntity
  8
DRAW2
100
AcDbLine
 10
1141.343121547311
 20
267.9026245439164
 30
0.0
 11
1100.343146547311
 21
267.9026245439164
 31
0.0
  0
LINE
  5
BAD6
330
18
100
AcDbEntity
  8
DRAW2
100
AcDbLine
 10
1185.343096547311
 20
133.9026845439164
 30
0.0
 11
1100.343146547311
 21
133.9026845439164
 31
0.0
  0
LINE
  5
BAD7
330
18
100
AcDbEntity
  8
DRAW2
100
AcDbLine
 10
1099.893111547311
 20
272.4026245439164
 30
0.0
 11
1141.343121547311
 21
272.4026245439166
 31
0.0
  0
LINE
  5
BAD8
330
18
100
AcDbEntity
  8
DRAW2
100
AcDbLine
 10
1099.893111547311
 20
297.4026245439164
 30
0.0
 11
1185.79313154731
 21
297.4026245439164
 31
0.0
  0
LINE
  5
BADA
330
18
100
AcDbEntity
  8
DRAW2
100
AcDbLine
 10
1099.893111547311
 20
104.4025645439164
 30
0.0
 11
1185.79313154731
 21
104.4025645439164
 31
0.0
  0
LINE
  5
BADB
330
18
100
AcDbEntity
  8
DRAW2
100
AcDbLine
 10
1099.893111547311
 20
129.4025945439164
 30
0.0
 11
1185.79313154731
 21
129.4025945439164
 31
0.0
  0
CIRCLE
  5
BADD
330
18
100
AcDbEntity
  8
DRAW2
100
AcDbCircle
 10
1120.843121547311
 20
180.902654543917
 30
0.0
 40
10.5
  0
CIRCLE
  5
BADE
330
18
100
AcDbEntity
  8
DRAW2
100
AcDbCircle
 10
1120.843121547311
 20
180.902654543917
 30
0.0
 40
7.0
  0
CIRCLE
  5
BADF
330
18
100
AcDbEntity
  8
DRAW2
100
AcDbCircle
 10
1120.843121547311
 20
180.902654543917
 30
0.0
 40
5.694887103024191
  0
CIRCLE
  5
BAE0
330
18
100
AcDbEntity
  8
DRAW3
100
AcDbCircle
 10
1120.843121547311
 20
180.902654543917
 30
0.0
 40
6.578500006249994
  0
CIRCLE
  5
BAE1
330
18
100
AcDbEntity
  8
DRAW2
100
AcDbCircle
 10
1120.843121547311
 20
180.902654543917
 30
0.0
 40
11.0
  0
LINE
  5
BAE3
330
18
100
AcDbEntity
  8
DRAW2
100
AcDbLine
 10
1100.343146547311
 20
267.9026245439164
 30
0.0
 11
1100.343146547311
 21
133.9026845439164
 31
0.0
  0
LINE
  5
BAE4
330
18
100
AcDbEntity
  8
DRAW2
100
AcDbLine
 10
1099.343121547311
 20
268.9025945439165
 30
0.0
 11
1099.343121547311
 21
132.9025945439163
 31
0.0
  0
LINE
  5
BAE5
330
18
100
AcDbEntity
  8
DRAW2
100
AcDbLine
 10
1030.34318154731
 20
190.4025345439165
 30
0.0
 11
1028.34318154731
 21
192.4025645439163
 31
0.0
  0
LINE
  5
BAE6
330
18
100
AcDbEntity
  8
DRAW2
100
AcDbLine
 10
1030.343121547311
 20
211.4026245439165
 30
0.0
 11
1030.343121547311
 21
190.4025645439164
 31
0.0
  0
LINE
  5
BAE7
330
18
100
AcDbEntity
  8
DRAW2
100
AcDbLine
 10
1050.34318154731
 20
267.9026245439164
 30
0.0
 11
1050.34318154731
 21
133.9025945439163
 31
0.0
  0
LINE
  5
BAE8
330
18
100
AcDbEntity
  8
DRAW2
100
AcDbLine
 10
1060.343061547311
 20
268.9025945439165
 30
0.0
 11
1060.343061547311
 21
132.9025945439163
 31
0.0
  0
LINE
  5
BAEB
330
18
100
AcDbEntity
  8
DRAW2
100
AcDbLine
 10
1097.593121547311
 20
100.9025645439163
 30
0.0
 11
1097.593121547311
 21
85.9025945439164
 31
0.0
  0
LINE
  5
BAED
330
18
100
AcDbEntity
  8
DRAW2
100
AcDbLine
 10
1057.593121547311
 20
100.9025645439163
 30
0.0
 11
1057.593121547311
 21
85.9025945439164
 31
0.0
  0
LINE
  5
BAEE
330
18
100
AcDbEntity
  8
DRAW2
100
AcDbLine
 10
1097.593121547311
 20
85.90256454391647
 30
0.0
 11
1057.593121547311
 21
85.90256454391647
 31
0.0
  0
LINE
  5
BAEF
330
18
100
AcDbEntity
  8
DRAW2
100
AcDbLine
 10
1091.731911547311
 20
65.90256454391647
 30
0.0
 11
1063.454261547311
 21
65.90256454391647
 31
0.0
  0
LINE
  5
BAF0
330
18
100
AcDbEntity
  8
DRAW2
100
AcDbLine
 10
1059.593121547311
 20
85.90262454391654
 30
0.0
 11
1062.465371547311
 21
66.75429454391656
 31
0.0
  0
ARC
  5
BAF1
330
18
100
AcDbEntity
  8
DRAW2
100
AcDbCircle
 10
1063.454261547311
 20
66.90259454391662
 30
0.0
 40
1.0
100
AcDbArc
 50
188.5310499999985
 51
270.0000200000018
  0
LINE
  5
BAF2
330
18
100
AcDbEntity
  8
DRAW2
100
AcDbLine
 10
1092.72080154731
 20
66.75428454391658
 30
0.0
 11
1095.593061547311
 21
85.90262454391654
 31
0.0
  0
ARC
  5
BAF3
330
18
100
AcDbEntity
  8
DRAW2
100
AcDbCircle
 10
1091.731911547311
 20
66.90259454391662
 30
0.0
 40
1.0
100
AcDbArc
 50
270.0000200000018
 51
351.4689300000048
  0
LINE
  5
BAF4
330
18
100
AcDbEntity
  8
DRAW2
100
AcDbLine
 10
1050.34318154731
 20
133.9025945439163
 30
0.0
 11
1060.343061547311
 21
133.9025945439163
 31
0.0
  0
LINE
  5
BAF5
330
18
100
AcDbEntity
  8
DRAW2
100
AcDbLine
 10
1099.893111547311
 20
100.9025645439163
 30
0.0
 11
1057.593121547311
 21
100.9025645439163
 31
0.0
  0
LINE
  5
BAF6
330
18
100
AcDbEntity
  8
DRAW2
100
AcDbLine
 10
1030.343121547311
 20
157.7125945439164
 30
0.0
 11
1030.343121547311
 21
136.7125945439164
 31
0.0
  0
LINE
  5
BAF7
330
18
100
AcDbEntity
  8
DRAW2
100
AcDbLine
 10
1028.343121547311
 20
155.7125945439164
 30
0.0
 11
1028.343121547311
 21
138.7125945439164
 31
0.0
  0
LINE
  5
BAF8
330
18
100
AcDbEntity
  8
DRAW2
100
AcDbLine
 10
1030.343121547311
 20
136.7125945439164
 30
0.0
 11
1050.34318154731
 21
136.7125945439164
 31
0.0
  0
LINE
  5
BAF9
330
18
100
AcDbEntity
  8
DRAW2
100
AcDbLine
 10
1028.343121547311
 20
138.7125345439164
 30
0.0
 11
1030.343121547311
 21
136.7125645439163
 31
0.0
  0
LINE
  5
BAFB
330
18
100
AcDbEntity
  8
DRAW2
100
AcDbLine
 10
1030.343121547311
 20
157.7125945439164
 30
0.0
 11
1050.34318154731
 21
157.7125945439164
 31
0.0
  0
LINE
  5
BAFC
330
18
100
AcDbEntity
  8
DRAW2
100
AcDbLine
 10
1030.34318154731
 20
157.7125645439164
 30
0.0
 11
1028.34318154731
 21
155.7125645439163
 31
0.0
  0
LINE
  5
BAFD
330
18
100
AcDbEntity
  8
DRAW2
100
AcDbLine
 10
1030.343121547311
 20
190.4025645439164
 30
0.0
 11
1050.34318154731
 21
190.4025645439164
 31
0.0
  0
LINE
  5
BAFE
330
18
100
AcDbEntity
  8
DRAW2
100
AcDbLine
 10
1099.893111547311
 20
132.9025945439163
 30
0.0
 11
1060.343061547311
 21
132.9025945439163
 31
0.0
  0
LINE
  5
BAFF
330
18
100
AcDbEntity
  8
DRAW2
100
AcDbLine
 10
1068.24311654731
 20
100.9025645439163
 30
0.0
 11
1068.24311654731
 21
120.9025645439163
 31
0.0
  0
LINE
  5
BB00
330
18
100
AcDbEntity
  8
DRAW2
100
AcDbLine
 10
1089.243116547311
 20
100.9025645439163
 30
0.0
 11
1089.243116547311
 21
120.9025645439163
 31
0.0
  0
LINE
  5
BB01
330
18
100
AcDbEntity
  8
DRAW2
100
AcDbLine
 10
1060.893111547311
 20
132.9025945439163
 30
0.0
 11
1060.893111547311
 21
100.9025645439163
 31
0.0
  0
LINE
  5
BB02
330
18
100
AcDbEntity
  8
DRAW2
100
AcDbLine
 10
1068.24311654731
 20
120.9025345439164
 30
0.0
 11
1089.243116547311
 21
120.9025345439164
 31
0.0
  0
LINE
  5
BB03
330
18
100
AcDbEntity
  8
DRAW2
100
AcDbLine
 10
1070.243146547311
 20
122.9025645439163
 30
0.0
 11
1087.243086547311
 21
122.9025645439163
 31
0.0
  0
LINE
  5
BB04
330
18
100
AcDbEntity
  8
DRAW2
100
AcDbLine
 10
1068.24308654731
 20
120.9025045439166
 30
0.0
 11
1070.24308654731
 21
122.9025045439166
 31
0.0
  0
LINE
  5
BB05
330
18
100
AcDbEntity
  8
DRAW2
100
AcDbLine
 10
1089.24314654731
 20
120.9025045439166
 30
0.0
 11
1087.24314654731
 21
122.9025045439166
 31
0.0
  0
LINE
  5
BB06
330
18
100
AcDbEntity
  8
DRAW2
100
AcDbLine
 10
1099.893111547311
 20
132.9025945439163
 30
0.0
 11
1099.893111547311
 21
100.9025645439163
 31
0.0
  0
LINE
  5
BB07
330
18
100
AcDbEntity
  8
DRAW2
100
AcDbLine
 10
1100.34311654731
 20
145.9026245439163
 30
0.0
 11
1099.343086547311
 21
145.9026245439163
 31
0.0
  0
CIRCLE
  5
BB08
330
18
100
AcDbEntity
  8
DRAW2
100
AcDbCircle
 10
1120.843121547311
 20
180.902654543917
 30
0.0
 40
2.5
  0
LINE
  5
BB09
330
18
100
AcDbEntity
  8
DRAW2
100
AcDbLine
 10
1114.134917614812
 20
182.9026545439175
 30
0.0
 11
1110.535357483267
 21
182.9026545439175
 31
0.0
  0
LINE
  5
BB0A
330
18
100
AcDbEntity
  8
DRAW2
100
AcDbLine
 10
1114.13491761481
 20
178.9026545439175
 30
0.0
 11
1110.535357483267
 21
178.9026545439175
 31
0.0
  0
LINE
  5
BB0B
330
18
100
AcDbEntity
  8
DRAW2
100
AcDbLine
 10
1099.893111547311
 20
268.9025945439165
 30
0.0
 11
1099.893111547311
 21
310.9026245439165
 31
0.0
  0
LINE
  5
BB0D
330
18
100
AcDbEntity
  8
DRAW2
100
AcDbLine
 10
1060.893111547311
 20
268.9025945439165
 30
0.0
 11
1060.893111547311
 21
310.9026245439165
 31
0.0
  0
LINE
  5
BB0E
330
18
100
AcDbEntity
  8
DRAW2
100
AcDbLine
 10
1050.34318154731
 20
267.9026245439164
 30
0.0
 11
1060.343061547311
 21
267.9026245439164
 31
0.0
  0
LINE
  5
BB10
330
18
100
AcDbEntity
  8
DRAW2
100
AcDbLine
 10
1030.343121547311
 20
211.4026245439165
 30
0.0
 11
1050.34318154731
 21
211.4026245439165
 31
0.0
  0
LINE
  5
BB11
330
18
100
AcDbEntity
  8
DRAW2
100
AcDbLine
 10
1030.343061547311
 20
211.4026245439165
 30
0.0
 11
1028.343061547311
 21
209.4026245439165
 31
0.0
  0
LINE
  5
BB12
330
18
100
AcDbEntity
  8
DRAW2
100
AcDbLine
 10
1028.343121547311
 20
209.4025945439164
 30
0.0
 11
1028.343121547311
 21
192.4026245439165
 31
0.0
  0
LINE
  5
BB13
330
18
100
AcDbEntity
  8
DRAW2
100
AcDbLine
 10
1028.343121547311
 20
263.0926245439165
 30
0.0
 11
1028.343121547311
 21
246.0925945439163
 31
0.0
  0
LINE
  5
BB14
330
18
100
AcDbEntity
  8
DRAW2
100
AcDbLine
 10
1030.343121547311
 20
265.0926245439165
 30
0.0
 11
1030.343121547311
 21
244.0926245439166
 31
0.0
  0
LINE
  5
BB15
330
18
100
AcDbEntity
  8
DRAW2
100
AcDbLine
 10
1030.343121547311
 20
244.0926245439166
 30
0.0
 11
1050.34318154731
 21
244.0926245439166
 31
0.0
  0
LINE
  5
BB16
330
18
100
AcDbEntity
  8
DRAW2
100
AcDbLine
 10
1028.343121547311
 20
246.0925945439163
 30
0.0
 11
1030.343121547311
 21
244.0925945439163
 31
0.0
  0
LINE
  5
BB17
330
18
100
AcDbEntity
  8
DRAW2
100
AcDbLine
 10
1030.343121547311
 20
265.0926245439165
 30
0.0
 11
1050.34318154731
 21
265.0926245439165
 31
0.0
  0
LINE
  5
BB18
330
18
100
AcDbEntity
  8
DRAW2
100
AcDbLine
 10
1030.343121547311
 20
265.0925945439163
 30
0.0
 11
1028.343121547311
 21
263.0925645439165
 31
0.0
  0
LINE
  5
BB19
330
18
100
AcDbEntity
  8
DRAW2
100
AcDbLine
 10
1122.534121277237
 20
229.1753966043541
 30
0.0
 11
1122.534121277237
 21
229.6753936296557
 31
0.0
  0
LINE
  5
BB1A
330
18
100
AcDbEntity
  8
DRAW2
100
AcDbLine
 10
1119.09312154731
 20
236.4025893645961
 30
0.0
 11
1119.09312154731
 21
232.9025788163793
 31
0.0
  0
LINE
  5
BB1B
330
18
100
AcDbEntity
  8
DRAW2
100
AcDbLine
 10
1099.893111547311
 20
268.9025945439165
 30
0.0
 11
1060.343061547311
 21
268.9025945439165
 31
0.0
  0
LINE
  5
BB1C
330
18
100
AcDbEntity
  8
DRAW2
100
AcDbLine
 10
1100.34311654731
 20
255.9026345439165
 30
0.0
 11
1099.343086547311
 21
255.9026345439165
 31
0.0
  0
LINE
  5
BB1D
330
18
100
AcDbEntity
  8
DRAW2
100
AcDbLine
 10
1099.893111547311
 20
300.9026545439163
 30
0.0
 11
1060.893111547311
 21
300.9026545439163
 31
0.0
  0
LINE
  5
BB1E
330
18
100
AcDbEntity
  8
DRAW2
100
AcDbLine
 10
1099.893111547311
 20
310.9026245439165
 30
0.0
 11
1060.893111547311
 21
310.9026245439165
 31
0.0
  0
LINE
  5
BB1F
330
18
100
AcDbEntity
  8
DRAW2
100
AcDbLine
 10
1085.593121547311
 20
327.9026245439164
 30
0.0
 11
1069.593061547311
 21
327.9026245439164
 31
0.0
  0
LINE
  5
BB20
330
18
100
AcDbEntity
  8
DRAW2
100
AcDbLine
 10
1083.593121547311
 20
329.9025945439166
 30
0.0
 11
1071.593121547311
 21
329.9025945439166
 31
0.0
  0
LINE
  5
BB21
330
18
100
AcDbEntity
  8
DRAW2
100
AcDbLine
 10
1071.593121547311
 20
329.9026245439165
 30
0.0
 11
1069.593121547311
 21
327.9026245439164
 31
0.0
  0
LINE
  5
BB22
330
18
100
AcDbEntity
  8
DRAW2
100
AcDbLine
 10
1069.593061547311
 20
310.9026245439165
 30
0.0
 11
1069.593061547311
 21
327.9026245439164
 31
0.0
  0
LINE
  5
BB23
330
18
100
AcDbEntity
  8
DRAW2
100
AcDbLine
 10
1083.59318154731
 20
329.9025345439165
 30
0.0
 11
1085.59318154731
 21
327.9025345439165
 31
0.0
  0
LINE
  5
BB24
330
18
100
AcDbEntity
  8
DRAW2
100
AcDbLine
 10
1085.593121547311
 20
310.9026245439165
 30
0.0
 11
1085.593121547311
 21
327.9026245439164
 31
0.0
  0
LINE
  5
BB26
330
18
100
AcDbEntity
  8
DRAW2
100
AcDbLine
 10
1185.343096547311
 20
267.9026245439164
 30
0.0
 11
1185.343096547311
 21
133.9026845439164
 31
0.0
  0
LINE
  5
BB27
330
18
100
AcDbEntity
  8
DRAW2
100
AcDbLine
 10
1257.343121547311
 20
192.4025645439163
 30
0.0
 11
1255.343121547311
 21
190.4025645439164
 31
0.0
  0
LINE
  5
BB28
330
18
100
AcDbEntity
  8
DRAW2
100
AcDbLine
 10
1255.343121547311
 20
211.4026245439165
 30
0.0
 11
1255.343121547311
 21
190.4025645439164
 31
0.0
  0
LINE
  5
BB29
330
18
100
AcDbEntity
  8
DRAW2
100
AcDbLine
 10
1186.343121547311
 20
268.9025945439165
 30
0.0
 11
1186.343121547311
 21
132.9025945439163
 31
0.0
  0
LINE
  5
BB2A
330
18
100
AcDbEntity
  8
DRAW2
100
AcDbLine
 10
1235.343121547311
 20
267.9026245439164
 30
0.0
 11
1235.343121547311
 21
133.9025945439163
 31
0.0
  0
LINE
  5
BB2C
330
18
100
AcDbEntity
  8
DRAW2
100
AcDbLine
 10
1225.343061547311
 20
268.9025945439165
 30
0.0
 11
1225.343061547311
 21
132.9025945439163
 31
0.0
  0
CIRCLE
  5
BB2D
330
18
100
AcDbEntity
  8
DRAW2
100
AcDbCircle
 10
1164.84312154731
 20
180.902654543917
 30
0.0
 40
11.0
  0
CIRCLE
  5
BB2E
330
18
100
AcDbEntity
  8
DRAW2
100
AcDbCircle
 10
1164.84312154731
 20
180.902654543917
 30
0.0
 40
10.5
  0
LINE
  5
BB30
330
18
100
AcDbEntity
  8
DRAW2
100
AcDbLine
 10
1224.843121547311
 20
101.4027145439162
 30
0.0
 11
1272.843151547311
 21
101.4027145439162
 31
0.0
  0
LINE
  5
BB31
330
18
100
AcDbEntity
  8
DRAW2
100
AcDbLine
 10
1224.843121547311
 20
132.4027145439163
 30
0.0
 11
1272.843151547311
 21
132.4027145439163
 31
0.0
  0
LINE
  5
BB32
330
18
100
AcDbEntity
  8
DRAW2
100
AcDbLine
 10
1235.343061547311
 20
190.4025645439164
 30
0.0
 11
1255.343121547311
 21
190.4025645439164
 31
0.0
  0
LINE
  5
BB33
330
18
100
AcDbEntity
  8
DRAW2
100
AcDbLine
 10
1235.343061547311
 20
157.7125945439164
 30
0.0
 11
1255.343121547311
 21
157.7125945439164
 31
0.0
  0
LINE
  5
BB34
330
18
100
AcDbEntity
  8
DRAW2
100
AcDbLine
 10
1235.343061547311
 20
136.7125945439164
 30
0.0
 11
1255.343121547311
 21
136.7125945439164
 31
0.0
  0
LINE
  5
BB36
330
18
100
AcDbEntity
  8
DRAW2
100
AcDbLine
 10
1228.093121547311
 20
100.9025645439163
 30
0.0
 11
1228.093121547311
 21
85.9025945439164
 31
0.0
  0
LINE
  5
BB37
330
18
100
AcDbEntity
  8
DRAW2
100
AcDbLine
 10
1188.09312154731
 20
100.9025645439163
 30
0.0
 11
1188.09312154731
 21
85.9025945439164
 31
0.0
  0
LINE
  5
BB39
330
18
100
AcDbEntity
  8
DRAW2
100
AcDbLine
 10
1188.09312154731
 20
85.90256454391647
 30
0.0
 11
1228.093121547311
 21
85.90256454391647
 31
0.0
  0
LINE
  5
BB3A
330
18
100
AcDbEntity
  8
DRAW2
100
AcDbLine
 10
1222.231911547311
 20
65.90256454391647
 30
0.0
 11
1193.954261547311
 21
65.90256454391647
 31
0.0
  0
LINE
  5
BB3B
330
18
100
AcDbEntity
  8
DRAW2
100
AcDbLine
 10
1192.96537154731
 20
66.75428454391658
 30
0.0
 11
1190.093121547311
 21
85.9025945439164
 31
0.0
  0
ARC
  5
BB3C
330
18
100
AcDbEntity
  8
DRAW2
100
AcDbCircle
 10
1193.954261547311
 20
66.90259454391662
 30
0.0
 40
1.0
100
AcDbArc
 50
188.5310499999985
 51
270.0000200000018
  0
LINE
  5
BB3D
330
18
100
AcDbEntity
  8
DRAW2
100
AcDbLine
 10
1223.220931547311
 20
66.75425454391643
 30
0.0
 11
1226.093181547311
 21
85.9025945439164
 31
0.0
  0
ARC
  5
BB3E
330
18
100
AcDbEntity
  8
DRAW2
100
AcDbCircle
 10
1222.231911547311
 20
66.90259454391662
 30
0.0
 40
1.0
100
AcDbArc
 50
270.0000200000018
 51
351.4689300000048
  0
LINE
  5
BB3F
330
18
100
AcDbEntity
  8
DRAW2
100
AcDbLine
 10
1185.79313154731
 20
132.9025945439163
 30
0.0
 11
1225.343121547311
 21
132.9025945439163
 31
0.0
  0
LINE
  5
BB40
330
18
100
AcDbEntity
  8
DRAW2
100
AcDbLine
 10
1185.79313154731
 20
100.9025645439163
 30
0.0
 11
1228.093121547311
 21
100.9025645439163
 31
0.0
  0
LINE
  5
BB41
330
18
100
AcDbEntity
  8
DRAW2
100
AcDbLine
 10
1185.79313154731
 20
132.9025945439163
 30
0.0
 11
1185.79313154731
 21
100.9025645439163
 31
0.0
  0
LINE
  5
BB43
330
18
100
AcDbEntity
  8
DRAW2
100
AcDbLine
 10
1158.134917614811
 20
178.9026545439175
 30
0.0
 11
1154.535357483267
 21
178.9026545439175
 31
0.0
  0
LINE
  5
BB44
330
18
100
AcDbEntity
  8
DRAW2
100
AcDbLine
 10
1158.134917614811
 20
182.9026545439175
 30
0.0
 11
1154.535357483267
 21
182.9026545439175
 31
0.0
  0
LINE
  5
BB46
330
18
100
AcDbEntity
  8
DRAW2
100
AcDbLine
 10
1129.843121547311
 20
154.3332605002403
 30
0.0
 11
1129.843121547311
 21
153.3363714271132
 31
0.0
  0
LINE
  5
BB47
330
18
100
AcDbEntity
  8
DRAW2
100
AcDbLine
 10
1129.975237098828
 20
154.0434782082999
 30
0.0
 11
1139.711005995794
 21
154.0434782082999
 31
0.0
  0
LINE
  5
BB48
330
18
100
AcDbEntity
  8
DRAW2
100
AcDbLine
 10
1129.975237098828
 20
152.6292646459268
 30
0.0
 11
1139.711005995794
 21
152.6292646459268
 31
0.0
  0
LINE
  5
BB4A
330
18
100
AcDbEntity
  8
DRAW2
100
AcDbLine
 10
1139.843121547311
 20
154.3332605002403
 30
0.0
 11
1139.843121547311
 21
153.3363714271132
 31
0.0
  0
LINE
  5
BB4C
330
18
100
AcDbEntity
  8
DRAW2
100
AcDbLine
 10
1145.975237098828
 20
154.0434782082999
 30
0.0
 11
1155.711005995794
 21
154.0434782082999
 31
0.0
  0
LINE
  5
BB4D
330
18
100
AcDbEntity
  8
DRAW2
100
AcDbLine
 10
1145.975237098828
 20
152.6292646459268
 30
0.0
 11
1155.711005995794
 21
152.6292646459268
 31
0.0
  0
LINE
  5
BB4E
330
18
100
AcDbEntity
  8
DRAW2
100
AcDbLine
 10
1155.843121547311
 20
154.3332605002403
 30
0.0
 11
1155.843121547311
 21
153.3363714271132
 31
0.0
  0
LINE
  5
BB4F
330
18
100
AcDbEntity
  8
DRAW2
100
AcDbLine
 10
1145.843121547311
 20
154.3332605002403
 30
0.0
 11
1145.843121547311
 21
153.3363714271132
 31
0.0
  0
LINE
  5
BB50
330
18
100
AcDbEntity
  8
DRAW2
100
AcDbLine
 10
1127.551325479809
 20
178.9026545439175
 30
0.0
 11
1131.150885611355
 21
178.9026545439175
 31
0.0
  0
LINE
  5
BB51
330
18
100
AcDbEntity
  8
DRAW2
100
AcDbLine
 10
1127.551325479809
 20
182.9026545439175
 30
0.0
 11
1131.150885611355
 21
182.9026545439175
 31
0.0
  0
LINE
  5
BB52
330
18
100
AcDbEntity
  8
DRAW2
100
AcDbLine
 10
1185.34312654731
 20
145.9026245439163
 30
0.0
 11
1186.34315654731
 21
145.9026245439163
 31
0.0
  0
LINE
  5
BB53
330
18
100
AcDbEntity
  8
DRAW2
100
AcDbLine
 10
1171.55132547981
 20
178.9026545439175
 30
0.0
 11
1175.150885611355
 21
178.9026545439175
 31
0.0
  0
LINE
  5
BB54
330
18
100
AcDbEntity
  8
DRAW2
100
AcDbLine
 10
1171.55132547981
 20
182.9026545439175
 30
0.0
 11
1175.150885611355
 21
182.9026545439175
 31
0.0
  0
CIRCLE
  5
BB55
330
18
100
AcDbEntity
  8
DRAW2
100
AcDbCircle
 10
1164.84312154731
 20
180.902654543917
 30
0.0
 40
2.5
  0
CIRCLE
  5
BB56
330
18
100
AcDbEntity
  8
DRAW2
100
AcDbCircle
 10
1164.84312154731
 20
180.902654543917
 30
0.0
 40
5.694887103024191
  0
CIRCLE
  5
BB57
330
18
100
AcDbEntity
  8
DRAW3
100
AcDbCircle
 10
1164.84312154731
 20
180.902654543917
 30
0.0
 40
6.578500006249994
  0
CIRCLE
  5
BB58
330
18
100
AcDbEntity
  8
DRAW2
100
AcDbCircle
 10
1164.84312154731
 20
180.902654543917
 30
0.0
 40
7.0
  0
LINE
  5
BB59
330
18
100
AcDbEntity
  8
DRAW2
100
AcDbLine
 10
1218.593061547311
 20
100.9025645439163
 30
0.0
 11
1218.593061547311
 21
120.9025645439163
 31
0.0
  0
LINE
  5
BB5A
330
18
100
AcDbEntity
  8
DRAW2
100
AcDbLine
 10
1197.593061547311
 20
100.9025645439163
 30
0.0
 11
1197.593061547311
 21
120.9025645439163
 31
0.0
  0
LINE
  5
BB5B
330
18
100
AcDbEntity
  8
DRAW2
100
AcDbLine
 10
1197.593061547311
 20
120.9025345439164
 30
0.0
 11
1218.593061547311
 21
120.9025345439164
 31
0.0
  0
LINE
  5
BB5C
330
18
100
AcDbEntity
  8
DRAW2
100
AcDbLine
 10
1199.59309154731
 20
122.9025645439163
 30
0.0
 11
1216.593031547311
 21
122.9025645439163
 31
0.0
  0
LINE
  5
BB5D
330
18
100
AcDbEntity
  8
DRAW2
100
AcDbLine
 10
1197.593031547311
 20
120.9025045439166
 30
0.0
 11
1199.593031547311
 21
122.9025045439166
 31
0.0
  0
LINE
  5
BB5E
330
18
100
AcDbEntity
  8
DRAW2
100
AcDbLine
 10
1218.593091547311
 20
120.9025045439166
 30
0.0
 11
1216.593091547311
 21
122.9025045439166
 31
0.0
  0
LINE
  5
BB5F
330
18
100
AcDbEntity
  8
DRAW2
100
AcDbLine
 10
1224.79313154731
 20
132.9025945439163
 30
0.0
 11
1224.79313154731
 21
100.9025645439163
 31
0.0
  0
LINE
  5
BB60
330
18
100
AcDbEntity
  8
DRAW2
100
AcDbLine
 10
1225.343121547311
 20
133.9025945439163
 30
0.0
 11
1235.343061547311
 21
133.9025945439163
 31
0.0
  0
LINE
  5
BB61
330
18
100
AcDbEntity
  8
DRAW2
100
AcDbLine
 10
1291.843121547311
 20
71.90271454391638
 30
0.0
 11
1291.843121547311
 21
161.9027145439163
 31
0.0
  0
LINE
  5
BB62
330
18
100
AcDbEntity
  8
DRAW2
100
AcDbLine
 10
1276.843121547311
 20
71.90271454391638
 30
0.0
 11
1276.843121547311
 21
116.9027145439164
 31
0.0
  0
LINE
  5
BB63
330
18
100
AcDbEntity
  8
DRAW2
100
AcDbLine
 10
1274.843151547311
 20
116.9027145439164
 30
0.0
 11
1274.843151547311
 21
72.90265454391629
 31
0.0
  0
LINE
  5
BB64
330
18
100
AcDbEntity
  8
DRAW2
100
AcDbLine
 10
1272.843151547311
 20
116.9027145439164
 30
0.0
 11
1272.843151547311
 21
72.90265454391629
 31
0.0
  0
LINE
  5
BB65
330
18
100
AcDbEntity
  8
DRAW2
100
AcDbLine
 10
1276.843121547311
 20
71.90271454391638
 30
0.0
 11
1291.843121547311
 21
71.90271454391638
 31
0.0
  0
LINE
  5
BB67
330
18
100
AcDbEntity
  8
DRAW2
100
AcDbLine
 10
1272.843151547311
 20
72.90268454391645
 30
0.0
 11
1276.84318154731
 21
72.90268454391645
 31
0.0
  0
LINE
  5
BB68
330
18
100
AcDbEntity
  8
DRAW2
100
AcDbLine
 10
1276.843121547311
 20
116.9027145439164
 30
0.0
 11
1276.843121547311
 21
161.9027145439163
 31
0.0
  0
LINE
  5
BB69
330
18
100
AcDbEntity
  8
DRAW2
100
AcDbLine
 10
1274.843151547311
 20
116.9027145439162
 30
0.0
 11
1274.843151547311
 21
160.9027145439163
 31
0.0
  0
LINE
  5
BB6A
330
18
100
AcDbEntity
  8
DRAW2
100
AcDbLine
 10
1272.843151547311
 20
116.9027145439162
 30
0.0
 11
1272.843151547311
 21
160.9027145439163
 31
0.0
  0
LINE
  5
BB6B
330
18
100
AcDbEntity
  8
DRAW2
100
AcDbLine
 10
1257.343121547311
 20
155.7125945439164
 30
0.0
 11
1257.343121547311
 21
138.7125945439164
 31
0.0
  0
LINE
  5
BB6C
330
18
100
AcDbEntity
  8
DRAW2
100
AcDbLine
 10
1255.343121547311
 20
157.7125945439164
 30
0.0
 11
1255.343121547311
 21
136.7125945439164
 31
0.0
  0
LINE
  5
BB6D
330
18
100
AcDbEntity
  8
DRAW2
100
AcDbLine
 10
1257.343121547311
 20
138.7126245439164
 30
0.0
 11
1255.343151547311
 21
136.7126245439164
 31
0.0
  0
LINE
  5
BB6E
330
18
100
AcDbEntity
  8
DRAW2
100
AcDbLine
 10
1276.843121547311
 20
161.9027145439163
 30
0.0
 11
1291.843121547311
 21
161.9027145439163
 31
0.0
  0
LINE
  5
BB70
330
18
100
AcDbEntity
  8
DRAW2
100
AcDbLine
 10
1255.343121547311
 20
157.7125945439164
 30
0.0
 11
1257.343121547311
 21
155.7125945439164
 31
0.0
  0
LINE
  5
BB71
330
18
100
AcDbEntity
  8
DRAW2
100
AcDbLine
 10
1272.843151547311
 20
160.9026845439162
 30
0.0
 11
1276.84318154731
 21
160.9026845439162
 31
0.0
  0
LINE
  5
BB72
330
18
100
AcDbEntity
  8
DRAW2
100
AcDbLine
 10
1224.843121547311
 20
269.4026245439165
 30
0.0
 11
1272.843151547311
 21
269.4026245439165
 31
0.0
  0
LINE
  5
BB73
330
18
100
AcDbEntity
  8
DRAW2
100
AcDbLine
 10
1224.843121547311
 20
300.4026245439165
 30
0.0
 11
1272.843151547311
 21
300.4026245439165
 31
0.0
  0
LINE
  5
BB75
330
18
100
AcDbEntity
  8
DRAW2
100
AcDbLine
 10
1235.343061547311
 20
265.0926245439165
 30
0.0
 11
1255.343121547311
 21
265.0926245439165
 31
0.0
  0
LINE
  5
BB76
330
18
100
AcDbEntity
  8
DRAW2
100
AcDbLine
 10
1235.343061547311
 20
244.0926245439166
 30
0.0
 11
1255.343121547311
 21
244.0926245439166
 31
0.0
  0
LINE
  5
BB77
330
18
100
AcDbEntity
  8
DRAW2
100
AcDbLine
 10
1235.343061547311
 20
211.4026245439165
 30
0.0
 11
1255.343121547311
 21
211.4026245439165
 31
0.0
  0
LINE
  5
BB78
330
18
100
AcDbEntity
  8
DRAW2
100
AcDbLine
 10
1224.79313154731
 20
268.9025945439165
 30
0.0
 11
1224.79313154731
 21
310.9026245439165
 31
0.0
  0
LINE
  5
BB79
330
18
100
AcDbEntity
  8
DRAW2
100
AcDbLine
 10
1185.79313154731
 20
268.9025945439165
 30
0.0
 11
1185.79313154731
 21
310.9026245439165
 31
0.0
  0
LINE
  5
BB7B
330
18
100
AcDbEntity
  8
DRAW2
100
AcDbLine
 10
1185.79313154731
 20
268.9025945439165
 30
0.0
 11
1225.343121547311
 21
268.9025945439165
 31
0.0
  0
LINE
  5
BB7C
330
18
100
AcDbEntity
  8
DRAW2
100
AcDbLine
 10
1143.843121547311
 20
240.4334771012414
 30
0.0
 11
1143.843121547311
 21
236.856126832052
 31
0.0
  0
LINE
  5
BB7D
330
18
100
AcDbEntity
  8
DRAW2
100
AcDbLine
 10
1141.843121547311
 20
240.4334771012414
 30
0.0
 11
1141.843121547311
 21
236.856126832052
 31
0.0
  0
LINE
  5
BB7E
330
18
100
AcDbEntity
  8
DRAW2
100
AcDbLine
 10
1150.843121547311
 20
242.0522792547588
 30
0.0
 11
1143.843121547311
 21
236.856126832052
 31
0.0
  0
LINE
  5
BB7F
330
18
100
AcDbEntity
  8
DRAW2
100
AcDbLine
 10
1141.843121547311
 20
236.856126832052
 30
0.0
 11
1134.843121547311
 21
242.0522792547588
 31
0.0
  0
LINE
  5
BB80
330
18
100
AcDbEntity
  8
DRAW2
100
AcDbLine
 10
1131.534121277238
 20
229.6753936296557
 30
0.0
 11
1131.534121277238
 21
229.1753966043541
 31
0.0
  0
LINE
  5
BB81
330
18
100
AcDbEntity
  8
DRAW2
100
AcDbLine
 10
1130.534121277237
 20
231.5503936296557
 30
0.0
 11
1130.534121277237
 21
229.6753936296559
 31
0.0
  0
LINE
  5
BB82
330
18
100
AcDbEntity
  8
DRAW2
100
AcDbLine
 10
1123.534121277238
 20
229.6753936296559
 30
0.0
 11
1123.534121277238
 21
231.5503936296557
 31
0.0
  0
LINE
  5
BB83
330
18
100
AcDbEntity
  8
DRAW2
100
AcDbLine
 10
1143.843121547311
 20
236.856126832052
 30
0.0
 11
1141.843121547311
 21
236.856126832052
 31
0.0
  0
LINE
  5
BB84
330
18
100
AcDbEntity
  8
DRAW2
100
AcDbLine
 10
1154.152121817384
 20
229.6753936296557
 30
0.0
 11
1154.152121817384
 21
229.1753966043541
 31
0.0
  0
LINE
  5
BB85
330
18
100
AcDbEntity
  8
DRAW2
100
AcDbLine
 10
1155.152121817383
 20
231.5503936296557
 30
0.0
 11
1155.152121817383
 21
229.6753936296559
 31
0.0
  0
LINE
  5
BB86
330
18
100
AcDbEntity
  8
DRAW2
100
AcDbLine
 10
1163.152121817383
 20
229.1753966043541
 30
0.0
 11
1163.152121817383
 21
229.6753936296557
 31
0.0
  0
LINE
  5
BB87
330
18
100
AcDbEntity
  8
DRAW2
100
AcDbLine
 10
1162.152121817384
 20
229.6753936296559
 30
0.0
 11
1162.152121817384
 21
231.5503936296557
 31
0.0
  0
LINE
  5
BB88
330
18
100
AcDbEntity
  8
DRAW2
100
AcDbLine
 10
1166.593121547311
 20
232.9025788163793
 30
0.0
 11
1166.593121547311
 21
236.4025912578561
 31
0.0
  0
LINE
  5
BB89
330
18
100
AcDbEntity
  8
DRAW2
100
AcDbLine
 10
1144.34312154731
 20
272.4026245439164
 30
0.0
 11
1185.79313154731
 21
272.4026245439164
 31
0.0
  0
LINE
  5
BB8A
330
18
100
AcDbEntity
  8
DRAW2
100
AcDbLine
 10
1185.343096547311
 20
267.9026245439164
 30
0.0
 11
1144.34312154731
 21
267.9026245439164
 31
0.0
  0
LINE
  5
BB8C
330
18
100
AcDbEntity
  8
DRAW2
100
AcDbLine
 10
1144.34312154731
 20
252.995664927731
 30
0.0
 11
1144.34312154731
 21
278.2667872876757
 31
0.0
  0
LINE
  5
BB8D
330
18
100
AcDbEntity
  8
DRAW2
100
AcDbLine
 10
1141.343121547311
 20
252.995664927731
 30
0.0
 11
1141.343121547311
 21
277.1856349850796
 31
0.0
  0
LINE
  5
BB8E
330
18
100
AcDbEntity
  8
DRAW2
100
AcDbLine
 10
1141.843121547311
 20
240.4334771012414
 30
0.0
 11
1134.843121547311
 21
245.6296295239484
 31
0.0
  0
LINE
  5
BB8F
330
18
100
AcDbEntity
  8
DRAW2
100
AcDbLine
 10
1134.843121547311
 20
245.6296295239484
 30
0.0
 11
1134.843121547311
 21
242.0522792547588
 31
0.0
  0
LINE
  5
BB90
330
18
100
AcDbEntity
  8
DRAW2
100
AcDbLine
 10
1134.843121547311
 20
247.3616803315171
 30
0.0
 11
1137.843121547311
 21
249.5886027983913
 31
0.0
  0
LINE
  5
BB91
330
18
100
AcDbEntity
  8
DRAW2
100
AcDbLine
 10
1134.843121547311
 20
245.6296295239484
 30
0.0
 11
1134.843121547311
 21
247.3616803315171
 31
0.0
  0
LINE
  5
BB92
330
18
100
AcDbEntity
  8
DRAW2
100
AcDbLine
 10
1137.843121547311
 20
248.2456649277309
 30
0.0
 11
1137.843121547311
 21
252.7456649277309
 31
0.0
  0
LINE
  5
BB93
330
18
100
AcDbEntity
  8
DRAW2
100
AcDbLine
 10
1138.343121547128
 20
254.8571294206815
 30
0.0
 11
1138.343121547128
 21
254.6331235362218
 31
0.0
  0
LINE
  5
BB94
330
18
100
AcDbEntity
  8
DRAW2
100
AcDbLine
 10
1139.343121547127
 20
256.7321294206814
 30
0.0
 11
1139.343121547127
 21
255.837994146789
 31
0.0
  0
LINE
  5
BB95
330
18
100
AcDbEntity
  8
DRAW2
100
AcDbLine
 10
1150.843121547311
 20
245.6296295239484
 30
0.0
 11
1150.843121547311
 21
242.0522792547588
 31
0.0
  0
LINE
  5
BB96
330
18
100
AcDbEntity
  8
DRAW2
100
AcDbLine
 10
1143.843121547311
 20
240.4334771012414
 30
0.0
 11
1141.843121547311
 21
240.4334771012414
 31
0.0
  0
LINE
  5
BB97
330
18
100
AcDbEntity
  8
DRAW2
100
AcDbLine
 10
1150.843121547311
 20
245.6296295239484
 30
0.0
 11
1143.843121547311
 21
240.4334771012414
 31
0.0
  0
LINE
  5
BB98
330
18
100
AcDbEntity
  8
DRAW2
100
AcDbLine
 10
1147.843121547311
 20
249.5886027983916
 30
0.0
 11
1150.843121547311
 21
247.3616803315171
 31
0.0
  0
LINE
  5
BB99
330
18
100
AcDbEntity
  8
DRAW2
100
AcDbLine
 10
1150.843121547311
 20
245.6296295239484
 30
0.0
 11
1150.843121547311
 21
247.3616803315171
 31
0.0
  0
LINE
  5
BB9A
330
18
100
AcDbEntity
  8
DRAW2
100
AcDbLine
 10
1147.843121547311
 20
248.2456649277309
 30
0.0
 11
1147.843121547311
 21
252.7456649277309
 31
0.0
  0
LINE
  5
BB9B
330
18
100
AcDbEntity
  8
DRAW2
100
AcDbLine
 10
1146.343121547128
 20
255.837994147099
 30
0.0
 11
1146.343121547128
 21
256.7321294206814
 31
0.0
  0
LINE
  5
BB9C
330
18
100
AcDbEntity
  8
DRAW2
100
AcDbLine
 10
1147.343121547127
 20
254.6331235368751
 30
0.0
 11
1147.343121547127
 21
254.8571294206815
 31
0.0
  0
LINE
  5
BB9D
330
18
100
AcDbEntity
  8
DRAW2
100
AcDbLine
 10
1185.34312654731
 20
255.9026345439165
 30
0.0
 11
1186.34315654731
 21
255.9026345439165
 31
0.0
  0
LINE
  5
BB9E
330
18
100
AcDbEntity
  8
DRAW2
100
AcDbLine
 10
1225.343121547311
 20
267.9026245439164
 30
0.0
 11
1235.343061547311
 21
267.9026245439164
 31
0.0
  0
LINE
  5
BB9F
330
18
100
AcDbEntity
  8
DRAW2
100
AcDbLine
 10
1185.79313154731
 20
300.9026545439163
 30
0.0
 11
1224.79313154731
 21
300.9026545439163
 31
0.0
  0
LINE
  5
BBA0
330
18
100
AcDbEntity
  8
DRAW2
100
AcDbLine
 10
1185.79313154731
 20
310.9026245439165
 30
0.0
 11
1224.79313154731
 21
310.9026245439165
 31
0.0
  0
LINE
  5
BBA1
330
18
100
AcDbEntity
  8
DRAW2
100
AcDbLine
 10
1200.093121547311
 20
327.9026245439164
 30
0.0
 11
1216.093121547311
 21
327.9026245439164
 31
0.0
  0
LINE
  5
BBA2
330
18
100
AcDbEntity
  8
DRAW2
100
AcDbLine
 10
1202.093121547311
 20
329.9025945439166
 30
0.0
 11
1214.093121547311
 21
329.9025945439166
 31
0.0
  0
LINE
  5
BBA3
330
18
100
AcDbEntity
  8
DRAW2
100
AcDbLine
 10
1202.093121547311
 20
329.9026245439165
 30
0.0
 11
1200.093121547311
 21
327.9026245439164
 31
0.0
  0
LINE
  5
BBA4
330
18
100
AcDbEntity
  8
DRAW2
100
AcDbLine
 10
1200.093121547311
 20
310.9026245439165
 30
0.0
 11
1200.093121547311
 21
327.9026245439164
 31
0.0
  0
LINE
  5
BBA5
330
18
100
AcDbEntity
  8
DRAW2
100
AcDbLine
 10
1214.093181547311
 20
329.9025645439163
 30
0.0
 11
1216.093061547311
 21
327.9026545439163
 31
0.0
  0
LINE
  5
BBA6
330
18
100
AcDbEntity
  8
DRAW2
100
AcDbLine
 10
1216.093121547311
 20
310.9026245439165
 30
0.0
 11
1216.093121547311
 21
327.9026245439164
 31
0.0
  0
LINE
  5
BBA7
330
18
100
AcDbEntity
  8
DRAW2
100
AcDbLine
 10
1276.843121547311
 20
284.9026245439166
 30
0.0
 11
1276.843121547311
 21
329.9026245439165
 31
0.0
  0
LINE
  5
BBA8
330
18
100
AcDbEntity
  8
DRAW2
100
AcDbLine
 10
1274.843151547311
 20
284.9026245439164
 30
0.0
 11
1274.843151547311
 21
328.9026245439164
 31
0.0
  0
LINE
  5
BBA9
330
18
100
AcDbEntity
  8
DRAW2
100
AcDbLine
 10
1272.843151547311
 20
284.9026245439164
 30
0.0
 11
1272.843151547311
 21
328.9026245439164
 31
0.0
  0
LINE
  5
BBAA
330
18
100
AcDbEntity
  8
DRAW2
100
AcDbLine
 10
1291.843121547311
 20
239.9026245439165
 30
0.0
 11
1291.843121547311
 21
329.9026245439165
 31
0.0
  0
LINE
  5
BBAB
330
18
100
AcDbEntity
  8
DRAW2
100
AcDbLine
 10
1255.343181547311
 20
211.4025645439163
 30
0.0
 11
1257.343181547311
 21
209.4025645439163
 31
0.0
  0
LINE
  5
BBAC
330
18
100
AcDbEntity
  8
DRAW2
100
AcDbLine
 10
1257.343121547311
 20
209.4025945439164
 30
0.0
 11
1257.343121547311
 21
192.4026245439165
 31
0.0
  0
LINE
  5
BBAD
330
18
100
AcDbEntity
  8
DRAW2
100
AcDbLine
 10
1276.843121547311
 20
239.9026245439165
 30
0.0
 11
1291.843121547311
 21
239.9026245439165
 31
0.0
  0
LINE
  5
BBAF
330
18
100
AcDbEntity
  8
DRAW2
100
AcDbLine
 10
1272.843151547311
 20
284.9026245439166
 30
0.0
 11
1272.843151547311
 21
240.9025645439164
 31
0.0
  0
LINE
  5
BBB0
330
18
100
AcDbEntity
  8
DRAW2
100
AcDbLine
 10
1274.843151547311
 20
284.9026245439166
 30
0.0
 11
1274.843151547311
 21
240.9025645439164
 31
0.0
  0
LINE
  5
BBB1
330
18
100
AcDbEntity
  8
DRAW2
100
AcDbLine
 10
1276.843121547311
 20
239.9026245439165
 30
0.0
 11
1276.843121547311
 21
284.9026245439166
 31
0.0
  0
LINE
  5
BBB2
330
18
100
AcDbEntity
  8
DRAW2
100
AcDbLine
 10
1257.343121547311
 20
263.0926245439165
 30
0.0
 11
1257.343121547311
 21
246.0925945439163
 31
0.0
  0
LINE
  5
BBB3
330
18
100
AcDbEntity
  8
DRAW2
100
AcDbLine
 10
1255.343121547311
 20
265.0926245439165
 30
0.0
 11
1255.343121547311
 21
244.0926245439166
 31
0.0
  0
LINE
  5
BBB4
330
18
100
AcDbEntity
  8
DRAW2
100
AcDbLine
 10
1257.34309154731
 20
246.0925945439163
 30
0.0
 11
1255.343121547311
 21
244.0926245439166
 31
0.0
  0
LINE
  5
BBB5
330
18
100
AcDbEntity
  8
DRAW2
100
AcDbLine
 10
1272.843151547311
 20
240.9025945439165
 30
0.0
 11
1276.84318154731
 21
240.9025945439165
 31
0.0
  0
LINE
  5
BBB6
330
18
100
AcDbEntity
  8
DRAW2
100
AcDbLine
 10
1255.343151547311
 20
265.0925945439163
 30
0.0
 11
1257.343181547311
 21
263.0925645439165
 31
0.0
  0
LINE
  5
BBB7
330
18
100
AcDbEntity
  8
DRAW2
100
AcDbLine
 10
1276.843121547311
 20
329.9026245439165
 30
0.0
 11
1291.843121547311
 21
329.9026245439165
 31
0.0
  0
LINE
  5
BBB9
330
18
100
AcDbEntity
  8
DRAW2
100
AcDbLine
 10
1272.843151547311
 20
328.9025945439163
 30
0.0
 11
1276.84318154731
 21
328.9025945439163
 31
0.0
  0
LINE
  5
BBBA
330
18
100
AcDbEntity
  8
DRAW2
100
AcDbLine
 10
1110.393121547321
 20
439.9456650335126
 30
0.0
 11
1131.393121547321
 21
439.9456650335126
 31
0.0
  0
LINE
  5
BBBB
330
18
100
AcDbEntity
  8
DRAW2
100
AcDbLine
 10
1124.294767922963
 20
452.9356650335126
 30
0.0
 11
1100.343121547321
 21
452.9356650335126
 31
0.0
  0
LINE
  5
BBBD
330
18
100
AcDbEntity
  8
DRAW2
100
AcDbLine
 10
1100.343121547321
 20
600.9356650335124
 30
0.0
 11
1185.343121547321
 21
600.9356650335124
 31
0.0
  0
LINE
  5
BBBE
330
18
100
AcDbEntity
  8
DRAW2
100
AcDbLine
 10
1185.343121547321
 20
558.3522211783225
 30
0.0
 11
1100.343121547321
 21
558.3522211783225
 31
0.0
  0
LINE
  5
BBBF
330
18
100
AcDbEntity
  8
DRAW2
100
AcDbLine
 10
1185.343121547321
 20
495.5191088887024
 30
0.0
 11
1100.343121547321
 21
495.5191088887024
 31
0.0
  0
LINE
  5
BBC0
330
18
100
AcDbEntity
  8
DRAW2
100
AcDbLine
 10
1185.893121547321
 20
514.4356650335124
 30
0.0
 11
1099.893121547321
 21
514.4356650335124
 31
0.0
  0
LINE
  5
BBC1
330
18
100
AcDbEntity
  8
DRAW2
100
AcDbLine
 10
1185.893121547321
 20
539.4356650335124
 30
0.0
 11
1099.893121547321
 21
539.4356650335124
 31
0.0
  0
LINE
  5
BBC2
330
18
100
AcDbEntity
  8
DRAW2
100
AcDbLine
 10
1050.343121547321
 20
547.4356650335123
 30
0.0
 11
1050.343121547321
 21
568.4356650335122
 31
0.0
  0
LINE
  5
BBC3
330
18
100
AcDbEntity
  8
DRAW2
100
AcDbLine
 10
1030.343121547321
 20
568.4356650335122
 30
0.0
 11
1028.343121547321
 21
566.4356650335122
 31
0.0
  0
LINE
  5
BBC4
330
18
100
AcDbEntity
  8
DRAW2
100
AcDbLine
 10
1030.343121547321
 20
568.4356650335122
 30
0.0
 11
1030.343121547321
 21
547.4356650335123
 31
0.0
  0
LINE
  5
BBC5
330
18
100
AcDbEntity
  8
DRAW2
100
AcDbLine
 10
1099.343121547321
 20
600.9356650335124
 30
0.0
 11
1099.343121547321
 21
560.9356650335127
 31
0.0
  0
LINE
  5
BBC6
330
18
100
AcDbEntity
  8
DRAW2
100
AcDbLine
 10
1050.343121547321
 20
600.9356650335124
 30
0.0
 11
1050.343121547321
 21
452.9356650335126
 31
0.0
  0
LINE
  5
BBC7
330
18
100
AcDbEntity
  8
DRAW2
100
AcDbLine
 10
1050.343121547321
 20
600.9356650335124
 30
0.0
 11
1050.343121547321
 21
452.9356650335126
 31
0.0
  0
LINE
  5
BBC8
330
18
100
AcDbEntity
  8
DRAW2
100
AcDbLine
 10
1060.343121547321
 20
600.9356650335124
 30
0.0
 11
1060.343121547321
 21
452.9356650335126
 31
0.0
  0
LINE
  5
BBC9
330
18
100
AcDbEntity
  8
DRAW2
100
AcDbLine
 10
1060.343121547321
 20
600.9356650335124
 30
0.0
 11
1060.343121547321
 21
452.9356650335126
 31
0.0
  0
LINE
  5
BBCA
330
18
100
AcDbEntity
  8
DRAW2
100
AcDbLine
 10
1100.343121547321
 20
600.9356650335124
 30
0.0
 11
1100.343121547321
 21
452.9356650335126
 31
0.0
  0
LINE
  5
BBCB
330
18
100
AcDbEntity
  8
DRAW2
100
AcDbLine
 10
1050.343121547321
 20
454.4356650335124
 30
0.0
 11
1050.343121547321
 21
475.4356650335124
 31
0.0
  0
LINE
  5
BBCC
330
18
100
AcDbEntity
  8
DRAW2
100
AcDbLine
 10
1030.343121547321
 20
475.4356650335124
 30
0.0
 11
1028.343121547321
 21
473.4356650335125
 31
0.0
  0
LINE
  5
BBCD
330
18
100
AcDbEntity
  8
DRAW2
100
AcDbLine
 10
1030.343121547321
 20
475.4356650335124
 30
0.0
 11
1030.343121547321
 21
454.4356650335124
 31
0.0
  0
LINE
  5
BBCE
330
18
100
AcDbEntity
  8
DRAW2
100
AcDbLine
 10
1099.343121547321
 20
492.9356650335126
 30
0.0
 11
1099.343121547321
 21
452.9356650335126
 31
0.0
  0
LINE
  5
BBCF
330
18
100
AcDbEntity
  8
DRAW2
100
AcDbLine
 10
1060.343121547321
 20
452.9356650335126
 30
0.0
 11
1050.343121547321
 21
452.9356650335126
 31
0.0
  0
LINE
  5
BBD1
330
18
100
AcDbEntity
  8
DRAW2
100
AcDbLine
 10
1030.343121547321
 20
454.4356650335124
 30
0.0
 11
1050.343121547321
 21
454.4356650335124
 31
0.0
  0
LINE
  5
BBD2
330
18
100
AcDbEntity
  8
DRAW2
100
AcDbLine
 10
1028.343121547321
 20
473.4356650335125
 30
0.0
 11
1028.343121547321
 21
456.4356650335125
 31
0.0
  0
LINE
  5
BBD3
330
18
100
AcDbEntity
  8
DRAW2
100
AcDbLine
 10
1028.343121547321
 20
456.4356650335125
 30
0.0
 11
1030.343121547321
 21
454.4356650335124
 31
0.0
  0
LINE
  5
BBD4
330
18
100
AcDbEntity
  8
DRAW2
100
AcDbLine
 10
1060.343121547321
 20
452.9356650335126
 30
0.0
 11
1099.343121547321
 21
452.9356650335126
 31
0.0
  0
LINE
  5
BBD5
330
18
100
AcDbEntity
  8
DRAW2
100
AcDbLine
 10
1110.393121547321
 20
452.9356650335126
 30
0.0
 11
1110.393121547321
 21
439.9456650335126
 31
0.0
  0
LINE
  5
BBD6
330
18
100
AcDbEntity
  8
DRAW2
100
AcDbLine
 10
1122.584164046149
 20
458.0997213182031
 30
0.0
 11
1122.584164046149
 21
457.2336984905829
 31
0.0
  0
LINE
  5
BBD7
330
18
100
AcDbEntity
  8
DRAW2
100
AcDbLine
 10
1119.12151175784
 20
468.1363104370562
 30
0.0
 11
1119.12151175784
 21
464.5817427093406
 31
0.0
  0
LINE
  5
BBD8
330
18
100
AcDbEntity
  8
DRAW2
100
AcDbLine
 10
1060.343121547321
 20
558.3522560411925
 30
0.0
 11
1050.343121547321
 21
558.3522560411925
 31
0.0
  0
LINE
  5
BBD9
330
18
100
AcDbEntity
  8
DRAW2
100
AcDbLine
 10
1060.343121547321
 20
495.5191091069464
 30
0.0
 11
1050.343121547321
 21
495.5191091069464
 31
0.0
  0
LINE
  5
BBDB
330
18
100
AcDbEntity
  8
DRAW2
100
AcDbLine
 10
1050.343121547321
 20
485.4356650335125
 30
0.0
 11
1050.343121547321
 21
506.4356650335126
 31
0.0
  0
LINE
  5
BBDC
330
18
100
AcDbEntity
  8
DRAW2
100
AcDbLine
 10
1030.343121547321
 20
506.4356650335126
 30
0.0
 11
1030.343121547321
 21
485.4356650335125
 31
0.0
  0
LINE
  5
BBDD
330
18
100
AcDbEntity
  8
DRAW2
100
AcDbLine
 10
1028.343121547321
 20
504.4356650335124
 30
0.0
 11
1028.343121547321
 21
487.4356650335123
 31
0.0
  0
LINE
  5
BBDE
330
18
100
AcDbEntity
  8
DRAW2
100
AcDbLine
 10
1030.343121547321
 20
485.4356650335125
 30
0.0
 11
1050.343121547321
 21
485.4356650335125
 31
0.0
  0
LINE
  5
BBDF
330
18
100
AcDbEntity
  8
DRAW2
100
AcDbLine
 10
1050.343121547321
 20
475.4356650335124
 30
0.0
 11
1030.343121547321
 21
475.4356650335124
 31
0.0
  0
LINE
  5
BBE0
330
18
100
AcDbEntity
  8
DRAW2
100
AcDbLine
 10
1028.343121547321
 20
487.4356650335123
 30
0.0
 11
1030.343121547321
 21
485.4356650335125
 31
0.0
  0
LINE
  5
BBE1
330
18
100
AcDbEntity
  8
DRAW2
100
AcDbLine
 10
1050.343121547321
 20
506.4356650335126
 30
0.0
 11
1030.343121547321
 21
506.4356650335126
 31
0.0
  0
LINE
  5
BBE2
330
18
100
AcDbEntity
  8
DRAW2
100
AcDbLine
 10
1030.343121547321
 20
506.4356650335126
 30
0.0
 11
1028.343121547321
 21
504.4356650335124
 31
0.0
  0
LINE
  5
BBE4
330
18
100
AcDbEntity
  8
DRAW2
100
AcDbLine
 10
1030.343121547321
 20
547.4356650335123
 30
0.0
 11
1050.343121547321
 21
547.4356650335123
 31
0.0
  0
LINE
  5
BBE5
330
18
100
AcDbEntity
  8
DRAW2
100
AcDbLine
 10
1028.343121547321
 20
566.4356650335122
 30
0.0
 11
1028.343121547321
 21
549.4356650335123
 31
0.0
  0
LINE
  5
BBE6
330
18
100
AcDbEntity
  8
DRAW2
100
AcDbLine
 10
1028.343121547321
 20
549.4356650335123
 30
0.0
 11
1030.343121547321
 21
547.4356650335123
 31
0.0
  0
LINE
  5
BBE7
330
18
100
AcDbEntity
  8
DRAW2
100
AcDbLine
 10
1099.893121547321
 20
560.9356650335127
 30
0.0
 11
1099.893121547321
 21
492.9356650335126
 31
0.0
  0
LINE
  5
BBE8
330
18
100
AcDbEntity
  8
DRAW2
100
AcDbLine
 10
1099.893121547321
 20
496.9356650335126
 30
0.0
 11
1099.893121547321
 21
556.9356650335127
 31
0.0
  0
LINE
  5
BBE9
330
18
100
AcDbEntity
  8
DRAW2
100
AcDbLine
 10
1060.893121547321
 20
560.9356650335127
 30
0.0
 11
1060.893121547321
 21
492.9356650335126
 31
0.0
  0
LINE
  5
BBEA
330
18
100
AcDbEntity
  8
DRAW2
100
AcDbLine
 10
1060.893121547321
 20
556.9356650335127
 30
0.0
 11
1060.893121547321
 21
496.9356650335126
 31
0.0
  0
LINE
  5
BBEB
330
18
100
AcDbEntity
  8
DRAW2
100
AcDbLine
 10
1099.893121547321
 20
496.9356650335125
 30
0.0
 11
1060.893121547321
 21
496.9356650335125
 31
0.0
  0
LINE
  5
BBEC
330
18
100
AcDbEntity
  8
DRAW2
100
AcDbLine
 10
1060.893121547321
 20
492.9356650335126
 30
0.0
 11
1099.893121547321
 21
492.9356650335126
 31
0.0
  0
LINE
  5
BBED
330
18
100
AcDbEntity
  8
DRAW2
100
AcDbLine
 10
1060.893121547321
 20
496.9356650335126
 30
0.0
 11
1099.893121547321
 21
496.9356650335126
 31
0.0
  0
CIRCLE
  5
BBEE
330
18
100
AcDbEntity
  8
DRAW2
100
AcDbCircle
 10
1077.593121547321
 20
504.9356650335125
 30
0.0
 40
8.0
  0
CIRCLE
  5
BBEF
330
18
100
AcDbEntity
  8
DRAW2
100
AcDbCircle
 10
1077.593121547321
 20
504.9356650335125
 30
0.0
 40
6.0
  0
LINE
  5
BBF0
330
18
100
AcDbEntity
  8
DRAW2
100
AcDbLine
 10
1099.893121547321
 20
556.9356650335127
 30
0.0
 11
1060.893121547321
 21
556.9356650335127
 31
0.0
  0
LINE
  5
BBF1
330
18
100
AcDbEntity
  8
DRAW2
100
AcDbLine
 10
1060.893121547321
 20
560.9356650335127
 30
0.0
 11
1099.893121547321
 21
560.9356650335127
 31
0.0
  0
LINE
  5
BBF2
330
18
100
AcDbEntity
  8
DRAW2
100
AcDbLine
 10
1099.893121547321
 20
556.9356650335127
 30
0.0
 11
1060.893121547321
 21
556.9356650335127
 31
0.0
  0
CIRCLE
  5
BBF3
330
18
100
AcDbEntity
  8
DRAW2
100
AcDbCircle
 10
1077.593121547321
 20
548.9356650335126
 30
0.0
 40
6.0
  0
CIRCLE
  5
BBF4
330
18
100
AcDbEntity
  8
DRAW2
100
AcDbCircle
 10
1077.593121547321
 20
548.9356650335126
 30
0.0
 40
8.0
  0
LINE
  5
BBF5
330
18
100
AcDbEntity
  8
DRAW2
100
AcDbLine
 10
1060.343121547321
 20
600.9356650335124
 30
0.0
 11
1050.343121547321
 21
600.9356650335124
 31
0.0
  0
LINE
  5
BBF7
330
18
100
AcDbEntity
  8
DRAW2
100
AcDbLine
 10
1050.343121547321
 20
578.4356650335126
 30
0.0
 11
1050.343121547321
 21
599.4356650335125
 31
0.0
  0
LINE
  5
BBF8
330
18
100
AcDbEntity
  8
DRAW2
100
AcDbLine
 10
1030.343121547321
 20
599.4356650335125
 30
0.0
 11
1030.343121547321
 21
578.4356650335126
 31
0.0
  0
LINE
  5
BBF9
330
18
100
AcDbEntity
  8
DRAW2
100
AcDbLine
 10
1028.343121547321
 20
597.4356650335124
 30
0.0
 11
1028.343121547321
 21
580.4356650335124
 31
0.0
  0
LINE
  5
BBFA
330
18
100
AcDbEntity
  8
DRAW2
100
AcDbLine
 10
1030.343121547321
 20
578.4356650335126
 30
0.0
 11
1050.343121547321
 21
578.4356650335126
 31
0.0
  0
LINE
  5
BBFB
330
18
100
AcDbEntity
  8
DRAW2
100
AcDbLine
 10
1050.343121547321
 20
568.4356650335122
 30
0.0
 11
1030.343121547321
 21
568.4356650335122
 31
0.0
  0
LINE
  5
BBFC
330
18
100
AcDbEntity
  8
DRAW2
100
AcDbLine
 10
1028.343121547321
 20
580.4356650335124
 30
0.0
 11
1030.343121547321
 21
578.4356650335126
 31
0.0
  0
LINE
  5
BBFD
330
18
100
AcDbEntity
  8
DRAW2
100
AcDbLine
 10
1050.343121547321
 20
599.4356650335125
 30
0.0
 11
1030.343121547321
 21
599.4356650335125
 31
0.0
  0
LINE
  5
BBFE
330
18
100
AcDbEntity
  8
DRAW2
100
AcDbLine
 10
1030.343121547321
 20
599.4356650335125
 30
0.0
 11
1028.343121547321
 21
597.4356650335124
 31
0.0
  0
LINE
  5
BBFF
330
18
100
AcDbEntity
  8
DRAW2
100
AcDbLine
 10
1099.343121547321
 20
600.9356650335124
 30
0.0
 11
1060.343121547321
 21
600.9356650335124
 31
0.0
  0
LINE
  5
BC01
330
18
100
AcDbEntity
  8
DRAW2
100
AcDbLine
 10
1274.893121547321
 20
482.9356650335126
 30
0.0
 11
1274.893121547321
 21
570.9356650335124
 31
0.0
  0
LINE
  5
BC02
330
18
100
AcDbEntity
  8
DRAW2
100
AcDbLine
 10
1255.343121547321
 20
568.4356650335122
 30
0.0
 11
1257.343121547321
 21
566.4356650335122
 31
0.0
  0
LINE
  5
BC03
330
18
100
AcDbEntity
  8
DRAW2
100
AcDbLine
 10
1255.343121547321
 20
568.4356650335122
 30
0.0
 11
1255.343121547321
 21
547.4356650335123
 31
0.0
  0
LINE
  5
BC04
330
18
100
AcDbEntity
  8
DRAW2
100
AcDbLine
 10
1235.343121547321
 20
547.4356650335123
 30
0.0
 11
1235.343121547321
 21
568.4356650335122
 31
0.0
  0
LINE
  5
BC05
330
18
100
AcDbEntity
  8
DRAW2
100
AcDbLine
 10
1272.893121547321
 20
482.9356650335126
 30
0.0
 11
1272.893121547321
 21
570.9356650335124
 31
0.0
  0
LINE
  5
BC06
330
18
100
AcDbEntity
  8
DRAW2
100
AcDbLine
 10
1186.343121547321
 20
600.9356650335124
 30
0.0
 11
1186.343121547321
 21
560.9356650335127
 31
0.0
  0
LINE
  5
BC07
330
18
100
AcDbEntity
  8
DRAW2
100
AcDbLine
 10
1235.343121547321
 20
600.9356650335124
 30
0.0
 11
1235.343121547321
 21
542.4356650335128
 31
0.0
  0
LINE
  5
BC08
330
18
100
AcDbEntity
  8
DRAW2
100
AcDbLine
 10
1225.343121547321
 20
600.9356650335124
 30
0.0
 11
1225.343121547321
 21
542.4356650335128
 31
0.0
  0
LINE
  5
BC09
330
18
100
AcDbEntity
  8
DRAW2
100
AcDbLine
 10
1225.343121547321
 20
600.9356650335124
 30
0.0
 11
1225.343121547321
 21
542.4356650335128
 31
0.0
  0
LINE
  5
BC0A
330
18
100
AcDbEntity
  8
DRAW2
100
AcDbLine
 10
1185.343121547321
 20
600.9356650335124
 30
0.0
 11
1185.343121547321
 21
452.9356650335126
 31
0.0
  0
LINE
  5
BC0B
330
18
100
AcDbEntity
  8
DRAW2
100
AcDbLine
 10
1291.893121547321
 20
571.9356650335124
 30
0.0
 11
1291.893121547321
 21
481.9356650335126
 31
0.0
  0
LINE
  5
BC0C
330
18
100
AcDbEntity
  8
DRAW2
100
AcDbLine
 10
1276.893121547321
 20
571.9356650335124
 30
0.0
 11
1276.893121547321
 21
481.9356650335126
 31
0.0
  0
LINE
  5
BC0E
330
18
100
AcDbEntity
  8
DRAW2
100
AcDbLine
 10
1224.893121547321
 20
542.4356650335124
 30
0.0
 11
1272.893121547321
 21
542.4356650335124
 31
0.0
  0
LINE
  5
BC0F
330
18
100
AcDbEntity
  8
DRAW2
100
AcDbLine
 10
1255.343121547321
 20
547.4356650335123
 30
0.0
 11
1235.343121547321
 21
547.4356650335123
 31
0.0
  0
LINE
  5
BC11
330
18
100
AcDbEntity
  8
DRAW2
100
AcDbLine
 10
1224.893121547321
 20
511.4356650335126
 30
0.0
 11
1272.893121547321
 21
511.4356650335126
 31
0.0
  0
LINE
  5
BC12
330
18
100
AcDbEntity
  8
DRAW2
100
AcDbLine
 10
1235.343121547321
 20
506.4356650335123
 30
0.0
 11
1255.343121547321
 21
506.4356650335123
 31
0.0
  0
LINE
  5
BC13
330
18
100
AcDbEntity
  8
DRAW2
100
AcDbLine
 10
1255.343121547321
 20
485.4356650335123
 30
0.0
 11
1235.343121547321
 21
485.4356650335123
 31
0.0
  0
LINE
  5
BC15
330
18
100
AcDbEntity
  8
DRAW2
100
AcDbLine
 10
1255.343121547321
 20
454.4356650335124
 30
0.0
 11
1235.343121547321
 21
454.4356650335124
 31
0.0
  0
LINE
  5
BC16
330
18
100
AcDbEntity
  8
DRAW2
100
AcDbLine
 10
1235.343121547321
 20
475.4356650335124
 30
0.0
 11
1255.343121547321
 21
475.4356650335124
 31
0.0
  0
LINE
  5
BC17
330
18
100
AcDbEntity
  8
DRAW2
100
AcDbLine
 10
1235.343121547321
 20
454.4356650335124
 30
0.0
 11
1235.343121547321
 21
475.4356650335124
 31
0.0
  0
LINE
  5
BC18
330
18
100
AcDbEntity
  8
DRAW2
100
AcDbLine
 10
1186.343121547321
 20
492.9356650335126
 30
0.0
 11
1186.343121547321
 21
452.9356650335126
 31
0.0
  0
LINE
  5
BC19
330
18
100
AcDbEntity
  8
DRAW2
100
AcDbLine
 10
1235.343121547321
 20
511.4356650335126
 30
0.0
 11
1235.343121547321
 21
452.9356650335126
 31
0.0
  0
LINE
  5
BC1A
330
18
100
AcDbEntity
  8
DRAW2
100
AcDbLine
 10
1225.343121547321
 20
511.4356650335126
 30
0.0
 11
1225.343121547321
 21
452.9356650335126
 31
0.0
  0
LINE
  5
BC1B
330
18
100
AcDbEntity
  8
DRAW2
100
AcDbLine
 10
1225.343121547321
 20
511.4356650335126
 30
0.0
 11
1225.343121547321
 21
452.9356650335126
 31
0.0
  0
LINE
  5
BC1C
330
18
100
AcDbEntity
  8
DRAW2
100
AcDbLine
 10
1186.343121547321
 20
452.9356650335126
 30
0.0
 11
1225.343121547321
 21
452.9356650335126
 31
0.0
  0
LINE
  5
BC1D
330
18
100
AcDbEntity
  8
DRAW2
100
AcDbLine
 10
1175.293121547321
 20
439.9456650335126
 30
0.0
 11
1154.293121547321
 21
439.9456650335126
 31
0.0
  0
LINE
  5
BC1E
330
18
100
AcDbEntity
  8
DRAW2
100
AcDbLine
 10
1154.293121547321
 20
452.9356650335126
 30
0.0
 11
1154.293121547321
 21
439.9456650335126
 31
0.0
  0
LINE
  5
BC1F
330
18
100
AcDbEntity
  8
DRAW2
100
AcDbLine
 10
1131.393121547321
 20
452.9356650335126
 30
0.0
 11
1131.393121547321
 21
439.9456650335126
 31
0.0
  0
LINE
  5
BC20
330
18
100
AcDbEntity
  8
DRAW2
100
AcDbLine
 10
1147.843121547321
 20
450.934933954903
 30
0.0
 11
1147.843121547321
 21
443.1407053208428
 31
0.0
  0
LINE
  5
BC21
330
18
100
AcDbEntity
  8
DRAW2
100
AcDbLine
 10
1137.843121547321
 20
450.934933954903
 30
0.0
 11
1137.843121547321
 21
443.1407053208428
 31
0.0
  0
LINE
  5
BC22
330
18
100
AcDbEntity
  8
DRAW2
100
AcDbLine
 10
1144.343121547321
 20
433.3363003698961
 30
0.0
 11
1144.343121547321
 21
442.7076926189506
 31
0.0
  0
LINE
  5
BC23
330
18
100
AcDbEntity
  8
DRAW2
100
AcDbLine
 10
1141.343121547321
 20
433.3363003698961
 30
0.0
 11
1141.343121547321
 21
442.7076926189506
 31
0.0
  0
LINE
  5
BC24
330
18
100
AcDbEntity
  8
DRAW2
100
AcDbLine
 10
1144.343121547321
 20
433.3363003698961
 30
0.0
 11
1141.343121547321
 21
433.3363003698961
 31
0.0
  0
LINE
  5
BC25
330
18
100
AcDbEntity
  8
DRAW2
100
AcDbLine
 10
1134.843121547321
 20
459.6621926113598
 30
0.0
 11
1141.843121547321
 21
462.6621926113598
 31
0.0
  0
LINE
  5
BC26
330
18
100
AcDbEntity
  8
DRAW2
100
AcDbLine
 10
1134.843121547321
 20
454.4660401886532
 30
0.0
 11
1141.843121547321
 21
457.466040188653
 31
0.0
  0
LINE
  5
BC27
330
18
100
AcDbEntity
  8
DRAW2
100
AcDbLine
 10
1134.843121547321
 20
459.6621926113598
 30
0.0
 11
1134.843121547321
 21
454.4660401886532
 31
0.0
  0
LINE
  5
BC28
330
18
100
AcDbEntity
  8
DRAW2
100
AcDbLine
 10
1134.843121547321
 20
454.4660401886532
 30
0.0
 11
1134.843121547321
 21
453.4660401886532
 31
0.0
  0
LINE
  5
BC29
330
18
100
AcDbEntity
  8
DRAW2
100
AcDbLine
 10
1138.30366637475
 20
451.9829495483259
 30
0.0
 11
1134.843121547321
 21
453.4660401886532
 31
0.0
  0
LINE
  5
BC2A
330
18
100
AcDbEntity
  8
DRAW2
100
AcDbLine
 10
1138.343121547321
 20
473.2157552424464
 30
0.0
 11
1138.343121547321
 21
472.3497324148262
 31
0.0
  0
LINE
  5
BC2B
330
18
100
AcDbEntity
  8
DRAW2
100
AcDbLine
 10
1139.343121547321
 20
469.1021371506346
 30
0.0
 11
1139.343121547321
 21
472.3497324148262
 31
0.0
  0
LINE
  5
BC2C
330
18
100
AcDbEntity
  8
DRAW2
100
AcDbLine
 10
1131.584164046149
 20
458.0997213182031
 30
0.0
 11
1131.584164046149
 21
457.2336984905829
 31
0.0
  0
LINE
  5
BC2D
330
18
100
AcDbEntity
  8
DRAW2
100
AcDbLine
 10
1130.584164046149
 20
453.9861032263913
 30
0.0
 11
1130.584164046149
 21
457.2336984905829
 31
0.0
  0
LINE
  5
BC2E
330
18
100
AcDbEntity
  8
DRAW2
100
AcDbLine
 10
1123.584164046149
 20
453.9861032263913
 30
0.0
 11
1123.584164046149
 21
457.2336984905829
 31
0.0
  0
LINE
  5
BC2F
330
18
100
AcDbEntity
  8
DRAW2
100
AcDbLine
 10
1136.080663575982
 20
452.9356650335126
 30
0.0
 11
1129.873560169335
 21
452.9356650335126
 31
0.0
  0
LINE
  5
BC30
330
18
100
AcDbEntity
  8
DRAW2
100
AcDbLine
 10
1150.843121547321
 20
459.6621926113598
 30
0.0
 11
1150.843121547321
 21
454.4660401886532
 31
0.0
  0
LINE
  5
BC31
330
18
100
AcDbEntity
  8
DRAW2
100
AcDbLine
 10
1143.843121547321
 20
462.6621926113598
 30
0.0
 11
1143.843121547321
 21
457.466040188653
 31
0.0
  0
LINE
  5
BC32
330
18
100
AcDbEntity
  8
DRAW2
100
AcDbLine
 10
1141.843121547321
 20
462.6621926113598
 30
0.0
 11
1141.843121547321
 21
457.466040188653
 31
0.0
  0
LINE
  5
BC33
330
18
100
AcDbEntity
  8
DRAW2
100
AcDbLine
 10
1143.843121547321
 20
462.6621926113598
 30
0.0
 11
1150.843121547321
 21
459.6621926113598
 31
0.0
  0
LINE
  5
BC34
330
18
100
AcDbEntity
  8
DRAW2
100
AcDbLine
 10
1141.843121547321
 20
462.6621926113598
 30
0.0
 11
1143.843121547321
 21
462.6621926113598
 31
0.0
  0
LINE
  5
BC35
330
18
100
AcDbEntity
  8
DRAW2
100
AcDbLine
 10
1150.843121547321
 20
453.4660401886532
 30
0.0
 11
1147.382576719891
 21
451.9829495483259
 31
0.0
  0
LINE
  5
BC36
330
18
100
AcDbEntity
  8
DRAW2
100
AcDbLine
 10
1143.843121547321
 20
457.466040188653
 30
0.0
 11
1150.843121547321
 21
454.4660401886532
 31
0.0
  0
LINE
  5
BC37
330
18
100
AcDbEntity
  8
DRAW2
100
AcDbLine
 10
1150.843121547321
 20
453.4660401886532
 30
0.0
 11
1150.843121547321
 21
454.4660401886532
 31
0.0
  0
LINE
  5
BC38
330
18
100
AcDbEntity
  8
DRAW2
100
AcDbLine
 10
1141.843121547321
 20
457.466040188653
 30
0.0
 11
1143.843121547321
 21
457.466040188653
 31
0.0
  0
LINE
  5
BC39
330
18
100
AcDbEntity
  8
DRAW2
100
AcDbLine
 10
1145.843121547321
 20
453.966040188653
 30
0.0
 11
1145.843121547321
 21
453.0449976399198
 31
0.0
  0
LINE
  5
BC3A
330
18
100
AcDbEntity
  8
DRAW2
100
AcDbLine
 10
1139.843121547321
 20
453.0449976399198
 30
0.0
 11
1139.843121547321
 21
453.966040188653
 31
0.0
  0
LINE
  5
BC3B
330
18
100
AcDbEntity
  8
DRAW2
100
AcDbLine
 10
1155.912682925316
 20
452.9356650335126
 30
0.0
 11
1149.605579518659
 21
452.9356650335126
 31
0.0
  0
LINE
  5
BC3C
330
18
100
AcDbEntity
  8
DRAW2
100
AcDbLine
 10
1146.343121547321
 20
469.1021371506346
 30
0.0
 11
1146.343121547321
 21
472.3497324148262
 31
0.0
  0
LINE
  5
BC3D
330
18
100
AcDbEntity
  8
DRAW2
100
AcDbLine
 10
1147.343121547321
 20
473.2157552424464
 30
0.0
 11
1147.343121547321
 21
472.3497324148262
 31
0.0
  0
LINE
  5
BC3E
330
18
100
AcDbEntity
  8
DRAW2
100
AcDbLine
 10
1155.202079048503
 20
453.9861032263913
 30
0.0
 11
1155.202079048503
 21
457.2336984905829
 31
0.0
  0
LINE
  5
BC3F
330
18
100
AcDbEntity
  8
DRAW2
100
AcDbLine
 10
1154.202079048503
 20
458.0997213182031
 30
0.0
 11
1154.202079048503
 21
457.2336984905829
 31
0.0
  0
LINE
  5
BC40
330
18
100
AcDbEntity
  8
DRAW2
100
AcDbLine
 10
1175.293121547321
 20
452.9356650335126
 30
0.0
 11
1175.293121547321
 21
439.9456650335126
 31
0.0
  0
LINE
  5
BC41
330
18
100
AcDbEntity
  8
DRAW2
100
AcDbLine
 10
1185.343121547321
 20
452.9356650335126
 30
0.0
 11
1161.491475171688
 21
452.9356650335126
 31
0.0
  0
LINE
  5
BC42
330
18
100
AcDbEntity
  8
DRAW2
100
AcDbLine
 10
1163.202079048503
 20
458.0997213182031
 30
0.0
 11
1163.202079048503
 21
457.2336984905829
 31
0.0
  0
LINE
  5
BC43
330
18
100
AcDbEntity
  8
DRAW2
100
AcDbLine
 10
1162.202079048503
 20
453.9861032263913
 30
0.0
 11
1162.202079048503
 21
457.2336984905829
 31
0.0
  0
LINE
  5
BC44
330
18
100
AcDbEntity
  8
DRAW2
100
AcDbLine
 10
1166.62151175784
 20
467.9408376052162
 30
0.0
 11
1166.62151175784
 21
464.5817427093406
 31
0.0
  0
LINE
  5
BC45
330
18
100
AcDbEntity
  8
DRAW2
100
AcDbLine
 10
1235.343121547321
 20
452.9356650335126
 30
0.0
 11
1225.343121547321
 21
452.9356650335126
 31
0.0
  0
LINE
  5
BC46
330
18
100
AcDbEntity
  8
DRAW2
100
AcDbLine
 10
1185.893121547321
 20
556.9356650335127
 30
0.0
 11
1224.893121547321
 21
556.9356650335127
 31
0.0
  0
LINE
  5
BC47
330
18
100
AcDbEntity
  8
DRAW2
100
AcDbLine
 10
1224.893121547321
 20
560.9356650335127
 30
0.0
 11
1185.893121547321
 21
560.9356650335127
 31
0.0
  0
LINE
  5
BC48
330
18
100
AcDbEntity
  8
DRAW2
100
AcDbLine
 10
1185.893121547321
 20
556.9356650335127
 30
0.0
 11
1224.893121547321
 21
556.9356650335127
 31
0.0
  0
LINE
  5
BC49
330
18
100
AcDbEntity
  8
DRAW2
100
AcDbLine
 10
1185.893121547321
 20
496.9356650335125
 30
0.0
 11
1224.893121547321
 21
496.9356650335125
 31
0.0
  0
LINE
  5
BC4A
330
18
100
AcDbEntity
  8
DRAW2
100
AcDbLine
 10
1224.893121547321
 20
492.9356650335126
 30
0.0
 11
1185.893121547321
 21
492.9356650335126
 31
0.0
  0
LINE
  5
BC4B
330
18
100
AcDbEntity
  8
DRAW2
100
AcDbLine
 10
1224.893121547321
 20
496.9356650335126
 30
0.0
 11
1185.893121547321
 21
496.9356650335126
 31
0.0
  0
LINE
  5
BC4C
330
18
100
AcDbEntity
  8
DRAW2
100
AcDbLine
 10
1185.893121547321
 20
560.9356650335127
 30
0.0
 11
1185.893121547321
 21
492.9356650335126
 31
0.0
  0
LINE
  5
BC4D
330
18
100
AcDbEntity
  8
DRAW2
100
AcDbLine
 10
1185.893121547321
 20
496.9356650335126
 30
0.0
 11
1185.893121547321
 21
556.9356650335127
 31
0.0
  0
LINE
  5
BC4E
330
18
100
AcDbEntity
  8
DRAW2
100
AcDbLine
 10
1224.893121547321
 20
560.9356650335127
 30
0.0
 11
1224.893121547321
 21
492.9356650335126
 31
0.0
  0
LINE
  5
BC4F
330
18
100
AcDbEntity
  8
DRAW2
100
AcDbLine
 10
1224.893121547321
 20
556.9356650335127
 30
0.0
 11
1224.893121547321
 21
496.9356650335126
 31
0.0
  0
CIRCLE
  5
BC50
330
18
100
AcDbEntity
  8
DRAW2
100
AcDbCircle
 10
1208.093121547321
 20
504.9356650335125
 30
0.0
 40
8.0
  0
CIRCLE
  5
BC51
330
18
100
AcDbEntity
  8
DRAW2
100
AcDbCircle
 10
1208.093121547321
 20
504.9356650335125
 30
0.0
 40
6.0
  0
LINE
  5
BC52
330
18
100
AcDbEntity
  8
DRAW2
100
AcDbLine
 10
1235.343121547321
 20
485.4356650335123
 30
0.0
 11
1235.343121547321
 21
506.4356650335123
 31
0.0
  0
LINE
  5
BC53
330
18
100
AcDbEntity
  8
DRAW2
100
AcDbLine
 10
1235.343121547321
 20
495.5191091069464
 30
0.0
 11
1225.343121547321
 21
495.5191091069464
 31
0.0
  0
CIRCLE
  5
BC54
330
18
100
AcDbEntity
  8
DRAW2
100
AcDbCircle
 10
1208.193121547321
 20
548.9356650335126
 30
0.0
 40
6.0
  0
CIRCLE
  5
BC55
330
18
100
AcDbEntity
  8
DRAW2
100
AcDbCircle
 10
1208.193121547321
 20
548.9356650335126
 30
0.0
 40
8.0
  0
LINE
  5
BC56
330
18
100
AcDbEntity
  8
DRAW2
100
AcDbLine
 10
1235.343121547321
 20
558.3522560411925
 30
0.0
 11
1225.343121547321
 21
558.3522560411925
 31
0.0
  0
LINE
  5
BC57
330
18
100
AcDbEntity
  8
DRAW2
100
AcDbLine
 10
1255.343121547321
 20
475.4356650335124
 30
0.0
 11
1257.343121547321
 21
473.4356650335125
 31
0.0
  0
LINE
  5
BC58
330
18
100
AcDbEntity
  8
DRAW2
100
AcDbLine
 10
1255.343121547321
 20
475.4356650335124
 30
0.0
 11
1255.343121547321
 21
454.4356650335124
 31
0.0
  0
LINE
  5
BC59
330
18
100
AcDbEntity
  8
DRAW2
100
AcDbLine
 10
1257.343121547321
 20
473.4356650335125
 30
0.0
 11
1257.343121547321
 21
456.4356650335125
 31
0.0
  0
LINE
  5
BC5A
330
18
100
AcDbEntity
  8
DRAW2
100
AcDbLine
 10
1257.343121547321
 20
456.4356650335125
 30
0.0
 11
1255.343121547321
 21
454.4356650335124
 31
0.0
  0
LINE
  5
BC5B
330
18
100
AcDbEntity
  8
DRAW2
100
AcDbLine
 10
1276.893121547321
 20
481.9356650335126
 30
0.0
 11
1291.893121547321
 21
481.9356650335126
 31
0.0
  0
LINE
  5
BC5C
330
18
100
AcDbEntity
  8
DRAW2
100
AcDbLine
 10
1255.343121547321
 20
506.4356650335123
 30
0.0
 11
1255.343121547321
 21
485.4356650335123
 31
0.0
  0
LINE
  5
BC5D
330
18
100
AcDbEntity
  8
DRAW2
100
AcDbLine
 10
1257.343121547321
 20
504.4356650335124
 30
0.0
 11
1257.343121547321
 21
487.4356650335123
 31
0.0
  0
LINE
  5
BC5E
330
18
100
AcDbEntity
  8
DRAW2
100
AcDbLine
 10
1257.343121547321
 20
487.4356650335123
 30
0.0
 11
1255.343121547321
 21
485.4356650335123
 31
0.0
  0
LINE
  5
BC5F
330
18
100
AcDbEntity
  8
DRAW2
100
AcDbLine
 10
1276.893121547321
 20
482.9356650335126
 30
0.0
 11
1272.893121547321
 21
482.9356650335126
 31
0.0
  0
LINE
  5
BC60
330
18
100
AcDbEntity
  8
DRAW2
100
AcDbLine
 10
1255.343121547321
 20
506.4356650335123
 30
0.0
 11
1257.343121547321
 21
504.4356650335124
 31
0.0
  0
LINE
  5
BC61
330
18
100
AcDbEntity
  8
DRAW2
100
AcDbLine
 10
1257.343121547321
 20
566.4356650335122
 30
0.0
 11
1257.343121547321
 21
549.4356650335123
 31
0.0
  0
LINE
  5
BC62
330
18
100
AcDbEntity
  8
DRAW2
100
AcDbLine
 10
1257.343121547321
 20
549.4356650335123
 30
0.0
 11
1255.343121547321
 21
547.4356650335123
 31
0.0
  0
LINE
  5
BC64
330
18
100
AcDbEntity
  8
DRAW2
100
AcDbLine
 10
1235.343121547321
 20
599.4356650335125
 30
0.0
 11
1255.343121547321
 21
599.4356650335125
 31
0.0
  0
LINE
  5
BC65
330
18
100
AcDbEntity
  8
DRAW2
100
AcDbLine
 10
1255.343121547321
 20
578.4356650335126
 30
0.0
 11
1235.343121547321
 21
578.4356650335126
 31
0.0
  0
LINE
  5
BC66
330
18
100
AcDbEntity
  8
DRAW2
100
AcDbLine
 10
1235.343121547321
 20
568.4356650335122
 30
0.0
 11
1255.343121547321
 21
568.4356650335122
 31
0.0
  0
LINE
  5
BC67
330
18
100
AcDbEntity
  8
DRAW2
100
AcDbLine
 10
1225.343121547321
 20
600.9356650335124
 30
0.0
 11
1186.343121547321
 21
600.9356650335124
 31
0.0
  0
LINE
  5
BC68
330
18
100
AcDbEntity
  8
DRAW2
100
AcDbLine
 10
1235.343121547321
 20
578.4356650335126
 30
0.0
 11
1235.343121547321
 21
599.4356650335125
 31
0.0
  0
LINE
  5
BC69
330
18
100
AcDbEntity
  8
DRAW2
100
AcDbLine
 10
1235.343121547321
 20
600.9356650335124
 30
0.0
 11
1225.343121547321
 21
600.9356650335124
 31
0.0
  0
LINE
  5
BC6A
330
18
100
AcDbEntity
  8
DRAW2
100
AcDbLine
 10
1291.893121547321
 20
571.9356650335124
 30
0.0
 11
1276.893121547321
 21
571.9356650335124
 31
0.0
  0
LINE
  5
BC6B
330
18
100
AcDbEntity
  8
DRAW2
100
AcDbLine
 10
1255.343121547321
 20
599.4356650335125
 30
0.0
 11
1255.343121547321
 21
578.4356650335126
 31
0.0
  0
LINE
  5
BC6C
330
18
100
AcDbEntity
  8
DRAW2
100
AcDbLine
 10
1257.343121547321
 20
597.4356650335124
 30
0.0
 11
1257.343121547321
 21
580.4356650335124
 31
0.0
  0
LINE
  5
BC6D
330
18
100
AcDbEntity
  8
DRAW2
100
AcDbLine
 10
1257.343121547321
 20
580.4356650335124
 30
0.0
 11
1255.343121547321
 21
578.4356650335126
 31
0.0
  0
LINE
  5
BC6E
330
18
100
AcDbEntity
  8
DRAW2
100
AcDbLine
 10
1276.893121547321
 20
570.9356650335124
 30
0.0
 11
1272.893121547321
 21
570.9356650335124
 31
0.0
  0
LINE
  5
BC6F
330
18
100
AcDbEntity
  8
DRAW2
100
AcDbLine
 10
1255.343121547321
 20
599.4356650335125
 30
0.0
 11
1257.343121547321
 21
597.4356650335124
 31
0.0
  0
CIRCLE
  5
BC72
330
18
100
AcDbEntity
  8
DRAW2
100
AcDbCircle
 10
1681.993121647311
 20
116.902564543917
 30
0.0
 40
44.99999999999931
  0
CIRCLE
  5
BC73
330
18
100
AcDbEntity
  8
DRAW2
100
AcDbCircle
 10
1681.993121647311
 20
284.9026245439171
 30
0.0
 40
44.99999999999931
  0
ARC
  5
BC74
330
18
100
AcDbEntity
  8
DRAW2
100
AcDbCircle
 10
1650.99306274933
 20
147.2091042764807
 30
0.0
 40
10.50000000004285
100
AcDbArc
 50
47.86771746367125
 51
223.4285223289896
  0
ARC
  5
BC75
330
18
100
AcDbEntity
  8
DRAW2
100
AcDbCircle
 10
1650.99306274933
 20
147.2091042764807
 30
0.0
 40
8.499970000000075
100
AcDbArc
 50
51.35295349510313
 51
219.9432862975568
  0
ARC
  5
BC78
330
18
100
AcDbEntity
  8
DRAW2
100
AcDbCircle
 10
1650.993172545325
 20
254.5962682021014
 30
0.0
 40
10.50000000004285
100
AcDbArc
 50
136.5725452148597
 51
312.1310712508903
  0
ARC
  5
BC79
330
18
100
AcDbEntity
  8
DRAW2
100
AcDbCircle
 10
1650.993172545325
 20
254.5962682021014
 30
0.0
 40
8.499970000000075
100
AcDbArc
 50
140.0580694509364
 51
308.6455470148073
  0
LINE
  5
BC80
330
18
100
AcDbEntity
  8
DRAW2
100
AcDbLine
 10
1647.12089164731
 20
66.75425454391711
 30
0.0
 11
1649.909998965711
 21
85.34827420175714
 31
0.0
  0
LINE
  5
BC81
330
18
100
AcDbEntity
  8
DRAW2
100
AcDbLine
 10
1611.993091647311
 20
85.90256454391717
 30
0.0
 11
1649.374108786712
 21
85.90256454391717
 31
0.0
  0
CIRCLE
  5
BC83
330
18
100
AcDbEntity
  8
DRAW2
100
AcDbCircle
 10
1619.993113647344
 20
200.9027179346649
 30
0.0
 40
10.50000000004285
  0
ARC
  5
BC85
330
18
100
AcDbEntity
  8
DRAW2
100
AcDbCircle
 10
1681.993121647311
 20
200.9026545439171
 30
0.0
 40
74.0
100
AcDbArc
 50
122.3111795747372
 51
237.6888648298329
  0
LINE
  5
BC86
330
18
100
AcDbEntity
  8
DRAW2
100
AcDbLine
 10
1611.993091647311
 20
100.9025645439171
 30
0.0
 11
1611.993091647311
 21
85.90256454391717
 31
0.0
  0
LINE
  5
BC88
330
18
100
AcDbEntity
  8
DRAW2
100
AcDbLine
 10
1616.865371647311
 20
66.75425454391711
 30
0.0
 11
1613.99312164731
 21
85.90259454391706
 31
0.0
  0
LINE
  5
BC89
330
18
100
AcDbEntity
  8
DRAW2
100
AcDbLine
 10
1646.13194164731
 20
65.90256454391715
 30
0.0
 11
1617.85432164731
 21
65.90256454391715
 31
0.0
  0
ARC
  5
BC8A
330
18
100
AcDbEntity
  8
DRAW2
100
AcDbCircle
 10
1617.85432164731
 20
66.90259454391728
 30
0.0
 40
1.0
100
AcDbArc
 50
188.5310499999985
 51
270.0000200000018
  0
ARC
  5
BC8B
330
18
100
AcDbEntity
  8
DRAW2
100
AcDbCircle
 10
1646.13194164731
 20
66.90259454391728
 30
0.0
 40
1.0
100
AcDbArc
 50
270.0000200000018
 51
351.4689300000048
  0
LINE
  5
BC8E
330
18
100
AcDbEntity
  8
DRAW2
100
AcDbLine
 10
1611.993091647311
 20
100.9025645439171
 30
0.0
 11
1639.933639957686
 21
100.9025645439171
 31
0.0
  0
LINE
  5
BC8F
330
18
100
AcDbEntity
  8
DRAW2
100
AcDbLine
 10
1621.493121647311
 20
100.9025645439171
 30
0.0
 11
1621.493121647311
 21
120.9025645439171
 31
0.0
  0
LINE
  5
BC90
330
18
100
AcDbEntity
  8
DRAW2
100
AcDbLine
 10
1623.493151647311
 20
122.9025645439171
 30
0.0
 11
1637.394915405357
 21
122.9025645439171
 31
0.0
  0
LINE
  5
BC91
330
18
100
AcDbEntity
  8
DRAW2
100
AcDbLine
 10
1621.493121647311
 20
120.9025345439171
 30
0.0
 11
1637.171249308027
 21
120.9025345439171
 31
0.0
  0
LINE
  5
BC92
330
18
100
AcDbEntity
  8
DRAW2
100
AcDbLine
 10
1621.493091647312
 20
120.9025045439172
 30
0.0
 11
1623.493091647311
 21
122.9025045439172
 31
0.0
  0
LINE
  5
BC93
330
18
100
AcDbEntity
  8
DRAW2
100
AcDbLine
 10
1595.003121647311
 20
190.402654543917
 30
0.0
 11
1608.741841795011
 21
190.402654543917
 31
0.0
  0
LINE
  5
BC94
330
18
100
AcDbEntity
  8
DRAW2
100
AcDbLine
 10
1595.003121647311
 20
169.4026245439171
 30
0.0
 11
1615.032326326474
 21
169.4026245439171
 31
0.0
  0
LINE
  5
BC96
330
18
100
AcDbEntity
  8
DRAW2
100
AcDbLine
 10
1595.003121647311
 20
169.4026245439171
 30
0.0
 11
1595.003121647311
 21
177.9026245439172
 31
0.0
  0
LINE
  5
BC97
330
18
100
AcDbEntity
  8
DRAW2
100
AcDbLine
 10
1595.003121647311
 20
177.9026245439172
 30
0.0
 11
1597.503121647311
 21
177.9026245439172
 31
0.0
  0
LINE
  5
BC98
330
18
100
AcDbEntity
  8
DRAW2
100
AcDbLine
 10
1595.003121647311
 20
181.9026545439171
 30
0.0
 11
1597.503121647311
 21
181.9026545439171
 31
0.0
  0
LINE
  5
BC99
330
18
100
AcDbEntity
  8
DRAW2
100
AcDbLine
 10
1597.503121647311
 20
177.9026245439172
 30
0.0
 11
1597.503121647311
 21
181.9026545439171
 31
0.0
  0
LINE
  5
BC9A
330
18
100
AcDbEntity
  8
DRAW2
100
AcDbLine
 10
1595.003121647311
 20
181.9026545439171
 30
0.0
 11
1595.003121647311
 21
190.402654543917
 31
0.0
  0
LINE
  5
BCA1
330
18
100
AcDbEntity
  8
DRAW3
100
AcDbLine
 10
1620.170680268695
 20
154.7421945888642
 30
0.0
 11
1622.650002633194
 21
156.6939359510589
 31
0.0
  0
LINE
  5
BCA2
330
18
100
AcDbEntity
  8
DRAW2
100
AcDbLine
 10
1619.797220667467
 20
155.1872664103163
 30
0.0
 11
1622.304743833711
 21
157.1612076574479
 31
0.0
  0
LINE
  5
BCA5
330
18
100
AcDbEntity
  8
DRAW2
100
AcDbLine
 10
1626.171986438082
 20
147.5901164012393
 30
0.0
 11
1628.551365910524
 21
149.7167733558299
 31
0.0
  0
LINE
  5
BCA6
330
18
100
AcDbEntity
  8
DRAW3
100
AcDbLine
 10
1625.798526836853
 20
148.0351882226914
 30
0.0
 11
1628.151146672663
 21
150.1379277786458
 31
0.0
  0
LINE
  5
BCA8
330
18
100
AcDbEntity
  8
DRAW2
100
AcDbLine
 10
1626.171986438082
 20
147.5901164012393
 30
0.0
 11
1619.797220667467
 21
155.1872664103163
 31
0.0
  0
LINE
  5
BCB1
330
18
100
AcDbEntity
  8
DRAW2
100
AcDbLine
 10
1598.515149232749
 20
254.2947030334075
 30
0.0
 11
1573.76665265094
 21
268.5832541969538
 31
0.0
  0
LINE
  5
BCB2
330
18
100
AcDbEntity
  8
DRAW2
100
AcDbLine
 10
1597.01514923275
 20
251.6966268220544
 30
0.0
 11
1571.68669379495
 21
266.3200173872243
 31
0.0
  0
LINE
  5
BCB3
330
18
100
AcDbEntity
  8
DRAW2
100
AcDbLine
 10
1598.515149232749
 20
254.2947030334075
 30
0.0
 11
1573.76665265094
 21
268.5832541969537
 31
0.0
  0
LINE
  5
BCB4
330
18
100
AcDbEntity
  8
DRAW2
100
AcDbLine
 10
1597.015149232749
 20
251.6966268220544
 30
0.0
 11
1571.68669379495
 21
266.3200173872243
 31
0.0
  0
LINE
  5
BCB7
330
18
100
AcDbEntity
  8
DRAW2
100
AcDbLine
 10
1545.674309669959
 20
246.517662287444
 30
0.0
 11
1556.174279669959
 21
246.517662287444
 31
0.0
  0
LINE
  5
BCB8
330
18
100
AcDbEntity
  8
DRAW2
100
AcDbLine
 10
1545.674309669959
 20
260.517662287444
 30
0.0
 11
1556.174279669959
 21
260.517662287444
 31
0.0
  0
LINE
  5
BCB9
330
18
100
AcDbEntity
  8
DRAW2
100
AcDbLine
 10
1549.224329669959
 20
256.017762287444
 30
0.0
 11
1552.624289669958
 21
256.017762287444
 31
0.0
  0
ARC
  5
BCBB
330
18
100
AcDbEntity
  8
DRAW2
100
AcDbCircle
 10
1554.424309669959
 20
273.9770584318849
 30
0.0
 40
5.0
100
AcDbArc
 50
60.00000000000002
 51
180.0
  0
LINE
  5
BCBC
330
18
100
AcDbEntity
  8
DRAW2
100
AcDbLine
 10
1549.424309669959
 20
273.9774122874439
 30
0.0
 11
1549.424309669959
 21
260.517662287444
 31
0.0
  0
LINE
  5
BCBD
330
18
100
AcDbEntity
  8
DRAW2
100
AcDbLine
 10
1549.224329669959
 20
256.017762287444
 30
0.0
 11
1549.224329669959
 21
246.517662287444
 31
0.0
  0
LINE
  5
BCBE
330
18
100
AcDbEntity
  8
DRAW2
100
AcDbLine
 10
1545.674309669959
 20
260.517662287444
 30
0.0
 11
1545.674309669959
 21
246.517662287444
 31
0.0
  0
LINE
  5
BCBF
330
18
100
AcDbEntity
  8
DRAW2
100
AcDbLine
 10
1552.424309669959
 20
273.977232287444
 30
0.0
 11
1552.424309669959
 21
260.517662287444
 31
0.0
  0
LINE
  5
BCC0
330
18
100
AcDbEntity
  8
DRAW2
100
AcDbLine
 10
1556.174279669959
 20
260.517662287444
 30
0.0
 11
1556.174279669959
 21
246.517662287444
 31
0.0
  0
LINE
  5
BCC1
330
18
100
AcDbEntity
  8
DRAW2
100
AcDbLine
 10
1552.624289669958
 20
256.017762287444
 30
0.0
 11
1552.624289669958
 21
246.517662287444
 31
0.0
  0
LINE
  5
BCC2
330
18
100
AcDbEntity
  8
DRAW2
100
AcDbLine
 10
1569.829432511796
 20
267.3923076890091
 30
0.0
 11
1555.424309669958
 21
275.7091092394538
 31
0.0
  0
LINE
  5
BCC3
330
18
100
AcDbEntity
  8
DRAW2
100
AcDbLine
 10
1571.991571631464
 20
269.6080977013816
 30
0.0
 11
1556.924309669958
 21
278.3071854508071
 31
0.0
  0
ARC
  5
BCC4
330
18
100
AcDbEntity
  8
DRAW2
100
AcDbCircle
 10
1554.424309669959
 20
273.9770584318849
 30
0.0
 40
2.0
100
AcDbArc
 50
60.00000000000002
 51
180.0
  0
LWPOLYLINE
  5
BCC5
330
18
100
AcDbEntity
  8
DRAW3
100
AcDbPolyline
 90
        3
 70
     0
 43
0.0
 10
1568.976559669959
 20
266.5278322874442
 42
-0.0012754717
 10
1570.947749669959
 20
268.5471122874441
 42
-0.0012732654
 10
1572.918939669959
 20
270.5664022874441
  0
LWPOLYLINE
  5
BCC6
330
18
100
AcDbEntity
  8
DRAW3
100
AcDbPolyline
 90
        3
 70
     0
 43
0.0
 10
1570.995819669959
 20
265.5662822874439
 42
-0.0010895439
 10
1572.630479669959
 20
267.345182287444
 42
-0.001087627
 10
1574.265139669958
 20
269.124082287444
  0
LWPOLYLINE
  5
BCC7
330
18
100
AcDbEntity
  8
DRAW3
100
AcDbPolyline
 90
        3
 70
     0
 43
0.0
 10
1568.976559669959
 20
266.5278322874442
 42
-0.0012754717
 10
1570.947749669959
 20
268.547112287444
 42
-0.0012732654
 10
1572.918939669959
 20
270.566402287444
  0
LINE
  5
BCC8
330
18
100
AcDbEntity
  8
DRAW2
100
AcDbLine
 10
1605.523496802452
 20
239.2787765628623
 30
0.0
 11
1609.719649225158
 21
236.856126832052
 31
0.0
  0
LINE
  5
BCC9
330
18
100
AcDbEntity
  8
DRAW2
100
AcDbLine
 10
1620.415935303609
 20
247.6479372338411
 30
0.0
 11
1613.721810303609
 21
236.0533726216242
 31
0.0
  0
LINE
  5
BCCA
330
18
100
AcDbEntity
  8
DRAW2
100
AcDbLine
 10
1605.523496802452
 20
240.4334771012414
 30
0.0
 11
1610.719649225158
 21
237.4334771012416
 31
0.0
  0
LINE
  5
BCCB
330
18
100
AcDbEntity
  8
DRAW2
100
AcDbLine
 10
1617.719649225159
 20
249.5578327542239
 30
0.0
 11
1610.719649225158
 21
237.4334771012416
 31
0.0
  0
LINE
  5
BCCC
330
18
100
AcDbEntity
  8
DRAW2
100
AcDbLine
 10
1610.821180475158
 20
237.6093343847975
 30
0.0
 11
1616.179865171099
 21
234.7348178208411
 31
0.0
  0
LINE
  5
BCCE
330
18
100
AcDbEntity
  8
DRAW3
100
AcDbLine
 10
1614.149810303609
 20
236.7946903672636
 30
0.0
 11
1616.575449989088
 21
235.4935237844677
 31
0.0
  0
CIRCLE
  5
BCCF
330
18
100
AcDbEntity
  8
DRAW2
100
AcDbCircle
 10
1619.993113647344
 20
200.9027179346649
 30
0.0
 40
8.499970000000075
  0
LINE
  5
BCD1
330
18
100
AcDbEntity
  8
DRAW2
100
AcDbLine
 10
1607.764199323139
 20
216.33448811172
 30
0.0
 11
1609.422463821243
 21
215.3770886573525
 31
0.0
  0
LINE
  5
BCD2
330
18
100
AcDbEntity
  8
DRAW2
100
AcDbLine
 10
1608.159585243974
 20
228.5193047164102
 30
0.0
 11
1611.233975427408
 21
226.7443047164103
 31
0.0
  0
LINE
  5
BCD3
330
18
100
AcDbEntity
  8
DRAW2
100
AcDbLine
 10
1611.659585243974
 20
234.5814825429012
 30
0.0
 11
1614.733975427409
 21
232.8064825429013
 31
0.0
  0
LINE
  5
BCD4
330
18
100
AcDbEntity
  8
DRAW2
100
AcDbLine
 10
1608.068078893028
 20
228.8608110673564
 30
0.0
 11
1608.159585243974
 21
228.5193047164102
 31
0.0
  0
LINE
  5
BCD5
330
18
100
AcDbEntity
  8
DRAW2
100
AcDbLine
 10
1614.807180508166
 20
232.5332774621445
 30
0.0
 11
1611.507180508166
 21
226.8175097971674
 31
0.0
  0
LINE
  5
BCD6
330
18
100
AcDbEntity
  8
DRAW3
100
AcDbLine
 10
1612.339842946663
 20
236.7946903672637
 30
0.0
 11
1614.149810303609
 21
236.7946903672637
 31
0.0
  0
LINE
  5
BCD7
330
18
100
AcDbEntity
  8
DRAW2
100
AcDbLine
 10
1607.764199323139
 20
216.33448811172
 30
0.0
 11
1607.398173919355
 21
217.7005135155045
 31
0.0
  0
LINE
  5
BCD8
330
18
100
AcDbEntity
  8
DRAW2
100
AcDbLine
 10
1612.711194879165
 20
226.9029357595746
 30
0.0
 11
1607.398173919355
 21
217.7005135155045
 31
0.0
  0
LINE
  5
BCD9
330
18
100
AcDbEntity
  8
DRAW2
100
AcDbLine
 10
1610.719649225158
 20
237.4334771012416
 30
0.0
 11
1609.719649225158
 21
236.856126832052
 31
0.0
  0
LINE
  5
BCDA
330
18
100
AcDbEntity
  8
DRAW2
100
AcDbLine
 10
1611.318078893027
 20
234.4899761919553
 30
0.0
 11
1608.068078893028
 21
228.8608110673564
 31
0.0
  0
LINE
  5
BCDB
330
18
100
AcDbEntity
  8
DRAW2
100
AcDbLine
 10
1608.159585243974
 20
228.5193047164102
 30
0.0
 11
1611.659585243974
 21
234.5814825429012
 31
0.0
  0
LINE
  5
BCDC
330
18
100
AcDbEntity
  8
DRAW2
100
AcDbLine
 10
1608.068078893028
 20
228.8608110673564
 30
0.0
 11
1608.159585243974
 21
228.5193047164102
 31
0.0
  0
LINE
  5
BCDD
330
18
100
AcDbEntity
  8
DRAW3
100
AcDbLine
 10
1612.339842946663
 20
236.7946903672636
 30
0.0
 11
1614.149810303609
 21
236.7946903672636
 31
0.0
  0
ARC
  5
BCDF
330
18
100
AcDbEntity
  8
DRAW2
100
AcDbCircle
 10
1614.633975427409
 20
232.6332774621445
 30
0.0
 40
0.2
100
AcDbArc
 50
330.0000000000018
 51
60.00000000000002
  0
LINE
  5
BCE0
330
18
100
AcDbEntity
  8
DRAW2
100
AcDbLine
 10
1611.318078893027
 20
234.4899761919553
 30
0.0
 11
1611.659585243974
 21
234.5814825429012
 31
0.0
  0
ARC
  5
BCE1
330
18
100
AcDbEntity
  8
DRAW2
100
AcDbCircle
 10
1611.333975427409
 20
226.9175097971673
 30
0.0
 40
0.2
100
AcDbArc
 50
239.9999999999999
 51
330.0000000000018
  0
LINE
  5
BCE2
330
18
100
AcDbEntity
  8
DRAW2
100
AcDbLine
 10
1610.907180508166
 20
225.7782793126259
 30
0.0
 11
1611.77320591195
 21
225.2782793126259
 31
0.0
  0
LINE
  5
BCE3
330
18
100
AcDbEntity
  8
DRAW2
100
AcDbLine
 10
1610.907180508166
 20
225.7782793126259
 30
0.0
 11
1615.407180508166
 21
233.5725079466858
 31
0.0
  0
LINE
  5
BCE4
330
18
100
AcDbEntity
  8
DRAW2
100
AcDbLine
 10
1614.807180508166
 20
232.5332774621443
 30
0.0
 11
1611.507180508166
 21
226.8175097971672
 31
0.0
  0
LINE
  5
BCE5
330
18
100
AcDbEntity
  8
DRAW2
100
AcDbLine
 10
1615.407180508166
 20
233.5725079466858
 30
0.0
 11
1615.553676187869
 21
233.4879286265738
 31
0.0
  0
LINE
  5
BCE6
330
18
100
AcDbEntity
  8
DRAW2
100
AcDbLine
 10
1612.711182120596
 20
226.90290176229
 30
0.0
 11
1611.77320591195
 21
225.278279312626
 31
0.0
  0
LINE
  5
BCE7
330
18
100
AcDbEntity
  8
DRAW2
100
AcDbLine
 10
1613.523496802452
 20
253.1351830234133
 30
0.0
 11
1617.719649225159
 21
250.7125332926031
 31
0.0
  0
LINE
  5
BCE8
330
18
100
AcDbEntity
  8
DRAW2
100
AcDbLine
 10
1612.523496802452
 20
252.5578327542238
 30
0.0
 11
1617.719649225159
 21
249.5578327542239
 31
0.0
  0
LINE
  5
BCE9
330
18
100
AcDbEntity
  8
DRAW2
100
AcDbLine
 10
1600.015149232748
 20
256.8927792447609
 30
0.0
 11
1595.515149232749
 21
249.0985506107008
 31
0.0
  0
LINE
  5
BCEA
330
18
100
AcDbEntity
  8
DRAW2
100
AcDbLine
 10
1595.698161934642
 20
248.4155379088086
 30
0.0
 11
1600.698161934642
 21
257.0757919466529
 31
0.0
  0
LINE
  5
BCEB
330
18
100
AcDbEntity
  8
DRAW2
100
AcDbLine
 10
1595.698161934642
 20
248.4155379088086
 30
0.0
 11
1603.492390568701
 21
243.9155379088086
 31
0.0
  0
LINE
  5
BCEC
330
18
100
AcDbEntity
  8
DRAW2
100
AcDbLine
 10
1595.515149232749
 20
249.0985506107008
 30
0.0
 11
1595.698161934642
 21
248.4155379088086
 31
0.0
  0
LINE
  5
BCED
330
18
100
AcDbEntity
  8
DRAW2
100
AcDbLine
 10
1608.523496802452
 20
245.6296295239484
 30
0.0
 11
1613.719649225157
 21
242.6296295239483
 31
0.0
  0
LINE
  5
BCEE
330
18
100
AcDbEntity
  8
DRAW2
100
AcDbLine
 10
1609.523496802452
 20
247.3616803315171
 30
0.0
 11
1614.719649225158
 21
244.3616803315172
 31
0.0
  0
LINE
  5
BCEF
330
18
100
AcDbEntity
  8
DRAW2
100
AcDbLine
 10
1610.523496802452
 20
249.093731139086
 30
0.0
 11
1607.925403270594
 21
250.5937411390841
 31
0.0
  0
LINE
  5
BCF0
330
18
100
AcDbEntity
  8
DRAW2
100
AcDbLine
 10
1612.523496802452
 20
252.5578327542238
 30
0.0
 11
1605.523496802452
 21
240.4334771012416
 31
0.0
  0
LINE
  5
BCF1
330
18
100
AcDbEntity
  8
DRAW2
100
AcDbLine
 10
1608.492390568702
 20
252.575791946653
 30
0.0
 11
1608.675403270594
 21
251.8927792447608
 31
0.0
  0
LINE
  5
BCF2
330
18
100
AcDbEntity
  8
DRAW2
100
AcDbLine
 10
1608.492390568702
 20
252.575791946653
 30
0.0
 11
1603.492390568701
 21
243.9155379088086
 31
0.0
  0
LINE
  5
BCF3
330
18
100
AcDbEntity
  8
DRAW2
100
AcDbLine
 10
1603.492390568701
 20
243.9155379088086
 30
0.0
 11
1604.175403270593
 21
244.0985506107009
 31
0.0
  0
LINE
  5
BCF4
330
18
100
AcDbEntity
  8
DRAW2
100
AcDbLine
 10
1607.523496802452
 20
243.8975787163794
 30
0.0
 11
1604.925403270593
 21
245.3975887163775
 31
0.0
  0
LINE
  5
BCF5
330
18
100
AcDbEntity
  8
DRAW2
100
AcDbLine
 10
1608.675403270594
 20
251.8927792447608
 30
0.0
 11
1604.175403270593
 21
244.0985506107009
 31
0.0
  0
LINE
  5
BCF6
330
18
100
AcDbEntity
  8
DRAW2
100
AcDbLine
 10
1600.698161934642
 20
257.0757919466529
 30
0.0
 11
1608.492390568702
 21
252.575791946653
 31
0.0
  0
LINE
  5
BCF7
330
18
100
AcDbEntity
  8
DRAW2
100
AcDbLine
 10
1600.015149232748
 20
256.8927792447609
 30
0.0
 11
1600.698161934642
 21
257.0757919466529
 31
0.0
  0
LINE
  5
BCF8
330
18
100
AcDbEntity
  8
DRAW2
100
AcDbLine
 10
1612.523496802452
 20
252.5578327542238
 30
0.0
 11
1613.523496802452
 21
253.1351830234133
 31
0.0
  0
LINE
  5
BCF9
330
18
100
AcDbEntity
  8
DRAW2
100
AcDbLine
 10
1605.523496802452
 20
240.4334771012414
 30
0.0
 11
1605.523496802452
 21
239.2787765628623
 31
0.0
  0
LINE
  5
BCFA
330
18
100
AcDbEntity
  8
DRAW2
100
AcDbLine
 10
1631.51419932314
 20
257.470694791481
 30
0.0
 11
1633.172463821242
 21
256.5132953371135
 31
0.0
  0
LINE
  5
BCFB
330
18
100
AcDbEntity
  8
DRAW2
100
AcDbLine
 10
1630.523214432409
 20
257.75424671241
 30
0.0
 11
1629.523214432409
 21
256.022195904841
 31
0.0
  0
LINE
  5
BCFC
330
18
100
AcDbEntity
  8
DRAW2
100
AcDbLine
 10
1629.657189028624
 20
258.2542467124099
 30
0.0
 11
1630.523214432409
 21
257.75424671241
 31
0.0
  0
LINE
  5
BCFD
330
18
100
AcDbEntity
  8
DRAW2
100
AcDbLine
 10
1627.023214432409
 20
251.6920688859189
 30
0.0
 11
1626.02321443241
 21
249.9600180783501
 31
0.0
  0
LINE
  5
BCFE
330
18
100
AcDbEntity
  8
DRAW2
100
AcDbLine
 10
1625.157189028624
 20
250.4600180783501
 30
0.0
 11
1629.657189028624
 21
258.2542467124099
 31
0.0
  0
LINE
  5
BD00
330
18
100
AcDbEntity
  8
DRAW3
100
AcDbLine
 10
1619.082951625136
 20
248.4740971993377
 30
0.0
 11
1619.987935303608
 21
246.9066194882018
 31
0.0
  0
LINE
  5
BD01
330
18
100
AcDbEntity
  8
DRAW2
100
AcDbLine
 10
1630.148173919354
 20
257.1046693876966
 30
0.0
 11
1629.523209280081
 21
256.0221988795396
 31
0.0
  0
LINE
  5
BD02
330
18
100
AcDbEntity
  8
DRAW2
100
AcDbLine
 10
1625.157189028624
 20
250.46001807835
 30
0.0
 11
1629.657189028624
 21
258.2542467124099
 31
0.0
  0
LINE
  5
BD03
330
18
100
AcDbEntity
  8
DRAW2
100
AcDbLine
 10
1629.057189028624
 20
257.2150162278684
 30
0.0
 11
1625.757189028625
 21
251.4992485628913
 31
0.0
  0
LINE
  5
BD04
330
18
100
AcDbEntity
  8
DRAW2
100
AcDbLine
 10
1625.483983947868
 20
251.4260434821343
 30
0.0
 11
1622.409593764434
 21
253.2010434821343
 31
0.0
  0
LINE
  5
BD05
330
18
100
AcDbEntity
  8
DRAW2
100
AcDbLine
 10
1617.618117975158
 20
249.3819754706679
 30
0.0
 11
1623.242754208461
 21
245.8959243272976
 31
0.0
  0
LINE
  5
BD06
330
18
100
AcDbEntity
  8
DRAW3
100
AcDbLine
 10
1619.987935303608
 20
246.9066194882018
 30
0.0
 11
1622.724261499921
 21
245.2106923793849
 31
0.0
  0
LINE
  5
BD07
330
18
100
AcDbEntity
  8
DRAW3
100
AcDbLine
 10
1619.082951625136
 20
248.4740971993375
 30
0.0
 11
1619.987935303608
 21
246.9066194882018
 31
0.0
  0
LINE
  5
BD08
330
18
100
AcDbEntity
  8
DRAW2
100
AcDbLine
 10
1617.719649225159
 20
249.5578327542239
 30
0.0
 11
1617.719649225159
 21
250.7125332926031
 31
0.0
  0
LINE
  5
BD09
330
18
100
AcDbEntity
  8
DRAW2
100
AcDbLine
 10
1627.023209280081
 20
251.6920718606171
 30
0.0
 11
1624.835254224938
 21
247.9024225404355
 31
0.0
  0
LINE
  5
BD0A
330
18
100
AcDbEntity
  8
DRAW2
100
AcDbLine
 10
1625.157189028624
 20
250.46001807835
 30
0.0
 11
1626.02321443241
 21
249.96001807835
 31
0.0
  0
ARC
  5
BD0B
330
18
100
AcDbEntity
  8
DRAW2
100
AcDbCircle
 10
1625.583983947868
 20
251.5992485628913
 30
0.0
 40
0.2
100
AcDbArc
 50
239.9999999999999
 51
330.0000000000018
  0
LINE
  5
BD0C
330
18
100
AcDbEntity
  8
DRAW2
100
AcDbLine
 10
1625.568087413486
 20
259.1717149576794
 30
0.0
 11
1622.318087413487
 21
253.5425498330804
 31
0.0
  0
LINE
  5
BD0D
330
18
100
AcDbEntity
  8
DRAW2
100
AcDbLine
 10
1622.318087413487
 20
253.5425498330804
 30
0.0
 11
1622.409593764434
 21
253.2010434821343
 31
0.0
  0
LINE
  5
BD0E
330
18
100
AcDbEntity
  8
DRAW2
100
AcDbLine
 10
1631.51419932314
 20
257.470694791481
 30
0.0
 11
1630.148173919354
 21
257.1046693876966
 31
0.0
  0
LINE
  5
BD0F
330
18
100
AcDbEntity
  8
DRAW2
100
AcDbLine
 10
1629.657189028624
 20
258.2542467124099
 30
0.0
 11
1630.523214432409
 21
257.7542467124099
 31
0.0
  0
LINE
  5
BD10
330
18
100
AcDbEntity
  8
DRAW2
100
AcDbLine
 10
1630.523214432409
 20
257.7542467124099
 30
0.0
 11
1626.02321443241
 21
249.96001807835
 31
0.0
  0
LINE
  5
BD11
330
18
100
AcDbEntity
  8
DRAW2
100
AcDbLine
 10
1622.409593764434
 20
253.2010434821343
 30
0.0
 11
1625.909593764434
 21
259.2632213086254
 31
0.0
  0
LINE
  5
BD12
330
18
100
AcDbEntity
  8
DRAW2
100
AcDbLine
 10
1625.568087413486
 20
259.1717149576794
 30
0.0
 11
1625.909593764434
 21
259.2632213086254
 31
0.0
  0
ARC
  5
BD13
330
18
100
AcDbEntity
  8
DRAW2
100
AcDbCircle
 10
1628.883983947868
 20
257.3150162278685
 30
0.0
 40
0.2
100
AcDbArc
 50
330.0000000000018
 51
60.00000000000002
  0
LINE
  5
BD14
330
18
100
AcDbEntity
  8
DRAW2
100
AcDbLine
 10
1625.909593764434
 20
259.2632213086254
 30
0.0
 11
1628.983983947868
 21
257.4882213086254
 31
0.0
  0
CIRCLE
  5
BD16
330
18
100
AcDbEntity
  8
DRAW2
100
AcDbCircle
 10
1743.993129647279
 20
200.9025911531693
 30
0.0
 40
10.50000000004285
  0
ARC
  5
BD19
330
18
100
AcDbEntity
  8
DRAW2
100
AcDbCircle
 10
1681.993121647311
 20
200.9026545439171
 30
0.0
 40
74.0
100
AcDbArc
 50
302.311135170167
 51
57.68882042526275
  0
CIRCLE
  5
BD1B
330
18
100
AcDbEntity
  8
DRAW2
100
AcDbCircle
 10
1704.974092035874
 20
93.92159415535472
 30
0.0
 40
7.5
  0
CIRCLE
  5
BD1F
330
18
100
AcDbEntity
  8
DRAW2
100
AcDbCircle
 10
1659.012151258749
 20
93.92159415535486
 30
0.0
 40
7.5
  0
LINE
  5
BD20
330
18
100
AcDbEntity
  8
DRAW2
100
AcDbLine
 10
1746.993101647311
 20
100.9025645439171
 30
0.0
 11
1746.993101647311
 21
85.90259454391706
 31
0.0
  0
LINE
  5
BD21
330
18
100
AcDbEntity
  8
DRAW2
100
AcDbLine
 10
1751.993101647311
 20
100.9025645439171
 30
0.0
 11
1751.993101647311
 21
85.90259454391706
 31
0.0
  0
LINE
  5
BD23
330
18
100
AcDbEntity
  8
DRAW2
100
AcDbLine
 10
1714.612134507911
 20
85.90256454391717
 30
0.0
 11
1751.993101647311
 21
85.90256454391717
 31
0.0
  0
LINE
  5
BD24
330
18
100
AcDbEntity
  8
DRAW2
100
AcDbLine
 10
1716.865391647312
 20
66.75425454391711
 30
0.0
 11
1714.07627524415
 21
85.34830563514899
 31
0.0
  0
LINE
  5
BD25
330
18
100
AcDbEntity
  8
DRAW2
100
AcDbLine
 10
1651.992931647311
 20
83.36171482355615
 30
0.0
 11
1651.992931647311
 21
68.9025845439171
 31
0.0
  0
LINE
  5
BD26
330
18
100
AcDbEntity
  8
DRAW2
100
AcDbLine
 10
1667.992961647311
 20
74.13580736062882
 30
0.0
 11
1667.992961647311
 21
68.9025845439171
 31
0.0
  0
LINE
  5
BD28
330
18
100
AcDbEntity
  8
DRAW2
100
AcDbLine
 10
1667.993091647312
 20
68.90244454391723
 30
0.0
 11
1651.993091647312
 21
68.90244454391723
 31
0.0
  0
LINE
  5
BD29
330
18
100
AcDbEntity
  8
DRAW2
100
AcDbLine
 10
1665.993121647312
 20
66.90247454391715
 30
0.0
 11
1653.993091647311
 21
66.90247454391715
 31
0.0
  0
LINE
  5
BD2A
330
18
100
AcDbEntity
  8
DRAW2
100
AcDbLine
 10
1653.993151647311
 20
66.90262454391723
 30
0.0
 11
1651.993151647311
 21
68.90259454391729
 31
0.0
  0
LINE
  5
BD2B
330
18
100
AcDbEntity
  8
DRAW2
100
AcDbLine
 10
1665.992981647311
 20
66.90264454391718
 30
0.0
 11
1667.992981647311
 21
68.90265454391715
 31
0.0
  0
LINE
  5
BD2D
330
18
100
AcDbEntity
  8
DRAW2
100
AcDbLine
 10
1695.993011647311
 20
74.1357189741555
 30
0.0
 11
1695.993011647311
 21
68.9025845439171
 31
0.0
  0
LINE
  5
BD2E
330
18
100
AcDbEntity
  8
DRAW2
100
AcDbLine
 10
1711.993061647311
 20
83.36149121588624
 30
0.0
 11
1711.993061647311
 21
68.9025845439171
 31
0.0
  0
LINE
  5
BD2F
330
18
100
AcDbEntity
  8
DRAW2
100
AcDbLine
 10
1711.993091647312
 20
68.90253454391721
 30
0.0
 11
1695.993091647312
 21
68.90253454391721
 31
0.0
  0
LINE
  5
BD30
330
18
100
AcDbEntity
  8
DRAW2
100
AcDbLine
 10
1709.99309164731
 20
66.90251454391727
 30
0.0
 11
1697.993121647311
 21
66.90251454391727
 31
0.0
  0
LINE
  5
BD31
330
18
100
AcDbEntity
  8
DRAW2
100
AcDbLine
 10
1697.993041647311
 20
66.90264454391718
 30
0.0
 11
1695.993061647311
 21
68.90261454391725
 31
0.0
  0
LINE
  5
BD32
330
18
100
AcDbEntity
  8
DRAW2
100
AcDbLine
 10
1709.993011647311
 20
66.90261454391725
 30
0.0
 11
1711.993011647311
 21
68.90261454391725
 31
0.0
  0
LINE
  5
BD33
330
18
100
AcDbEntity
  8
DRAW2
100
AcDbLine
 10
1747.120881647312
 20
66.75426454391732
 30
0.0
 11
1749.993131647311
 21
85.90262454391725
 31
0.0
  0
LINE
  5
BD34
330
18
100
AcDbEntity
  8
DRAW2
100
AcDbLine
 10
1746.131941647311
 20
65.90256454391715
 30
0.0
 11
1717.854311647311
 21
65.90256454391715
 31
0.0
  0
ARC
  5
BD35
330
18
100
AcDbEntity
  8
DRAW2
100
AcDbCircle
 10
1717.854311647311
 20
66.90259454391728
 30
0.0
 40
1.0
100
AcDbArc
 50
188.5310499999985
 51
270.0000200000018
  0
ARC
  5
BD36
330
18
100
AcDbEntity
  8
DRAW2
100
AcDbCircle
 10
1746.131941647311
 20
66.90259454391728
 30
0.0
 40
1.0
100
AcDbArc
 50
270.0000200000018
 51
351.4689300000048
  0
ARC
  5
BD37
330
18
100
AcDbEntity
  8
DRAW2
100
AcDbCircle
 10
1712.993070749297
 20
147.2090408857329
 30
0.0
 40
10.50000000004285
100
AcDbArc
 50
316.5721962234227
 51
132.1316470502009
  0
ARC
  5
BD38
330
18
100
AcDbEntity
  8
DRAW2
100
AcDbCircle
 10
1712.993070749297
 20
147.2090408857329
 30
0.0
 40
8.499970000000075
100
AcDbArc
 50
320.0576035004615
 51
128.6462397731634
  0
LINE
  5
BD3B
330
18
100
AcDbEntity
  8
HIDDEN
100
AcDbLine
 10
1681.993121647311
 20
157.902654543917
 30
0.0
 11
1717.200272119815
 21
157.902654543917
 31
0.0
  0
LINE
  5
BD3C
330
18
100
AcDbEntity
  8
HIDDEN
100
AcDbLine
 10
1681.993121647311
 20
165.9026545439171
 30
0.0
 11
1717.200241647311
 21
165.9026545439171
 31
0.0
  0
ARC
  5
BD3E
330
18
100
AcDbEntity
  8
DRAW2
100
AcDbCircle
 10
1650.99306274933
 20
147.2091042764807
 30
0.0
 40
10.50000000004285
100
AcDbArc
 50
276.5222340663958
 51
358.6533389255301
  0
ARC
  5
BD3F
330
18
100
AcDbEntity
  8
DRAW2
100
AcDbCircle
 10
1650.99306274933
 20
147.2091042764807
 30
0.0
 40
8.499970000000075
100
AcDbArc
 50
274.1031059839071
 51
1.072467008023952
  0
CIRCLE
  5
BD40
330
18
100
AcDbEntity
  8
DRAW2
100
AcDbCircle
 10
1659.012151258749
 20
139.8835349324794
 30
0.0
 40
7.5
  0
CIRCLE
  5
BD45
330
18
100
AcDbEntity
  8
DRAW2
100
AcDbCircle
 10
1704.974092035874
 20
139.8835349324794
 30
0.0
 40
7.5
  0
ARC
  5
BD46
330
18
100
AcDbEntity
  8
DRAW2
100
AcDbCircle
 10
1712.993070749297
 20
147.2090408857329
 30
0.0
 40
10.50000000004285
100
AcDbArc
 50
181.3465259782341
 51
263.4781885395215
  0
ARC
  5
BD47
330
18
100
AcDbEntity
  8
DRAW2
100
AcDbCircle
 10
1712.993070749297
 20
147.2090408857329
 30
0.0
 40
8.499970000000075
100
AcDbArc
 50
178.9271525798128
 51
265.8975619379376
  0
CIRCLE
  5
BD48
330
18
100
AcDbEntity
  8
DRAW2
100
AcDbCircle
 10
1681.993121647311
 20
116.902564543917
 30
0.0
 40
7.0
  0
CIRCLE
  5
BD49
330
18
100
AcDbEntity
  8
DRAW2
100
AcDbCircle
 10
1681.993121647311
 20
116.902564543917
 30
0.0
 40
8.0
  0
LINE
  5
BD4A
330
18
100
AcDbEntity
  8
DRAW2
100
AcDbLine
 10
1656.27060927767
 20
100.9025645439171
 30
0.0
 11
1661.753693239828
 21
100.9025645439171
 31
0.0
  0
LINE
  5
BD4B
330
18
100
AcDbEntity
  8
DRAW2
100
AcDbLine
 10
1656.270532887907
 20
132.902594543917
 30
0.0
 11
1661.753769629591
 21
132.902594543917
 31
0.0
  0
LINE
  5
BD4C
330
18
100
AcDbEntity
  8
DRAW2
100
AcDbLine
 10
1654.486929236349
 20
133.9025345439172
 30
0.0
 11
1663.537373281149
 21
133.9025345439172
 31
0.0
  0
LINE
  5
BD4D
330
18
100
AcDbEntity
  8
DRAW2
100
AcDbLine
 10
1702.232550054795
 20
100.9025645439171
 30
0.0
 11
1707.715634016952
 21
100.9025645439171
 31
0.0
  0
LINE
  5
BD4E
330
18
100
AcDbEntity
  8
DRAW2
100
AcDbLine
 10
1702.232473665031
 20
132.902594543917
 30
0.0
 11
1707.715710406716
 21
132.902594543917
 31
0.0
  0
LINE
  5
BD4F
330
18
100
AcDbEntity
  8
DRAW2
100
AcDbLine
 10
1700.448870013473
 20
133.9025345439172
 30
0.0
 11
1709.499314058274
 21
133.9025345439172
 31
0.0
  0
CIRCLE
  5
BD50
330
18
100
AcDbEntity
  8
HIDDEN
100
AcDbCircle
 10
1681.993121647311
 20
161.9026545439171
 30
0.0
 40
4.0
  0
LINE
  5
BD51
330
18
100
AcDbEntity
  8
DRAW2
100
AcDbLine
 10
1724.052603336937
 20
100.9025645439171
 30
0.0
 11
1751.993101647311
 21
100.9025645439171
 31
0.0
  0
LINE
  5
BD52
330
18
100
AcDbEntity
  8
DRAW2
100
AcDbLine
 10
1742.493131647311
 20
100.9025645439171
 30
0.0
 11
1742.493131647311
 21
120.9025645439171
 31
0.0
  0
LINE
  5
BD53
330
18
100
AcDbEntity
  8
DRAW2
100
AcDbLine
 10
1726.814993986595
 20
120.9025345439171
 30
0.0
 11
1742.493131647311
 21
120.9025345439171
 31
0.0
  0
LINE
  5
BD54
330
18
100
AcDbEntity
  8
DRAW2
100
AcDbLine
 10
1726.591327889266
 20
122.9025645439171
 30
0.0
 11
1740.493131647311
 21
122.9025645439171
 31
0.0
  0
LINE
  5
BD55
330
18
100
AcDbEntity
  8
DRAW2
100
AcDbLine
 10
1740.493041647311
 20
122.902594543917
 30
0.0
 11
1742.493041647311
 21
120.902594543917
 31
0.0
  0
LINE
  5
BD56
330
18
100
AcDbEntity
  8
HIDDEN
100
AcDbLine
 10
1750.491298380024
 20
172.9027073231327
 30
0.0
 11
1732.993121647311
 21
172.9027073231327
 31
0.0
  0
LINE
  5
BD57
330
18
100
AcDbEntity
  8
HIDDEN
100
AcDbLine
 10
1724.035030373895
 20
168.1683718177736
 30
0.0
 11
1722.993121647311
 21
167.0933948231324
 31
0.0
  0
LINE
  5
BD58
330
18
100
AcDbEntity
  8
HIDDEN
100
AcDbLine
 10
1717.200241647311
 20
165.9027073231326
 30
0.0
 11
1717.993121647311
 21
167.2759973231326
 31
0.0
  0
LINE
  5
BD59
330
18
100
AcDbEntity
  8
HIDDEN
100
AcDbLine
 10
1722.993121647311
 20
155.6734273231326
 30
0.0
 11
1722.993121647311
 21
168.1320173231326
 31
0.0
  0
LINE
  5
BD5A
330
18
100
AcDbEntity
  8
HIDDEN
100
AcDbLine
 10
1717.993121647311
 20
156.5294173231325
 30
0.0
 11
1717.993121647311
 21
167.2759973231326
 31
0.0
  0
LINE
  5
BD5B
330
18
100
AcDbEntity
  8
HIDDEN
100
AcDbLine
 10
1732.993121647311
 20
150.9027073231326
 30
0.0
 11
1732.993121647311
 21
172.9027073231327
 31
0.0
  0
LINE
  5
BD5C
330
18
100
AcDbEntity
  8
HIDDEN
100
AcDbLine
 10
1732.993121647311
 20
157.3027073231322
 30
0.0
 11
1729.493121647311
 21
157.3027073231322
 31
0.0
  0
LINE
  5
BD5D
330
18
100
AcDbEntity
  8
HIDDEN
100
AcDbLine
 10
1732.993121647312
 20
166.5027073231325
 30
0.0
 11
1729.493121647312
 21
166.5027073231325
 31
0.0
  0
LINE
  5
BD5E
330
18
100
AcDbEntity
  8
HIDDEN
100
AcDbLine
 10
1732.993121647311
 20
156.1802330661839
 30
0.0
 11
1722.993121647311
 21
156.5294473231325
 31
0.0
  0
LINE
  5
BD5F
330
18
100
AcDbEntity
  8
HIDDEN
100
AcDbLine
 10
1732.993121647311
 20
155.3242173231328
 30
0.0
 11
1722.993121647311
 21
155.6733973231328
 31
0.0
  0
LINE
  5
BD60
330
18
100
AcDbEntity
  8
HIDDEN
100
AcDbLine
 10
1724.035057333898
 20
155.6370150128285
 30
0.0
 11
1722.993121647311
 21
156.7120198231324
 31
0.0
  0
LINE
  5
BD61
330
18
100
AcDbEntity
  8
HIDDEN
100
AcDbLine
 10
1717.993121647311
 20
156.5294173231325
 30
0.0
 11
1722.993121647311
 21
156.5294173231326
 31
0.0
  0
LINE
  5
BD62
330
18
100
AcDbEntity
  8
HIDDEN
100
AcDbLine
 10
1722.993121647311
 20
155.6733973231328
 30
0.0
 11
1721.510481647311
 21
156.5294173231326
 31
0.0
  0
LINE
  5
BD63
330
18
100
AcDbEntity
  8
HIDDEN
100
AcDbLine
 10
1717.993121647311
 20
156.5294173231325
 30
0.0
 11
1717.200241647311
 21
157.9027073231324
 31
0.0
  0
ARC
  5
BD64
330
18
100
AcDbEntity
  8
HIDDEN
100
AcDbCircle
 10
1717.515896072259
 20
161.9027073231326
 30
0.0
 40
6.5
100
AcDbArc
 50
327.4210296071971
 51
32.57897039280271
  0
ARC
  5
BD65
330
18
100
AcDbEntity
  8
HIDDEN
100
AcDbCircle
 10
1744.294810740114
 20
161.9027073231323
 30
0.0
 40
15.5
100
AcDbArc
 50
162.7360436771851
 51
197.2639563228146
  0
LINE
  5
BD66
330
18
100
AcDbEntity
  8
HIDDEN
100
AcDbLine
 10
1717.200241647311
 20
157.9027073231324
 30
0.0
 11
1717.200241647311
 21
165.9027073231326
 31
0.0
  0
LINE
  5
BD67
330
18
100
AcDbEntity
  8
HIDDEN
100
AcDbLine
 10
1736.54587680971
 20
150.9027073231326
 30
0.0
 11
1732.993121647311
 21
150.9027073231326
 31
0.0
  0
LINE
  5
BD68
330
18
100
AcDbEntity
  8
HIDDEN
100
AcDbLine
 10
1722.993151647312
 20
167.2759973231326
 30
0.0
 11
1732.993121647311
 21
167.6252116820485
 31
0.0
  0
LINE
  5
BD69
330
18
100
AcDbEntity
  8
HIDDEN
100
AcDbLine
 10
1722.993121647311
 20
168.1319873231326
 30
0.0
 11
1732.993121647311
 21
168.4811973231328
 31
0.0
  0
LINE
  5
BD6A
330
18
100
AcDbEntity
  8
HIDDEN
100
AcDbLine
 10
1717.993121647311
 20
167.2759973231326
 30
0.0
 11
1722.993121647311
 21
167.2759973231326
 31
0.0
  0
LINE
  5
BD6B
330
18
100
AcDbEntity
  8
HIDDEN
100
AcDbLine
 10
1721.510481647311
 20
167.2759973231326
 30
0.0
 11
1722.993121647311
 21
168.1319873231326
 31
0.0
  0
CIRCLE
  5
BD6D
330
18
100
AcDbEntity
  8
DRAW2
100
AcDbCircle
 10
1681.993121647311
 20
284.9026245439171
 30
0.0
 40
8.0
  0
CIRCLE
  5
BD6E
330
18
100
AcDbEntity
  8
DRAW2
100
AcDbCircle
 10
1681.993121647311
 20
284.9026245439171
 30
0.0
 40
7.0
  0
ARC
  5
BD6F
330
18
100
AcDbEntity
  8
DRAW2
100
AcDbCircle
 10
1712.993180545293
 20
254.5962048113536
 30
0.0
 40
10.50000000004285
100
AcDbArc
 50
227.8682932608678
 51
43.42817333918623
  0
ARC
  5
BD70
330
18
100
AcDbEntity
  8
DRAW2
100
AcDbCircle
 10
1712.993180545293
 20
254.5962048113536
 30
0.0
 40
8.499970000000075
100
AcDbArc
 50
231.3536462502582
 51
39.9428203497986
  0
ARC
  5
BD74
330
18
100
AcDbEntity
  8
DRAW2
100
AcDbCircle
 10
1650.993172545325
 20
254.5962682021014
 30
0.0
 40
10.50000000004285
100
AcDbArc
 50
1.345876333064405
 51
83.47790343479429
  0
ARC
  5
BD75
330
18
100
AcDbEntity
  8
DRAW2
100
AcDbCircle
 10
1650.993172545325
 20
254.5962682021014
 30
0.0
 40
8.499970000000075
100
AcDbArc
 50
358.9263425812889
 51
85.89743718656428
  0
CIRCLE
  5
BD77
330
18
100
AcDbEntity
  8
DRAW2
100
AcDbCircle
 10
1659.012151258749
 20
261.9216541553549
 30
0.0
 40
7.5
  0
LINE
  5
BD79
330
18
100
AcDbEntity
  8
DRAW2
100
AcDbLine
 10
1656.270532887907
 20
268.9025945439173
 30
0.0
 11
1661.753769629591
 21
268.9025945439173
 31
0.0
  0
LINE
  5
BD7A
330
18
100
AcDbEntity
  8
DRAW2
100
AcDbLine
 10
1654.486889585526
 20
267.9026245439171
 30
0.0
 11
1663.537412931972
 21
267.9026245439171
 31
0.0
  0
ARC
  5
BD7B
330
18
100
AcDbEntity
  8
DRAW2
100
AcDbCircle
 10
1712.993180545293
 20
254.5962048113536
 30
0.0
 40
10.50000000004285
100
AcDbArc
 50
96.52251916284043
 51
178.653988570469
  0
ARC
  5
BD7C
330
18
100
AcDbEntity
  8
DRAW2
100
AcDbCircle
 10
1712.993180545293
 20
254.5962048113536
 30
0.0
 40
8.499970000000075
100
AcDbArc
 50
94.10323072743077
 51
181.073277005881
  0
CIRCLE
  5
BD7E
330
18
100
AcDbEntity
  8
DRAW2
100
AcDbCircle
 10
1704.974092035874
 20
261.9216541553547
 30
0.0
 40
7.5
  0
LINE
  5
BD80
330
18
100
AcDbEntity
  8
DRAW2
100
AcDbLine
 10
1702.232473665032
 20
268.9025945439173
 30
0.0
 11
1707.715710406715
 21
268.9025945439173
 31
0.0
  0
LINE
  5
BD81
330
18
100
AcDbEntity
  8
DRAW2
100
AcDbLine
 10
1700.448830362651
 20
267.9026245439171
 30
0.0
 11
1709.499353709096
 21
267.9026245439171
 31
0.0
  0
CIRCLE
  5
BD82
330
18
100
AcDbEntity
  8
DRAW2
100
AcDbCircle
 10
1743.993129647279
 20
200.9025911531693
 30
0.0
 40
8.499970000000075
  0
CIRCLE
  5
BD87
330
18
100
AcDbEntity
  8
DRAW2
100
AcDbCircle
 10
1659.012151258749
 20
307.8835949324795
 30
0.0
 40
7.5
  0
LINE
  5
BD89
330
18
100
AcDbEntity
  8
DRAW2
100
AcDbLine
 10
1651.993151647311
 20
310.9026245439171
 30
0.0
 11
1651.993151647311
 21
305.2409363365506
 31
0.0
  0
LINE
  5
BD8A
330
18
100
AcDbEntity
  8
DRAW2
100
AcDbLine
 10
1656.270532887907
 20
300.9026545439172
 30
0.0
 11
1661.753769629591
 21
300.9026545439172
 31
0.0
  0
LINE
  5
BD8B
330
18
100
AcDbEntity
  8
DRAW2
100
AcDbLine
 10
1651.993091647312
 20
327.9026245439171
 30
0.0
 11
1667.993091647312
 21
327.9026245439171
 31
0.0
  0
LINE
  5
BD8C
330
18
100
AcDbEntity
  8
DRAW2
100
AcDbLine
 10
1653.993091647311
 20
329.9025945439173
 30
0.0
 11
1665.993121647312
 21
329.9025945439173
 31
0.0
  0
LINE
  5
BD8D
330
18
100
AcDbEntity
  8
DRAW2
100
AcDbLine
 10
1651.993091647312
 20
310.9026245439171
 30
0.0
 11
1665.877678201764
 21
310.9026245439173
 31
0.0
  0
LINE
  5
BD8E
330
18
100
AcDbEntity
  8
DRAW2
100
AcDbLine
 10
1653.993061647311
 20
329.902564543917
 30
0.0
 11
1651.993061647311
 21
327.902564543917
 31
0.0
  0
LINE
  5
BD8F
330
18
100
AcDbEntity
  8
DRAW2
100
AcDbLine
 10
1651.993151647311
 20
318.4436710392046
 30
0.0
 11
1651.993151647311
 21
327.9026245439171
 31
0.0
  0
LINE
  5
BD90
330
18
100
AcDbEntity
  8
DRAW2
100
AcDbLine
 10
1665.992921647311
 20
329.9024745439171
 30
0.0
 11
1667.992921647311
 21
327.902474543917
 31
0.0
  0
LINE
  5
BD91
330
18
100
AcDbEntity
  8
DRAW2
100
AcDbLine
 10
1667.993121647311
 20
327.6694341046027
 30
0.0
 11
1667.993121647311
 21
327.9026245439171
 31
0.0
  0
CIRCLE
  5
BD92
330
18
100
AcDbEntity
  8
DRAW2
100
AcDbCircle
 10
1704.974092035874
 20
307.8835949324795
 30
0.0
 40
7.5
  0
LINE
  5
BD95
330
18
100
AcDbEntity
  8
DRAW2
100
AcDbLine
 10
1711.993091647312
 20
310.9026245439171
 30
0.0
 11
1711.993091647312
 21
305.2409363365503
 31
0.0
  0
LINE
  5
BD96
330
18
100
AcDbEntity
  8
DRAW2
100
AcDbLine
 10
1702.232473665032
 20
300.9026545439172
 30
0.0
 11
1707.715710406716
 21
300.9026545439172
 31
0.0
  0
LINE
  5
BD97
330
18
100
AcDbEntity
  8
DRAW2
100
AcDbLine
 10
1698.108565092859
 20
310.9026245439173
 30
0.0
 11
1711.993091647312
 21
310.9026245439171
 31
0.0
  0
LINE
  5
BD98
330
18
100
AcDbEntity
  8
DRAW2
100
AcDbLine
 10
1695.993091647312
 20
327.9026245439171
 30
0.0
 11
1711.993091647312
 21
327.9026245439171
 31
0.0
  0
LINE
  5
BD99
330
18
100
AcDbEntity
  8
DRAW2
100
AcDbLine
 10
1697.993121647311
 20
329.9025945439173
 30
0.0
 11
1709.99309164731
 21
329.9025945439173
 31
0.0
  0
LINE
  5
BD9A
330
18
100
AcDbEntity
  8
DRAW2
100
AcDbLine
 10
1697.992951647311
 20
329.9025945439173
 30
0.0
 11
1695.992981647311
 21
327.9025945439173
 31
0.0
  0
LINE
  5
BD9B
330
18
100
AcDbEntity
  8
DRAW2
100
AcDbLine
 10
1695.993101647311
 20
327.6694406517306
 30
0.0
 11
1695.993101647311
 21
327.9026245439171
 31
0.0
  0
LINE
  5
BD9C
330
18
100
AcDbEntity
  8
DRAW2
100
AcDbLine
 10
1709.992861647311
 20
329.9025345439171
 30
0.0
 11
1711.992891647311
 21
327.9025045439173
 31
0.0
  0
LINE
  5
BD9D
330
18
100
AcDbEntity
  8
DRAW2
100
AcDbLine
 10
1711.993091647312
 20
318.4436710392048
 30
0.0
 11
1711.993091647312
 21
327.9026245439171
 31
0.0
  0
VIEWPORT
  5
37
330
15
100
AcDbEntity
 67
     1
  8
0
100
AcDbViewport
 10
296.9950122070311
 20
209.9950000476836
 30
0.0
 40
632.1056339387388
 41
423.1939163498098
 68
     1
 69
     1
 12
296.9950122070311
 22
209.9950000476836
 13
0.0
 23
0.0
 14
10.0
 24
10.0
 15
10.0
 25
10.0
 16
0.0
 26
0.0
 36
1.0
 17
0.0
 27
0.0
 37
0.0
 42
50.0
 43
0.0
 44
0.0
 45
423.1939163498098
 50
0.0
 51
0.0
 72
   100
 90
    32768
  1

281
     0
 71
     1
 74
     0
110
0.0
120
0.0
130
0.0
111
1.0
121
0.0
131
0.0
112
0.0
122
1.0
132
0.0
 79
     0
146
0.0
  0
ENDSEC
  0
SECTION
  2
OBJECTS
  0
DICTIONARY
  5
C
330
0
100
AcDbDictionary
281
     1
  3
ACAD_GROUP
350
D
  3
ACAD_IMAGE_VARS
350
7A9
  3
ACAD_LAYOUT
350
1AD
  3
ACAD_MLINESTYLE
350
1B
  3
ACAD_PLOTSETTINGS
350
1AE
  3
ACAD_PLOTSTYLENAME
350
1AB
  0
DICTIONARY
  5
D
102
{ACAD_REACTORS
330
C
102
}
330
C
100
AcDbDictionary
281
     1
  3
*A1
350
1485
  3
*A2
350
AFD5
  3
*A3
350
B06F
  3
*A4
350
B12A
  0
RASTERVARIABLES
  5
7A9
102
{ACAD_REACTORS
330
C
102
}
330
C
100
AcDbRasterVariables
 90
        0
 70
     1
 71
     1
 72
     0
  0
DICTIONARY
  5
1AD
102
{ACAD_REACTORS
330
C
102
}
330
C
100
AcDbDictionary
281
     1
  3
Model
350
1AF
  3
ﾚｲｱｳﾄ1
350
1B0
  0
DICTIONARY
  5
1B
102
{ACAD_REACTORS
330
C
102
}
330
C
100
AcDbDictionary
281
     1
  3
STANDARD
350
1C
  0
DICTIONARY
  5
1AE
102
{ACAD_REACTORS
330
C
102
}
330
C
100
AcDbDictionary
281
     1
  3
AdobePDF_A2
350
9AB5
  3
普通紙Ａ３_XL-5800_WinNT40
350
298B
  3
普通紙Ａ３からＡ４_XL-5800_WinNT40
350
298C
  0
ACDBDICTIONARYWDFLT
  5
1AB
102
{ACAD_REACTORS
330
C
102
}
330
C
100
AcDbDictionary
281
     1
  3
Normal
350
1AC
100
AcDbDictionaryWithDefault
340
1AC
  0
GROUP
  5
1485
102
{ACAD_REACTORS
330
D
102
}
330
D
100
AcDbGroup
300

 70
     1
 71
     1
  0
GROUP
  5
AFD5
102
{ACAD_REACTORS
330
D
102
}
330
D
100
AcDbGroup
300

 70
     1
 71
     1
  0
GROUP
  5
B06F
102
{ACAD_REACTORS
330
D
102
}
330
D
100
AcDbGroup
300

 70
     1
 71
     1
  0
GROUP
  5
B12A
102
{ACAD_REACTORS
330
D
102
}
330
D
100
AcDbGroup
300

 70
     1
 71
     1
  0
LAYOUT
  5
1AF
102
{ACAD_REACTORS
330
1AD
102
}
330
1AD
100
AcDbPlotSettings
  1

  2
FUJITSU XL-5800
  4
A4
  6

 40
5.873749732971191
 41
5.704405784606932
 42
5.873748779296875
 43
5.873748779296875
 44
210.0579986572264
 45
296.9259948730469
 46
-934.06
 47
-482.3299999999998
 48
0.0
 49
0.0
140
0.0
141
0.0
142
1.0
143
1.0
 70
 11956
 72
     1
 73
     0
 74
     0
  7
LineScale_10.ctb
 75
    16
147
1.0
148
1033.210332103321
149
625.0
100
AcDbLayout
  1
Model
 70
     1
 71
     0
 10
0.0
 20
0.0
 11
12.0
 21
9.0
 12
0.0
 22
0.0
 32
0.0
 14
0.0
 24
0.0
 34
0.0
 15
0.0
 25
0.0
 35
0.0
146
0.0
 13
0.0
 23
0.0
 33
0.0
 16
1.0
 26
0.0
 36
0.0
 17
0.0
 27
1.0
 37
0.0
 76
     0
330
18
  0
LAYOUT
  5
1B0
102
{ACAD_REACTORS
330
1AD
102
}
330
1AD
100
AcDbPlotSettings
  1
AdobePDF_A2
  2
Adobe PDF
  4
User66
  6
A1
 40
3.174999952316283
 41
3.174999952316283
 42
3.17498779296875
 43
3.17498779296875
 44
420.0
 45
594.0
 46
-3.169999999999998
 47
-3.169999999999998
 48
0.0
 49
0.0
140
594.0
141
420.0
142
1.0
143
1.0
 70
   692
 72
     1
 73
     1
 74
     4
  7
LineScale_10.ctb
 75
    16
147
1.0
148
0.0
149
0.0
100
AcDbLayout
  1
ﾚｲｱｳﾄ1
 70
     1
 71
     1
 10
-0.0049877929687501
 20
-0.0049999523162843
 11
593.9950122070312
 21
419.9950000476837
 12
0.0
 22
0.0
 32
0.0
 14
1.000000000000000E+20
 24
1.000000000000000E+20
 34
1.000000000000000E+20
 15
-1.000000000000000E+20
 25
-1.000000000000000E+20
 35
-1.000000000000000E+20
146
0.0
 13
0.0
 23
0.0
 33
0.0
 16
1.0
 26
0.0
 36
0.0
 17
0.0
 27
1.0
 37
0.0
 76
     0
330
15
331
37
  0
MLINESTYLE
  5
1C
102
{ACAD_REACTORS
330
1B
102
}
330
1B
100
AcDbMlineStyle
  2
STANDARD
 70
     0
  3

 62
   256
 51
90.0
 52
90.0
 71
     2
 49
0.5
 62
   256
  6
BYLAYER
 49
-0.5
 62
   256
  6
BYLAYER
  0
PLOTSETTINGS
  5
9AB5
102
{ACAD_REACTORS
330
1AE
102
}
330
1AE
100
AcDbPlotSettings
  1
AdobePDF_A2
  2
Adobe PDF
  4
User66
  6
A1
 40
3.174999952316283
 41
3.174999952316283
 42
3.17498779296875
 43
3.17498779296875
 44
420.0
 45
594.0
 46
-3.169999999999998
 47
-3.169999999999998
 48
0.0
 49
0.0
140
594.0
141
420.0
142
1.0
143
1.0
 70
   692
 72
     1
 73
     1
 74
     4
  7
LineScale_10.ctb
 75
    16
147
1.0
148
0.0
149
0.0
  0
PLOTSETTINGS
  5
298B
102
{ACAD_REACTORS
330
1AE
102
}
330
1AE
100
AcDbPlotSettings
  1
普通紙Ａ３_XL-5800_WinNT40
  2
FUJITSU XL-5800
  4
A3
  6
A1
 40
5.873749732971191
 41
5.873747825622557
 42
5.70440673828125
 43
5.873748779296875
 44
296.9259948730469
 45
420.1159973144531
 46
-5.009999999999998
 47
-6.7
 48
0.0
 49
0.0
140
420.0
141
297.0
142
1.0
143
1.0
 70
   688
 72
     1
 73
     1
 74
     4
  7
LineScale_10.ctb
 75
    16
147
1.0
148
0.0
149
0.0
  0
PLOTSETTINGS
  5
298C
102
{ACAD_REACTORS
330
1AE
102
}
330
1AE
100
AcDbPlotSettings
  1
普通紙Ａ３からＡ４_XL-5800_WinNT40
  2
FUJITSU XL-5800
  4
A4
  6
A1
 40
5.873749732971191
 41
5.704405784606932
 42
5.873748779296875
 43
5.873748779296875
 44
210.0579986572264
 45
296.9259948730469
 46
-6.4
 47
-5.459999999999999
 48
0.0
 49
0.0
140
420.0
141
297.0
142
0.7071066999999999
143
1.0
 70
   672
 72
     1
 73
     1
 74
     4
  7
LineScale_07.ctb
 75
     0
147
0.7071066999999999
148
0.0
149
0.0
  0
ACDBPLACEHOLDER
  5
1AC
102
{ACAD_REACTORS
330
1AB
102
}
330
1AB
  0
ENDSEC
  0
EOF
