  0
SECTION
  2
HEADER
  9
$ACADVER
  1
AC1015
  9
$ACADMAINTVER
 70
     6
  9
$DWGCODEPAGE
  3
ANSI_932
  9
$INSBASE
 10
0.0
 20
0.0
 30
0.0
  9
$EXTMIN
 10
1047.664541767154
 20
53.49375870959829
 30
-0.0000000100021362
  9
$EXTMAX
 10
1808.113326570155
 20
678.6201543314973
 30
0.0000000100021363
  9
$LIMMIN
 10
-841.0
 20
-594.0
  9
$LIMMAX
 10
841.0
 20
594.0
  9
$ORTHOMODE
 70
     0
  9
$REGENMODE
 70
     1
  9
$FILLMODE
 70
     1
  9
$QTEXTMODE
 70
     0
  9
$MIRRTEXT
 70
     0
  9
$LTSCALE
 40
7.0
  9
$ATTMODE
 70
     1
  9
$TEXTSIZE
 40
3.2
  9
$TRACEWID
 40
1.0
  9
$TEXTSTYLE
  7
DIMFONT
  9
$CLAYER
  8
DRAW2
  9
$CELTYPE
  6
BYLAYER
  9
$CECOLOR
 62
   256
  9
$CELTSCALE
 40
1.0
  9
$DISPSILH
 70
     0
  9
$DIMSCALE
 40
3.0
  9
$DIMASZ
 40
3.0
  9
$DIMEXO
 40
0.0
  9
$DIMDLI
 40
10.0
  9
$DIMRND
 40
0.0
  9
$DIMDLE
 40
0.0
  9
$DIMEXE
 40
1.0
  9
$DIMTP
 40
0.0
  9
$DIMTM
 40
0.0
  9
$DIMTXT
 40
3.2
  9
$DIMCEN
 40
0.0
  9
$DIMTSZ
 40
0.0
  9
$DIMTOL
 70
     0
  9
$DIMLIM
 70
     0
  9
$DIMTIH
 70
     0
  9
$DIMTOH
 70
     0
  9
$DIMSE1
 70
     0
  9
$DIMSE2
 70
     0
  9
$DIMTAD
 70
     3
  9
$DIMZIN
 70
     8
  9
$DIMBLK
  1

  9
$DIMASO
 70
     1
  9
$DIMSHO
 70
     1
  9
$DIMPOST
  1

  9
$DIMAPOST
  1

  9
$DIMALT
 70
     0
  9
$DIMALTD
 70
     2
  9
$DIMALTF
 40
25.4
  9
$DIMLFAC
 40
1.0
  9
$DIMTOFL
 70
     1
  9
$DIMTVP
 40
0.0
  9
$DIMTIX
 70
     0
  9
$DIMSOXD
 70
     0
  9
$DIMSAH
 70
     1
  9
$DIMBLK1
  1
OPEN
  9
$DIMBLK2
  1
OPEN
  9
$DIMSTYLE
  2
1_3
  9
$DIMCLRD
 70
     0
  9
$DIMCLRE
 70
     0
  9
$DIMCLRT
 70
     0
  9
$DIMTFAC
 40
0.75
  9
$DIMGAP
 40
1.0
  9
$DIMJUST
 70
     0
  9
$DIMSD1
 70
     0
  9
$DIMSD2
 70
     0
  9
$DIMTOLJ
 70
     1
  9
$DIMTZIN
 70
     8
  9
$DIMALTZ
 70
     0
  9
$DIMALTTZ
 70
     0
  9
$DIMUPT
 70
     0
  9
$DIMDEC
 70
     0
  9
$DIMTDEC
 70
     0
  9
$DIMALTU
 70
     2
  9
$DIMALTTD
 70
     2
  9
$DIMTXSTY
  7
DIMFONT
  9
$DIMAUNIT
 70
     0
  9
$DIMADEC
 70
     2
  9
$DIMALTRND
 40
0.0
  9
$DIMAZIN
 70
     2
  9
$DIMDSEP
 70
    46
  9
$DIMATFIT
 70
     1
  9
$DIMFRAC
 70
     0
  9
$DIMLDRBLK
  1
OPEN
  9
$DIMLUNIT
 70
     2
  9
$DIMLWD
 70
    -2
  9
$DIMLWE
 70
    -2
  9
$DIMTMOVE
 70
     0
  9
$LUNITS
 70
     2
  9
$LUPREC
 70
     4
  9
$SKETCHINC
 40
1.0
  9
$FILLETRAD
 40
0.0
  9
$AUNITS
 70
     0
  9
$AUPREC
 70
     4
  9
$MENU
  1
acad
  9
$ELEVATION
 40
0.0
  9
$PELEVATION
 40
0.0
  9
$THICKNESS
 40
0.0
  9
$LIMCHECK
 70
     0
  9
$CHAMFERA
 40
0.0
  9
$CHAMFERB
 40
0.0
  9
$CHAMFERC
 40
0.0
  9
$CHAMFERD
 40
0.0
  9
$SKPOLY
 70
     0
  9
$TDCREATE
 40
2452311.864408912
  9
$TDUCREATE
 40
2452311.489408912
  9
$TDUPDATE
 40
2454973.431066979
  9
$TDUUPDATE
 40
2454973.056066979
  9
$TDINDWG
 40
0.8662410648
  9
$TDUSRTIMER
 40
0.8662409491
  9
$USRTIMER
 70
     1
  9
$ANGBASE
 50
0.0
  9
$ANGDIR
 70
     0
  9
$PDMODE
 70
    35
  9
$PDSIZE
 40
0.5
  9
$PLINEWID
 40
0.0
  9
$SPLFRAME
 70
     0
  9
$SPLINETYPE
 70
     6
  9
$SPLINESEGS
 70
     8
  9
$HANDSEED
  5
9AC5
  9
$SURFTAB1
 70
     6
  9
$SURFTAB2
 70
     6
  9
$SURFTYPE
 70
     6
  9
$SURFU
 70
     6
  9
$SURFV
 70
     6
  9
$UCSBASE
  2

  9
$UCSNAME
  2

  9
$UCSORG
 10
0.0
 20
0.0
 30
0.0
  9
$UCSXDIR
 10
1.0
 20
0.0
 30
0.0
  9
$UCSYDIR
 10
0.0
 20
1.0
 30
0.0
  9
$UCSORTHOREF
  2

  9
$UCSORTHOVIEW
 70
     0
  9
$UCSORGTOP
 10
0.0
 20
0.0
 30
0.0
  9
$UCSORGBOTTOM
 10
0.0
 20
0.0
 30
0.0
  9
$UCSORGLEFT
 10
0.0
 20
0.0
 30
0.0
  9
$UCSORGRIGHT
 10
0.0
 20
0.0
 30
0.0
  9
$UCSORGFRONT
 10
0.0
 20
0.0
 30
0.0
  9
$UCSORGBACK
 10
0.0
 20
0.0
 30
0.0
  9
$PUCSBASE
  2

  9
$PUCSNAME
  2

  9
$PUCSORG
 10
0.0
 20
0.0
 30
0.0
  9
$PUCSXDIR
 10
1.0
 20
0.0
 30
0.0
  9
$PUCSYDIR
 10
0.0
 20
1.0
 30
0.0
  9
$PUCSORTHOREF
  2

  9
$PUCSORTHOVIEW
 70
     0
  9
$PUCSORGTOP
 10
0.0
 20
0.0
 30
0.0
  9
$PUCSORGBOTTOM
 10
0.0
 20
0.0
 30
0.0
  9
$PUCSORGLEFT
 10
0.0
 20
0.0
 30
0.0
  9
$PUCSORGRIGHT
 10
0.0
 20
0.0
 30
0.0
  9
$PUCSORGFRONT
 10
0.0
 20
0.0
 30
0.0
  9
$PUCSORGBACK
 10
0.0
 20
0.0
 30
0.0
  9
$USERI1
 70
     0
  9
$USERI2
 70
     0
  9
$USERI3
 70
     0
  9
$USERI4
 70
     0
  9
$USERI5
 70
     0
  9
$USERR1
 40
0.0
  9
$USERR2
 40
0.0
  9
$USERR3
 40
0.0
  9
$USERR4
 40
0.0
  9
$USERR5
 40
0.0
  9
$WORLDVIEW
 70
     1
  9
$SHADEDGE
 70
     3
  9
$SHADEDIF
 70
    70
  9
$TILEMODE
 70
     1
  9
$MAXACTVP
 70
    48
  9
$PINSBASE
 10
0.0
 20
0.0
 30
0.0
  9
$PLIMCHECK
 70
     0
  9
$PEXTMIN
 10
1.000000000000000E+20
 20
1.000000000000000E+20
 30
1.000000000000000E+20
  9
$PEXTMAX
 10
-1.000000000000000E+20
 20
-1.000000000000000E+20
 30
-1.000000000000000E+20
  9
$PLIMMIN
 10
-0.0049877929687501
 20
-0.0049999523162843
  9
$PLIMMAX
 10
593.9950122070312
 20
419.9950000476837
  9
$UNITMODE
 70
     0
  9
$VISRETAIN
 70
     0
  9
$PLINEGEN
 70
     1
  9
$PSLTSCALE
 70
     1
  9
$TREEDEPTH
 70
  3020
  9
$CMLSTYLE
  2
STANDARD
  9
$CMLJUST
 70
     0
  9
$CMLSCALE
 40
20.0
  9
$PROXYGRAPHICS
 70
     1
  9
$MEASUREMENT
 70
     1
  9
$CELWEIGHT
370
    -1
  9
$ENDCAPS
280
     0
  9
$JOINSTYLE
280
     0
  9
$LWDISPLAY
290
     0
  9
$INSUNITS
 70
     0
  9
$HYPERLINKBASE
  1

  9
$STYLESHEET
  1

  9
$XEDIT
290
     1
  9
$CEPSNTYPE
380
     0
  9
$PSTYLEMODE
290
     1
  9
$FINGERPRINTGUID
  2
{7FD28A7C-F8BA-11D3-9BCC-00A0C977751D}
  9
$VERSIONGUID
  2
{C9D6DDFA-C748-427B-B72B-94A12C8B6D22}
  9
$EXTNAMES
290
     1
  9
$PSVPSCALE
 40
0.0
  9
$OLESTARTUP
290
     0
  0
ENDSEC
  0
SECTION
  2
CLASSES
  0
CLASS
  1
LWPOLYLINE
  2
AcDbPolyline
  3
AutoCAD 2000
 90
    32768
280
     0
281
     1
  0
CLASS
  1
ACDBDICTIONARYWDFLT
  2
AcDbDictionaryWithDefault
  3
AutoCAD 2000
 90
        0
280
     0
281
     0
  0
CLASS
  1
ACDBPLACEHOLDER
  2
AcDbPlaceHolder
  3
AutoCAD 2000
 90
        0
280
     0
281
     0
  0
CLASS
  1
LAYOUT
  2
AcDbLayout
  3
AutoCAD 2000
 90
        0
280
     0
281
     0
  0
CLASS
  1
PLOTSETTINGS
  2
AcDbPlotSettings
  3
AutoCAD 2000
 90
        0
280
     0
281
     0
  0
CLASS
  1
RASTERVARIABLES
  2
AcDbRasterVariables
  3
ISM
 90
        0
280
     0
281
     0
  0
ENDSEC
  0
SECTION
  2
TABLES
  0
TABLE
  2
VPORT
  5
8
330
0
100
AcDbSymbolTable
 70
     2
  0
VPORT
  5
9AC4
330
8
100
AcDbSymbolTableRecord
100
AcDbViewportTableRecord
  2
*Active
 70
     0
 10
0.0
 20
0.0
 11
1.0
 21
1.0
 12
1427.888934168655
 22
366.0569565205479
 13
0.0
 23
0.0
 14
5.0
 24
5.0
 15
10.0
 25
10.0
 16
0.0
 26
0.0
 36
1.0
 17
0.0
 27
0.0
 37
0.0
 40
629.8802085163622
 41
1.493654822335025
 42
50.0
 43
0.0
 44
0.0
 50
0.0
 51
0.0
 71
     0
 72
   100
 73
     1
 74
     0
 75
     0
 76
     0
 77
     0
 78
     1
281
     0
 65
     1
110
0.0
120
0.0
130
0.0
111
1.0
121
0.0
131
0.0
112
0.0
122
1.0
132
0.0
 79
     0
146
0.0
  0
ENDTAB
  0
TABLE
  2
LTYPE
  5
5
330
0
100
AcDbSymbolTable
 70
     6
  0
LTYPE
  5
12
330
5
100
AcDbSymbolTableRecord
100
AcDbLinetypeTableRecord
  2
BYBLOCK
 70
     0
  3

 72
    65
 73
     0
 40
0.0
  0
LTYPE
  5
13
330
5
100
AcDbSymbolTableRecord
100
AcDbLinetypeTableRecord
  2
BYLAYER
 70
     0
  3

 72
    65
 73
     0
 40
0.0
  0
LTYPE
  5
14
330
5
100
AcDbSymbolTableRecord
100
AcDbLinetypeTableRecord
  2
CONTINUOUS
 70
     0
  3
Solid line
 72
    65
 73
     0
 40
0.0
  0
LTYPE
  5
23
330
5
100
AcDbSymbolTableRecord
100
AcDbLinetypeTableRecord
  2
HIDDEN
 70
     0
  3
__ __ __ __ __ __ __ __ __ __ __ __ __ __ __ __
 72
    65
 73
     2
 40
0.375
 49
0.25
 74
     0
 49
-0.125
 74
     0
  0
ENDTAB
  0
TABLE
  2
LAYER
  5
2
330
0
100
AcDbSymbolTable
 70
    18
  0
LAYER
  5
E
330
2
100
AcDbSymbolTableRecord
100
AcDbLayerTableRecord
  2
0
 70
     0
 62
     7
  6
CONTINUOUS
370
    -3
390
1AC
  0
LAYER
  5
29
330
2
100
AcDbSymbolTableRecord
100
AcDbLayerTableRecord
  2
DRAW2
 70
     0
 62
     4
  6
CONTINUOUS
370
    -3
390
1AC
  0
LAYER
  5
2A
330
2
100
AcDbSymbolTableRecord
100
AcDbLayerTableRecord
  2
DRAW3
 70
     0
 62
     1
  6
CONTINUOUS
370
    -3
390
1AC
  0
LAYER
  5
2B
330
2
100
AcDbSymbolTableRecord
100
AcDbLayerTableRecord
  2
DRAW4
 70
     0
 62
     2
  6
CONTINUOUS
370
    -3
390
1AC
  0
LAYER
  5
2C
330
2
100
AcDbSymbolTableRecord
100
AcDbLayerTableRecord
  2
HIDDEN
 70
     0
 62
     7
  6
HIDDEN
370
    -3
390
1AC
  0
LAYER
  5
133
330
2
100
AcDbSymbolTableRecord
100
AcDbLayerTableRecord
  2
DEFPOINTS
 70
     0
 62
     7
  6
CONTINUOUS
290
     0
370
    -3
390
1AC
  0
ENDTAB
  0
TABLE
  2
STYLE
  5
3
330
0
100
AcDbSymbolTable
 70
     4
  0
STYLE
  5
F
330
3
100
AcDbSymbolTableRecord
100
AcDbTextStyleTableRecord
  2
STANDARD
 70
     0
 40
0.0
 41
1.0
 50
0.0
 71
     0
 42
2.5
  3
txt
  4

  0
STYLE
  5
30
330
3
100
AcDbSymbolTableRecord
100
AcDbTextStyleTableRecord
  2
DIMFONT
 70
     0
 40
0.0
 41
1.0
 50
10.0
 71
     0
 42
3.2
  3
romans.shx
  4
extfont.shx
  0
ENDTAB
  0
TABLE
  2
VIEW
  5
6
330
0
100
AcDbSymbolTable
 70
     5
  0
VIEW
  5
C27
330
6
100
AcDbSymbolTableRecord
100
AcDbViewTableRecord
  2
View1
 70
     0
 40
1250.0
 10
0.0
 20
0.0
 41
2066.420664206642
 11
0.0
 21
0.0
 31
1.0
 12
0.0
 22
0.0
 32
0.0
 42
50.0
 43
0.0
 44
0.0
 50
0.0
 71
     0
281
     0
 72
     1
110
0.0
120
0.0
130
0.0
111
1.0
121
0.0
131
0.0
112
0.0
122
1.0
132
0.0
 79
     0
146
0.0
  0
VIEW
  5
C2A
330
6
100
AcDbSymbolTableRecord
100
AcDbViewTableRecord
  2
A4
 70
     1
 40
314.2148930664062
 10
103.8222427368164
 20
144.5197510242462
 41
519.4401184271217
 11
0.0
 21
0.0
 31
1.0
 12
0.0
 22
0.0
 32
0.0
 42
50.0
 43
0.0
 44
0.0
 50
0.0
 71
     0
281
     0
 72
     1
110
0.0
120
0.0
130
0.0
111
1.0
121
0.0
131
0.0
112
0.0
122
1.0
132
0.0
 79
     0
146
0.0
  0
VIEW
  5
C2B
330
6
100
AcDbSymbolTableRecord
100
AcDbViewTableRecord
  2
A3
 70
     1
 40
314.2148930664062
 10
205.8194916248321
 20
151.3197510242462
 41
519.4401184271217
 11
0.0
 21
0.0
 31
1.0
 12
0.0
 22
0.0
 32
0.0
 42
50.0
 43
0.0
 44
0.0
 50
0.0
 71
     0
281
     0
 72
     1
110
0.0
120
0.0
130
0.0
111
1.0
121
0.0
131
0.0
112
0.0
122
1.0
132
0.0
 79
     0
146
0.0
  0
VIEW
  5
C2C
330
6
100
AcDbSymbolTableRecord
100
AcDbViewTableRecord
  2
A2
 70
     1
 40
444.3483441772461
 10
293.3145020008087
 20
213.3194916248321
 41
734.5684804110931
 11
0.0
 21
0.0
 31
1.0
 12
0.0
 22
0.0
 32
0.0
 42
50.0
 43
0.0
 44
0.0
 50
0.0
 71
     0
281
     0
 72
     1
110
0.0
120
0.0
130
0.0
111
1.0
121
0.0
131
0.0
112
0.0
122
1.0
132
0.0
 79
     0
146
0.0
  0
VIEW
  5
C2D
330
6
100
AcDbSymbolTableRecord
100
AcDbViewTableRecord
  2
A1
 70
     1
 40
628.2954051513671
 10
422.5084997558593
 20
293.4384954071044
 41
1038.658086744695
 11
0.0
 21
0.0
 31
1.0
 12
0.0
 22
0.0
 32
0.0
 42
50.0
 43
0.0
 44
0.0
 50
0.0
 71
     0
281
     0
 72
     1
110
0.0
120
0.0
130
0.0
111
1.0
121
0.0
131
0.0
112
0.0
122
1.0
132
0.0
 79
     0
146
0.0
  0
ENDTAB
  0
TABLE
  2
UCS
  5
7
330
0
100
AcDbSymbolTable
 70
     0
  0
ENDTAB
  0
TABLE
  2
APPID
  5
9
330
0
100
AcDbSymbolTable
 70
     1
  0
APPID
  5
10
330
9
100
AcDbSymbolTableRecord
100
AcDbRegAppTableRecord
  2
ACAD
 70
     0
  0
ENDTAB
  0
TABLE
  2
DIMSTYLE
  5
A
330
0
100
AcDbSymbolTable
 70
    12
100
AcDbDimStyleTable
 71
     1
340
4D
  0
DIMSTYLE
105
4D
102
{ACAD_REACTORS
330
782E
330
8175
330
6F32
330
6F1C
330
5AB6
330
5AB7
330
5BB6
330
7E4B
330
5B56
330
8166
330
6F4D
330
68C0
330
68B3
330
601B
330
5B4B
330
5B4A
330
5B49
330
5F39
330
80D5
330
5F4F
330
5C02
102
}
330
A
100
AcDbSymbolTableRecord
100
AcDbDimStyleTableRecord
  2
1_3
 70
     0
 40
3.0
 41
3.0
 42
0.0
 43
10.0
 44
1.0
 73
     0
 74
     0
 77
     3
 78
     8
 79
     2
140
3.2
141
0.0
146
0.75
147
1.0
172
     1
173
     1
179
     2
271
     0
272
     0
284
     8
289
     1
340
30
341
125
343
125
344
125
  0
DIMSTYLE
105
26A3
330
A
100
AcDbSymbolTableRecord
100
AcDbDimStyleTableRecord
  2
STANDARD
 70
     0
340
F
  0
ENDTAB
  0
TABLE
  2
BLOCK_RECORD
  5
1
330
0
100
AcDbSymbolTable
 70
   184
  0
BLOCK_RECORD
  5
18
330
1
100
AcDbSymbolTableRecord
100
AcDbBlockTableRecord
  2
*MODEL_SPACE
340
1AF
  0
BLOCK_RECORD
  5
15
330
1
100
AcDbSymbolTableRecord
100
AcDbBlockTableRecord
  2
*PAPER_SPACE
340
1B0
  0
BLOCK_RECORD
  5
125
330
1
100
AcDbSymbolTableRecord
100
AcDbBlockTableRecord
  2
_OPEN
340
0
102
{BLKREFS
331
2665
331
2666
331
2671
331
2672
331
267D
331
267E
331
8344
331
8345
331
83EA
331
83EB
331
845B
331
845C
331
8464
331
8465
331
8476
331
8477
331
9594
331
9595
331
959F
331
95A0
331
95AA
331
95AB
331
99CB
331
99CC
331
99DD
331
99DE
331
99E6
331
99E7
331
99F8
331
99F9
331
9A19
331
9A1A
331
9A22
331
9A23
331
9A34
331
9A35
331
9A46
331
9A47
331
9A61
331
9A62
331
9A6A
331
9A6B
331
9A7C
331
9A7D
331
9A8E
331
9A8F
102
}
  0
ENDTAB
  0
ENDSEC
  0
SECTION
  2
BLOCKS
  0
BLOCK
  5
19
330
18
100
AcDbEntity
  8
0
100
AcDbBlockBegin
  2
*MODEL_SPACE
 70
     0
 10
0.0
 20
0.0
 30
0.0
  3
*MODEL_SPACE
  1

  0
ENDBLK
  5
1A
330
18
100
AcDbEntity
  8
0
100
AcDbBlockEnd
  0
BLOCK
  5
16
330
15
100
AcDbEntity
 67
     1
  8
0
100
AcDbBlockBegin
  2
*PAPER_SPACE
 70
     0
 10
0.0
 20
0.0
 30
0.0
  3
*PAPER_SPACE
  1

  0
ENDBLK
  5
17
330
15
100
AcDbEntity
 67
     1
  8
0
100
AcDbBlockEnd
  0
BLOCK
  5
126
330
125
100
AcDbEntity
  8
0
100
AcDbBlockBegin
  2
_OPEN
 70
     0
 10
0.0
 20
0.0
 30
0.0
  3
_OPEN
  1

  0
LINE
  5
127
330
125
100
AcDbEntity
  8
0
  6
ByBlock
 62
     0
100
AcDbLine
 10
-1.0
 20
0.1666666666666666
 30
0.0
 11
0.0
 21
0.0
 31
0.0
  0
LINE
  5
128
330
125
100
AcDbEntity
  8
0
  6
ByBlock
 62
     0
100
AcDbLine
 10
0.0
 20
0.0
 30
0.0
 11
-1.0
 21
-0.1666666666666666
 31
0.0
  0
LINE
  5
129
330
125
100
AcDbEntity
  8
0
  6
ByBlock
 62
     0
100
AcDbLine
 10
0.0
 20
0.0
 30
0.0
 11
-1.0
 21
0.0
 31
0.0
  0
ENDBLK
  5
12A
330
125
100
AcDbEntity
  8
0
100
AcDbBlockEnd
  0
ENDSEC
  0
SECTION
  2
ENTITIES
  0
TEXT
  5
2783
330
18
100
AcDbEntity
  8
0
100
AcDbText
 10
289.9791188454981
 20
596.53434424429
 30
0.0
 40
3.2
  1

 51
10.0
  7
DIMFONT
100
AcDbText
  0
TEXT
  5
2791
330
18
100
AcDbEntity
  8
0
100
AcDbText
 10
399.046620988657
 20
559.3598774521149
 30
0.0
 40
3.2
  1

 51
10.0
  7
DIMFONT
100
AcDbText
  0
ELLIPSE
  5
95BA
330
18
100
AcDbEntity
  8
DRAW2
100
AcDbEllipse
 10
1174.782781564807
 20
230.8002227837784
 30
0.0
 11
-24.0
 21
0.0
 31
0.0
210
0.0
220
0.0
230
1.0
 40
0.8660254037844374
 41
6.279899802933391
 42
9.428063465015574
  0
ELLIPSE
  5
95BB
330
18
100
AcDbEntity
  8
DRAW2
100
AcDbEllipse
 10
1174.78278156451
 20
546.6064433355493
 30
0.0
 11
-24.0
 21
0.0
 31
0.0
210
0.0
220
0.0
230
1.0
 40
0.5
 41
3.13666438613466
 42
6.288113574634719
  0
ELLIPSE
  5
95BC
330
18
100
AcDbEntity
  8
DRAW2
100
AcDbEllipse
 10
1174.782781564509
 20
538.6839711359657
 30
0.0
 11
-22.00000000000005
 21
0.0
 31
0.0
210
0.0
220
0.0
230
1.0
 40
0.5000000000000039
 41
8.114633142329502
 42
8.872222772298783
  0
ELLIPSE
  5
95BD
330
18
100
AcDbEntity
  8
DRAW2
100
AcDbEllipse
 10
1174.782781564509
 20
540.1839711359657
 30
0.0
 11
-4.86399999999989
 21
0.0
 31
0.0
210
0.0
220
0.0
230
1.0
 40
0.4999999999999912
 41
3.141592653589793
 42
6.283185307179586
  0
ELLIPSE
  5
95BE
330
18
100
AcDbEntity
  8
DRAW2
100
AcDbEllipse
 10
1174.782781564509
 20
537.5599141624989
 30
0.0
 11
-4.958687499999939
 21
0.0
 31
0.0
210
0.0
220
0.0
230
1.0
 40
0.5000000000000058
 41
3.120405739683452
 42
6.304372221085927
  0
SPLINE
  5
95BF
330
18
100
AcDbEntity
  8
DRAW3
100
AcDbSpline
210
0.0
220
0.0
230
1.0
 70
     8
 71
     3
 72
    11
 73
     7
 74
     5
 42
0.0000000001
 43
0.0000000001
 44
0.0000000001
 40
0.0
 40
0.0
 40
0.0
 40
0.0
 40
2.271842036502902
 40
4.965543950268481
 40
6.346702938569013
 40
8.41997432907231
 40
8.41997432907231
 40
8.41997432907231
 40
8.41997432907231
 10
1171.782781564509
 20
499.1922017358359
 30
0.0
 10
1172.402834755209
 20
498.4755948336459
 30
0.0
 10
1173.75807923104
 20
496.909313811147
 30
0.0
 10
1175.015318422319
 20
499.4327298945153
 30
0.0
 10
1176.268720985084
 20
501.5375153986656
 30
0.0
 10
1177.214903879747
 20
500.3403964263463
 30
0.0
 10
1177.782781564509
 20
499.6219125537034
 30
0.0
 11
1171.782781564509
 21
499.1922017358359
 31
0.0
 11
1173.565154944782
 21
497.783510367184
 31
0.0
 11
1175.285605883348
 21
499.8562087456783
 31
0.0
 11
1176.166297665704
 21
500.9201552365574
 31
0.0
 11
1177.782781564509
 21
499.6219125537034
 31
0.0
  0
ELLIPSE
  5
95C0
330
18
100
AcDbEntity
  8
DRAW2
100
AcDbEllipse
 10
1174.782781564509
 20
517.8667744745954
 30
0.0
 11
-3.0
 21
0.0
 31
0.0
210
0.0
220
0.0
230
1.0
 40
0.5
 41
3.141592653589793
 42
6.283185307179586
  0
ELLIPSE
  5
95C1
330
18
100
AcDbEntity
  8
DRAW2
100
AcDbEllipse
 10
1174.782781564509
 20
530.6317109322232
 30
0.0
 11
-4.200000000000045
 21
0.0
 31
0.0
210
0.0
220
0.0
230
1.0
 40
0.5000000000000271
 41
3.141592653589793
 42
6.283185307179586
  0
ELLIPSE
  5
95C2
330
18
100
AcDbEntity
  8
DRAW2
100
AcDbEllipse
 10
1174.782781564509
 20
528.3137939389943
 30
0.0
 11
-5.0
 21
0.0
 31
0.0
210
0.0
220
0.0
230
1.0
 40
0.5
 41
3.141592653589793
 42
6.283185307179586
  0
ELLIPSE
  5
95C3
330
18
100
AcDbEntity
  8
DRAW2
100
AcDbEllipse
 10
1174.782781564509
 20
520.4648506859487
 30
0.0
 11
-5.75
 21
0.0
 31
0.0
210
0.0
220
0.0
230
1.0
 40
0.5
 41
3.141592653589793
 42
6.283185307179586
  0
ELLIPSE
  5
95C4
330
18
100
AcDbEntity
  8
DRAW2
100
AcDbEllipse
 10
1174.782781564509
 20
518.2997871764875
 30
0.0
 11
-5.75
 21
0.0
 31
0.0
210
0.0
220
0.0
230
1.0
 40
0.5
 41
2.729778632910154
 42
6.694999327859225
  0
ELLIPSE
  5
95C5
330
18
100
AcDbEntity
  8
DRAW2
100
AcDbEllipse
 10
1174.782781564509
 20
517.8667744745954
 30
0.0
 11
-5.461324999999987
 21
0.0
 31
0.0
210
0.0
220
0.0
230
1.0
 40
0.5
 41
2.152343274395363
 42
7.272434686374015
  0
ELLIPSE
  5
95C6
330
18
100
AcDbEntity
  8
DRAW2
100
AcDbEllipse
 10
1174.782781564509
 20
538.6839711359657
 30
0.0
 11
-22.00000000000005
 21
0.0
 31
0.0
210
0.0
220
0.0
230
1.0
 40
0.5000000000000039
 41
9.030677578975103
 42
10.86607589376026
  0
ELLIPSE
  5
95C7
330
18
100
AcDbEntity
  8
DRAW2
100
AcDbEllipse
 10
1174.782781564509
 20
538.6839711359657
 30
0.0
 11
-22.00000000000005
 21
0.0
 31
0.0
210
0.0
220
0.0
230
1.0
 40
0.5000000000000039
 41
6.835740495650135
 42
7.593330125619457
  0
ELLIPSE
  5
95C8
330
18
100
AcDbEntity
  8
DRAW2
100
AcDbEllipse
 10
1191.237264236413
 20
533.9339711359655
 30
0.0
 11
-4.0
 21
0.0
 31
0.0
210
0.0
220
0.0
230
1.0
 40
0.4999999999999716
 41
3.236785563520805
 42
8.111322860209504
  0
ELLIPSE
  5
95C9
330
18
100
AcDbEntity
  8
DRAW2
100
AcDbEllipse
 10
1191.237264236413
 20
534.79999653975
 30
0.0
 11
-3.5
 21
0.0
 31
0.0
210
0.0
220
0.0
230
1.0
 40
0.5000000000000325
 41
6.221286830813701
 42
9.486676437135264
  0
ELLIPSE
  5
95CA
330
18
100
AcDbEntity
  8
DRAW2
100
AcDbEllipse
 10
1158.328298892604
 20
533.9339711359655
 30
0.0
 11
-4.0
 21
0.0
 31
0.0
210
0.0
220
0.0
230
1.0
 40
0.4999999999999716
 41
1.313455100559841
 42
6.187992397248517
  0
ELLIPSE
  5
95CB
330
18
100
AcDbEntity
  8
DRAW2
100
AcDbEllipse
 10
1158.328298892604
 20
534.79999653975
 30
0.0
 11
-3.5
 21
0.0
 31
0.0
210
0.0
220
0.0
230
1.0
 40
0.5000000000000325
 41
6.221286830813701
 42
9.486676437135264
  0
ELLIPSE
  5
95CC
330
18
100
AcDbEntity
  8
DRAW2
100
AcDbEllipse
 10
1174.782781564509
 20
549.0499965397503
 30
0.0
 11
-3.5
 21
0.0
 31
0.0
210
0.0
220
0.0
230
1.0
 40
0.5000000000000325
 41
6.221286830813701
 42
9.486676437135264
  0
ELLIPSE
  5
95CD
330
18
100
AcDbEntity
  8
DRAW2
100
AcDbEllipse
 10
1174.782781564509
 20
548.1839711359657
 30
0.0
 11
-4.0
 21
0.0
 31
0.0
210
0.0
220
0.0
230
1.0
 40
0.4999999999999716
 41
0.0
 42
6.283185307179586
  0
ELLIPSE
  5
95CE
330
18
100
AcDbEntity
  8
DRAW2
100
AcDbEllipse
 10
1174.782781564509
 20
546.4781997700256
 30
0.0
 11
-24.0
 21
0.0
 31
0.0
210
0.0
220
0.0
230
1.0
 40
0.5000000000000048
 41
3.141592653589793
 42
6.283185307179586
  0
ELLIPSE
  5
95CF
330
18
100
AcDbEntity
  8
DRAW2
100
AcDbEllipse
 10
1174.782781564509
 20
540.4160219435346
 30
0.0
 11
-24.0
 21
0.0
 31
0.0
210
0.0
220
0.0
230
1.0
 40
0.5000000000000048
 41
2.465868132106844
 42
6.958909828662493
  0
ELLIPSE
  5
95D0
330
18
100
AcDbEntity
  8
DRAW2
100
AcDbEllipse
 10
1174.782781564509
 20
538.6839711359657
 30
0.0
 11
-22.00000000000005
 21
0.0
 31
0.0
210
0.0
220
0.0
230
1.0
 40
0.5000000000000039
 41
4.841887374188705
 42
6.677285688973408
  0
ELLIPSE
  5
95D1
330
18
100
AcDbEntity
  8
DRAW2
100
AcDbEllipse
 10
1174.782781564509
 20
237.910161830305
 30
0.0
 11
-4.863999999999975
 21
0.0
 31
0.0
210
0.0
220
0.0
230
1.0
 40
0.8660254037844353
 41
0.1921994349288168
 42
2.949393218661002
  0
ELLIPSE
  5
95D2
330
18
100
AcDbEntity
  8
DRAW2
100
AcDbEllipse
 10
1174.782781564509
 20
239.425161830305
 30
0.0
 11
-4.958687499999939
 21
0.0
 31
0.0
210
0.0
220
0.0
230
1.0
 40
0.8660254037844561
 41
0.8874547004822764
 42
2.254137953107516
  0
ELLIPSE
  5
95D3
330
18
100
AcDbEntity
  8
DRAW2
100
AcDbEllipse
 10
1174.782781564509
 20
243.425161830305
 30
0.0
 11
-4.200000000000045
 21
0.0
 31
0.0
210
0.0
220
0.0
230
1.0
 40
0.8660254037844483
 41
0.4078566933202824
 42
2.73373596026951
  0
ELLIPSE
  5
95D4
330
18
100
AcDbEntity
  8
DRAW2
100
AcDbEllipse
 10
1174.782781564509
 20
244.763411830305
 30
0.0
 11
-5.0
 21
0.0
 31
0.0
210
0.0
220
0.0
230
1.0
 40
0.8660254037844424
 41
6.986721980372577
 42
7.717884243034271
  0
ELLIPSE
  5
95D5
330
18
100
AcDbEntity
  8
DRAW2
100
AcDbEllipse
 10
1174.782781564509
 20
244.763411830305
 30
0.0
 11
-5.0
 21
0.0
 31
0.0
210
0.0
220
0.0
230
1.0
 40
0.8660254037844424
 41
1.706893717735108
 42
2.438055980396802
  0
SPLINE
  5
95D6
330
18
100
AcDbEntity
  8
DRAW3
100
AcDbSpline
210
0.0
220
0.0
230
1.0
 70
     8
 71
     3
 72
    11
 73
     7
 74
     5
 42
0.0000000001
 43
0.0000000001
 44
0.0000000001
 40
0.0
 40
0.0
 40
0.0
 40
0.0
 40
2.271842036502724
 40
4.965543950268447
 40
6.346702938568979
 40
8.419974329072278
 40
8.419974329072278
 40
8.419974329072278
 40
8.419974329072278
 10
1171.782781564509
 20
276.350414856339
 30
0.0
 10
1172.40283475521
 20
275.633807954149
 30
0.0
 10
1173.75807923104
 20
274.0675269316499
 30
0.0
 10
1175.015318422319
 20
276.5909430150185
 30
0.0
 10
1176.268720985085
 20
278.6957285191685
 30
0.0
 10
1177.214903879747
 20
277.4986095468493
 30
0.0
 10
1177.782781564509
 20
276.7801256742065
 30
0.0
 11
1171.782781564509
 21
276.350414856339
 31
0.0
 11
1173.565154944782
 21
274.941723487687
 31
0.0
 11
1175.285605883348
 21
277.0144218661814
 31
0.0
 11
1176.166297665704
 21
278.0783683570604
 31
0.0
 11
1177.782781564509
 21
276.7801256742065
 31
0.0
  0
ELLIPSE
  5
95D7
330
18
100
AcDbEntity
  8
DRAW2
100
AcDbEllipse
 10
1174.782781564509
 20
250.7950013303051
 30
0.0
 11
-3.0
 21
0.0
 31
0.0
210
0.0
220
0.0
230
1.0
 40
0.8660254037844575
 41
0.0
 42
3.141592653589793
  0
ELLIPSE
  5
95D8
330
18
100
AcDbEntity
  8
DRAW2
100
AcDbEllipse
 10
1174.782781564509
 20
250.795001330305
 30
0.0
 11
-5.461324999999987
 21
0.0
 31
0.0
210
0.0
220
0.0
230
1.0
 40
0.8660254037844396
 41
5.293935927985154
 42
10.41402733996381
  0
ELLIPSE
  5
95D9
330
18
100
AcDbEntity
  8
DRAW2
100
AcDbEllipse
 10
1174.782781564509
 20
249.295001330305
 30
0.0
 11
-5.75
 21
0.0
 31
0.0
210
0.0
220
0.0
230
1.0
 40
0.8660254037844346
 41
0.0
 42
3.141592653589793
  0
ELLIPSE
  5
95DA
330
18
100
AcDbEntity
  8
DRAW2
100
AcDbEllipse
 10
1174.782781564509
 20
250.545001330305
 30
0.0
 11
-5.75
 21
0.0
 31
0.0
210
0.0
220
0.0
230
1.0
 40
0.8660254037844346
 41
5.261277252027786
 42
10.44668601592117
  0
ELLIPSE
  5
95DB
330
18
100
AcDbEntity
  8
DRAW2
100
AcDbEllipse
 10
1158.328298892651
 20
226.5848442829996
 30
0.0
 11
3.5
 21
0.0
 31
0.0
210
0.0
220
0.0
230
-1.0
 40
0.8660254037844035
 41
2.134268285972773
 42
7.290509674796649
  0
ELLIPSE
  5
95DC
330
18
100
AcDbEntity
  8
DRAW2
100
AcDbEllipse
 10
1191.23726423646
 20
226.5848442829996
 30
0.0
 11
3.5
 21
0.0
 31
0.0
210
0.0
220
0.0
230
-1.0
 40
0.8660254037844035
 41
2.134268285972773
 42
7.290509674796649
  0
ELLIPSE
  5
95DD
330
18
100
AcDbEntity
  8
DRAW2
100
AcDbEllipse
 10
1174.782781564509
 20
235.3120856189518
 30
0.0
 11
-22.0
 21
0.0
 31
0.0
210
0.0
220
0.0
230
1.0
 40
0.8660254037844403
 41
9.030677578975144
 42
10.80776215687865
  0
ELLIPSE
  5
95DE
330
18
100
AcDbEntity
  8
DRAW2
100
AcDbEllipse
 10
1174.782781564509
 20
235.3120856189518
 30
0.0
 11
-22.0
 21
0.0
 31
0.0
210
0.0
220
0.0
230
1.0
 40
0.8660254037844403
 41
6.936282476581923
 42
8.771680791366822
  0
ELLIPSE
  5
95DF
330
18
100
AcDbEntity
  8
DRAW2
100
AcDbEllipse
 10
1191.237264236414
 20
227.0848442829995
 30
0.0
 11
-4.0
 21
0.0
 31
0.0
210
0.0
220
0.0
230
1.0
 40
0.8660254037844197
 41
0.0
 42
6.283185307179586
  0
ELLIPSE
  5
95E0
330
18
100
AcDbEntity
  8
DRAW2
100
AcDbEllipse
 10
1158.328298892605
 20
227.0848442829995
 30
0.0
 11
-4.0
 21
0.0
 31
0.0
210
0.0
220
0.0
230
1.0
 40
0.8660254037844197
 41
0.0
 42
6.283185307179586
  0
ELLIPSE
  5
95E1
330
18
100
AcDbEntity
  8
DRAW2
100
AcDbEllipse
 10
1174.782781564509
 20
234.3120856189518
 30
0.0
 11
24.0
 21
0.0
 31
0.0
210
0.0
220
0.0
230
1.0
 40
0.8660254037844387
 41
1.696124157962961
 42
7.728653802806417
  0
ELLIPSE
  5
95E2
330
18
100
AcDbEntity
  8
DRAW2
100
AcDbEllipse
 10
1174.782781564509
 20
235.3120856189518
 30
0.0
 11
-22.0
 21
0.0
 31
0.0
210
0.0
220
0.0
230
1.0
 40
0.8660254037844403
 41
4.900201111070314
 42
6.677285688973841
  0
ELLIPSE
  5
95E3
330
18
100
AcDbEntity
  8
DRAW2
100
AcDbEllipse
 10
1184.78278156451
 20
169.2493176344347
 30
0.0
 11
4.999999999999943
 21
-0.0000000000000804
 31
0.0
210
0.0
220
0.0
230
-1.0
 40
0.7071067811865613
 41
0.0
 42
6.283185307179586
  0
ELLIPSE
  5
95E4
330
18
100
AcDbEntity
  8
DRAW2
100
AcDbEllipse
 10
1184.78278156451
 20
170.2462067075616
 30
0.0
 11
5.000000000000028
 21
0.000000000000087
 31
0.0
210
0.0
220
0.0
230
-1.0
 40
0.6533929634855915
 41
3.141592653589793
 42
6.283185307179586
  0
ELLIPSE
  5
95E5
330
18
100
AcDbEntity
  8
DRAW2
100
AcDbEllipse
 10
1164.78278156451
 20
170.2462067075616
 30
0.0
 11
-5.000000000000028
 21
0.000000000000087
 31
0.0
210
0.0
220
0.0
230
1.0
 40
0.6533929634855915
 41
3.141592653589793
 42
6.283185307179586
  0
ELLIPSE
  5
95E6
330
18
100
AcDbEntity
  8
DRAW2
100
AcDbEllipse
 10
1164.78278156451
 20
169.2493176344347
 30
0.0
 11
-4.999999999999943
 21
-0.0000000000000804
 31
0.0
210
0.0
220
0.0
230
1.0
 40
0.7071067811865613
 41
0.0
 42
6.283185307179586
  0
CIRCLE
  5
95E8
330
18
100
AcDbEntity
  8
DRAW2
100
AcDbCircle
 10
1152.782781564509
 20
192.8685105843164
 30
0.0
 40
10.5
  0
CIRCLE
  5
95E9
330
18
100
AcDbEntity
  8
DRAW2
100
AcDbCircle
 10
1152.782781564509
 20
192.8685105843164
 30
0.0
 40
7.0
  0
CIRCLE
  5
95EA
330
18
100
AcDbEntity
  8
DRAW2
100
AcDbCircle
 10
1152.782781564509
 20
192.8685105843164
 30
0.0
 40
5.694887103024191
  0
CIRCLE
  5
95EB
330
18
100
AcDbEntity
  8
DRAW3
100
AcDbCircle
 10
1152.782781564509
 20
192.8685105843164
 30
0.0
 40
6.578500006249994
  0
CIRCLE
  5
95EC
330
18
100
AcDbEntity
  8
DRAW2
100
AcDbCircle
 10
1152.782781564509
 20
192.8685105843164
 30
0.0
 40
11.0
  0
LINE
  5
95EE
330
18
100
AcDbEntity
  8
DRAW2
100
AcDbLine
 10
1138.28278156451
 20
258.868510584317
 30
0.0
 11
1171.782794730464
 21
258.868510584317
 31
0.0
  0
LINE
  5
95EF
330
18
100
AcDbEntity
  8
DRAW2
100
AcDbLine
 10
1138.28278156451
 20
273.1505428870713
 30
0.0
 11
1171.782794730465
 21
273.1505428870713
 31
0.0
  0
LINE
  5
95F0
330
18
100
AcDbEntity
  8
DRAW2
100
AcDbLine
 10
1138.28278156451
 20
158.868510584317
 30
0.0
 11
1174.78278156451
 21
158.868510584317
 31
0.0
  0
LINE
  5
95F4
330
18
100
AcDbEntity
  8
DRAW2
100
AcDbLine
 10
1117.282781564509
 20
283.1505428870717
 30
0.0
 11
1232.28278156451
 21
283.1505428870717
 31
0.0
  0
LINE
  5
95F6
330
18
100
AcDbEntity
  8
DRAW2
100
AcDbLine
 10
1138.28278156451
 20
144.5864782815611
 30
0.0
 11
1211.282781564509
 21
144.5864782815607
 31
0.0
  0
LINE
  5
95F7
330
18
100
AcDbEntity
  8
DRAW2
100
AcDbLine
 10
1117.282781564509
 20
134.586478281561
 30
0.0
 11
1232.28278156451
 21
134.5864782815612
 31
0.0
  0
LINE
  5
95F9
330
18
100
AcDbEntity
  8
DRAW2
100
AcDbLine
 10
1127.782781564509
 20
118.1185105843162
 30
0.0
 11
1221.78278156451
 21
118.1185105843163
 31
0.0
  0
LINE
  5
95FA
330
18
100
AcDbEntity
  8
DRAW2
100
AcDbLine
 10
1127.782781564509
 20
93.61851058431648
 30
0.0
 11
1221.78278156451
 21
93.61851058431637
 31
0.0
  0
LINE
  5
95FB
330
18
100
AcDbEntity
  8
DRAW2
100
AcDbLine
 10
1127.782781564509
 20
324.1185105843169
 30
0.0
 11
1221.78278156451
 21
324.118510584317
 31
0.0
  0
LINE
  5
95FC
330
18
100
AcDbEntity
  8
DRAW2
100
AcDbLine
 10
1127.782781564509
 20
299.6185105843171
 30
0.0
 11
1221.78278156451
 21
299.618510584317
 31
0.0
  0
LINE
  5
95FE
330
18
100
AcDbEntity
  8
DRAW2
100
AcDbLine
 10
1136.28278156451
 20
254.7977037021976
 30
0.0
 11
1136.28278156451
 21
211.3685105843185
 31
0.0
  0
LINE
  5
95FF
330
18
100
AcDbEntity
  8
DRAW2
100
AcDbLine
 10
1118.78278156451
 20
254.7977037021976
 30
0.0
 11
1118.78278156451
 21
211.3685105843185
 31
0.0
  0
LINE
  5
9601
330
18
100
AcDbEntity
  8
DRAW2
100
AcDbLine
 10
1079.78278156451
 20
294.8685105843172
 30
0.0
 11
1079.78278156451
 21
208.8685105843172
 31
0.0
  0
LINE
  5
9602
330
18
100
AcDbEntity
  8
DRAW2
100
AcDbLine
 10
1138.28278156451
 20
208.8685105843164
 30
0.0
 11
1138.28278156451
 21
274.3685105843165
 31
0.0
  0
LINE
  5
9603
330
18
100
AcDbEntity
  8
DRAW2
100
AcDbLine
 10
1117.28278156451
 20
294.8685105843172
 30
0.0
 11
1117.28278156451
 21
208.8685105843164
 31
0.0
  0
LINE
  5
9604
330
18
100
AcDbEntity
  8
DRAW2
100
AcDbLine
 10
1117.782781564511
 20
208.8685105843164
 30
0.0
 11
1117.78278156451
 21
275.3685105843166
 31
0.0
  0
LINE
  5
9605
330
18
100
AcDbEntity
  8
DRAW2
100
AcDbLine
 10
1136.28278156451
 20
159.4037835605061
 30
0.0
 11
1136.28278156451
 21
141.3685105843178
 31
0.0
  0
LINE
  5
9606
330
18
100
AcDbEntity
  8
DRAW2
100
AcDbLine
 10
1118.78278156451
 20
159.4037835605061
 30
0.0
 11
1118.78278156451
 21
141.3685105843179
 31
0.0
  0
LINE
  5
9607
330
18
100
AcDbEntity
  8
DRAW2
100
AcDbLine
 10
1117.782781564511
 20
208.8685105843164
 30
0.0
 11
1117.78278156451
 21
142.3685105843178
 31
0.0
  0
LINE
  5
9608
330
18
100
AcDbEntity
  8
DRAW2
100
AcDbLine
 10
1117.28278156451
 20
122.8685105843172
 30
0.0
 11
1117.28278156451
 21
208.8685105843164
 31
0.0
  0
LINE
  5
9609
330
18
100
AcDbEntity
  8
DRAW2
100
AcDbLine
 10
1138.28278156451
 20
208.8685105843164
 30
0.0
 11
1138.28278156451
 21
143.3685105843178
 31
0.0
  0
LINE
  5
960A
330
18
100
AcDbEntity
  8
DRAW2
100
AcDbLine
 10
1047.78278156451
 20
150.586478281561
 30
0.0
 11
1049.78278156451
 21
152.586478281561
 31
0.0
  0
LINE
  5
960B
330
18
100
AcDbEntity
  8
DRAW2
100
AcDbLine
 10
1049.78278156451
 20
152.586478281561
 30
0.0
 11
1049.78278156451
 21
126.586478281561
 31
0.0
  0
LINE
  5
960C
330
18
100
AcDbEntity
  8
DRAW2
100
AcDbLine
 10
1079.78278156451
 20
122.8685105843172
 30
0.0
 11
1079.78278156451
 21
208.8685105843172
 31
0.0
  0
LINE
  5
960D
330
18
100
AcDbEntity
  8
DRAW2
100
AcDbLine
 10
1088.28276656451
 20
108.8684505843169
 30
0.0
 11
1109.28279656451
 21
108.8684505843169
 31
0.0
  0
LINE
  5
960E
330
18
100
AcDbEntity
  8
DRAW2
100
AcDbLine
 10
1088.28273656451
 20
108.8684205843168
 30
0.0
 11
1090.282736564509
 21
110.8684205843168
 31
0.0
  0
LINE
  5
960F
330
18
100
AcDbEntity
  8
DRAW2
100
AcDbLine
 10
1079.78278156451
 20
88.86851058431592
 30
0.0
 11
1127.78278156451
 21
88.86851058431636
 31
0.0
  0
LINE
  5
9610
102
{ACAD_REACTORS
330
99BD
102
}
330
18
100
AcDbEntity
  8
DRAW2
100
AcDbLine
 10
1080.78278156451
 20
83.86851058431636
 30
0.0
 11
1116.78278156451
 21
83.86851058431636
 31
0.0
  0
LINE
  5
9611
102
{ACAD_REACTORS
330
99BD
102
}
330
18
100
AcDbEntity
  8
DRAW2
100
AcDbLine
 10
1082.78278156451
 20
73.86851058431637
 30
0.0
 11
1114.78278156451
 21
73.86851058431637
 31
0.0
  0
LINE
  5
9612
102
{ACAD_REACTORS
330
99BD
102
}
330
18
100
AcDbEntity
  8
DRAW2
100
AcDbLine
 10
1085.505156406125
 20
53.86851058431637
 30
0.0
 11
1112.060406722894
 21
53.86851058431637
 31
0.0
  0
LINE
  5
9613
330
18
100
AcDbEntity
  8
DRAW2
100
AcDbLine
 10
1127.782781564509
 20
122.8685105843159
 30
0.0
 11
1079.78278156451
 21
122.868510584316
 31
0.0
  0
LINE
  5
9614
330
18
100
AcDbEntity
  8
DRAW2
100
AcDbLine
 10
1127.78278156451
 20
83.86851058431636
 30
0.0
 11
1079.78278156451
 21
83.86851058431636
 31
0.0
  0
LINE
  5
9615
330
18
100
AcDbEntity
  8
DRAW2
100
AcDbLine
 10
1088.28276656451
 20
88.86848058431695
 30
0.0
 11
1088.28276656451
 21
108.8685105843168
 31
0.0
  0
LINE
  5
9616
330
18
100
AcDbEntity
  8
DRAW2
100
AcDbLine
 10
1079.78278156451
 20
88.86851058431592
 30
0.0
 11
1079.78278156451
 21
122.868510584316
 31
0.0
  0
ARC
  5
9617
102
{ACAD_REACTORS
330
99BD
102
}
330
18
100
AcDbEntity
  8
DRAW2
100
AcDbCircle
 10
1180.78278156451
 20
81.32679112287252
 30
0.0
 40
100.0
100
AcDbArc
 50
180.0
 51
188.5307656099486
  0
LINE
  5
9618
102
{ACAD_REACTORS
330
99BD
102
}
330
18
100
AcDbEntity
  8
DRAW2
100
AcDbLine
 10
1081.88914627768
 20
66.4927458298481
 30
0.0
 11
1083.527283700389
 21
55.57182967845585
 31
0.0
  0
ARC
  5
9619
102
{ACAD_REACTORS
330
99BD
102
}
330
18
100
AcDbEntity
  8
DRAW2
100
AcDbCircle
 10
1085.505156406125
 20
55.86851058431637
 30
0.0
 40
2.0
100
AcDbArc
 50
188.5307656099486
 51
270.0
  0
LINE
  5
961A
330
18
100
AcDbEntity
  8
DRAW2
100
AcDbLine
 10
1084.78278156451
 20
83.86851058431636
 30
0.0
 11
1084.78278156451
 21
88.86851058431636
 31
0.0
  0
LINE
  5
961B
102
{ACAD_REACTORS
330
99BD
102
}
330
18
100
AcDbEntity
  8
DRAW2
100
AcDbLine
 10
1080.78278156451
 20
83.86851058431636
 30
0.0
 11
1080.78278156451
 21
81.32679112287252
 31
0.0
  0
LINE
  5
961C
330
18
100
AcDbEntity
  8
DRAW2
100
AcDbLine
 10
1079.78278156451
 20
83.86851058431636
 30
0.0
 11
1079.78278156451
 21
88.86851058431636
 31
0.0
  0
LINE
  5
961D
330
18
100
AcDbEntity
  8
DRAW2
100
AcDbLine
 10
1049.78278156451
 20
126.586478281561
 30
0.0
 11
1074.78278156451
 21
126.586478281561
 31
0.0
  0
LINE
  5
961E
330
18
100
AcDbEntity
  8
DRAW2
100
AcDbLine
 10
1047.78278156451
 20
128.586478281561
 30
0.0
 11
1049.78278156451
 21
126.586478281561
 31
0.0
  0
LINE
  5
961F
330
18
100
AcDbEntity
  8
DRAW2
100
AcDbLine
 10
1047.78278156451
 20
150.586478281561
 30
0.0
 11
1047.78278156451
 21
128.586478281561
 31
0.0
  0
LINE
  5
9620
330
18
100
AcDbEntity
  8
DRAW2
100
AcDbLine
 10
1109.28279656451
 20
88.86848058431695
 30
0.0
 11
1109.28279656451
 21
108.8685105843168
 31
0.0
  0
LINE
  5
9621
330
18
100
AcDbEntity
  8
DRAW2
100
AcDbLine
 10
1127.782781564509
 20
88.86851058431592
 30
0.0
 11
1127.782781564509
 21
122.8685105843159
 31
0.0
  0
ARC
  5
9622
102
{ACAD_REACTORS
330
99BD
102
}
330
18
100
AcDbEntity
  8
DRAW2
100
AcDbCircle
 10
1016.782781564509
 20
81.32679112287252
 30
0.0
 40
100.0
100
AcDbArc
 50
351.4692343900513
 51
0.0
  0
LINE
  5
9623
102
{ACAD_REACTORS
330
99BD
102
}
330
18
100
AcDbEntity
  8
DRAW2
100
AcDbLine
 10
1115.676416851339
 20
66.4927458298481
 30
0.0
 11
1114.03827942863
 21
55.57182967845585
 31
0.0
  0
ARC
  5
9624
102
{ACAD_REACTORS
330
99BD
102
}
330
18
100
AcDbEntity
  8
DRAW2
100
AcDbCircle
 10
1112.060406722894
 20
55.86851058431637
 30
0.0
 40
2.0
100
AcDbArc
 50
270.0
 51
351.4692343900513
  0
LINE
  5
9625
102
{ACAD_REACTORS
330
99BD
102
}
330
18
100
AcDbEntity
  8
DRAW2
100
AcDbLine
 10
1116.78278156451
 20
83.86851058431636
 30
0.0
 11
1116.78278156451
 21
81.32679112287252
 31
0.0
  0
LINE
  5
9626
330
18
100
AcDbEntity
  8
DRAW2
100
AcDbLine
 10
1122.78278156451
 20
83.86851058431636
 30
0.0
 11
1122.78278156451
 21
88.86851058431636
 31
0.0
  0
LINE
  5
9627
330
18
100
AcDbEntity
  8
DRAW2
100
AcDbLine
 10
1127.78278156451
 20
88.86851058431636
 30
0.0
 11
1127.78278156451
 21
83.86851058431636
 31
0.0
  0
LINE
  5
9628
330
18
100
AcDbEntity
  8
DRAW2
100
AcDbLine
 10
1136.28278156451
 20
141.3685105843178
 30
0.0
 11
1118.78278156451
 21
141.3685105843178
 31
0.0
  0
LINE
  5
9629
330
18
100
AcDbEntity
  8
DRAW2
100
AcDbLine
 10
1090.28276656451
 20
110.8684805843168
 30
0.0
 11
1107.28279656451
 21
110.8684805843168
 31
0.0
  0
LINE
  5
962A
330
18
100
AcDbEntity
  8
DRAW2
100
AcDbLine
 10
1107.28267656451
 20
110.8684805843168
 30
0.0
 11
1109.28267656451
 21
108.8684805843168
 31
0.0
  0
LINE
  5
962B
330
18
100
AcDbEntity
  8
DRAW2
100
AcDbLine
 10
1117.78278156451
 20
142.3685105843178
 30
0.0
 11
1118.78278156451
 21
141.3685105843178
 31
0.0
  0
LINE
  5
962C
330
18
100
AcDbEntity
  8
DRAW2
100
AcDbLine
 10
1136.28278156451
 20
141.3685105843178
 30
0.0
 11
1138.28278156451
 21
143.3685105843178
 31
0.0
  0
LINE
  5
962D
330
18
100
AcDbEntity
  8
DRAW2
100
AcDbLine
 10
1047.78278156451
 20
219.8685105843164
 30
0.0
 11
1047.78278156451
 21
197.8685105843164
 31
0.0
  0
LINE
  5
962E
330
18
100
AcDbEntity
  8
DRAW2
100
AcDbLine
 10
1049.78278156451
 20
221.8685105843164
 30
0.0
 11
1049.78278156451
 21
195.8685105843164
 31
0.0
  0
LINE
  5
962F
330
18
100
AcDbEntity
  8
DRAW2
100
AcDbLine
 10
1049.78278156451
 20
195.8685105843164
 30
0.0
 11
1074.78278156451
 21
195.8685105843164
 31
0.0
  0
LINE
  5
9630
330
18
100
AcDbEntity
  8
DRAW2
100
AcDbLine
 10
1074.78278156451
 20
152.586478281561
 30
0.0
 11
1049.78278156451
 21
152.586478281561
 31
0.0
  0
LINE
  5
9631
330
18
100
AcDbEntity
  8
DRAW2
100
AcDbLine
 10
1047.78278156451
 20
197.8685105843164
 30
0.0
 11
1049.78278156451
 21
195.8685105843164
 31
0.0
  0
LINE
  5
9632
330
18
100
AcDbEntity
  8
DRAW2
100
AcDbLine
 10
1074.78278156451
 20
221.8685105843164
 30
0.0
 11
1049.78278156451
 21
221.8685105843164
 31
0.0
  0
LINE
  5
9633
330
18
100
AcDbEntity
  8
DRAW2
100
AcDbLine
 10
1047.78278156451
 20
219.8685105843164
 30
0.0
 11
1049.78278156451
 21
221.8685105843164
 31
0.0
  0
LINE
  5
9634
330
18
100
AcDbEntity
  8
DRAW2
100
AcDbLine
 10
1118.78278156451
 20
206.3685105843221
 30
0.0
 11
1118.78278156451
 21
162.9393174664357
 31
0.0
  0
LINE
  5
9635
330
18
100
AcDbEntity
  8
DRAW2
100
AcDbLine
 10
1136.28278156451
 20
206.3685105843221
 30
0.0
 11
1136.28278156451
 21
162.9393174664357
 31
0.0
  0
LINE
  5
9637
330
18
100
AcDbEntity
  8
DRAW2
100
AcDbLine
 10
1138.28278156451
 20
162.9393174664357
 30
0.0
 11
1117.78278156451
 21
162.9393174664357
 31
0.0
  0
LINE
  5
9638
330
18
100
AcDbEntity
  8
DRAW2
100
AcDbLine
 10
1138.28278156451
 20
159.4037835605061
 30
0.0
 11
1117.78278156451
 21
159.4037835605061
 31
0.0
  0
CIRCLE
  5
9639
330
18
100
AcDbEntity
  8
DRAW2
100
AcDbCircle
 10
1152.782781564509
 20
192.8685105843164
 30
0.0
 40
2.5
  0
LINE
  5
963A
330
18
100
AcDbEntity
  8
DRAW2
100
AcDbLine
 10
1146.07457763201
 20
194.868510584317
 30
0.0
 11
1142.475017500465
 21
194.868510584317
 31
0.0
  0
LINE
  5
963B
330
18
100
AcDbEntity
  8
DRAW2
100
AcDbLine
 10
1146.07457763201
 20
190.8685105843169
 30
0.0
 11
1142.475017500465
 21
190.8685105843169
 31
0.0
  0
LINE
  5
963C
330
18
100
AcDbEntity
  8
DRAW2
100
AcDbLine
 10
1117.782781564511
 20
206.3685105843221
 30
0.0
 11
1138.28278156451
 21
206.3685105843221
 31
0.0
  0
LINE
  5
963D
330
18
100
AcDbEntity
  8
DRAW2
100
AcDbLine
 10
1117.782781564511
 20
211.3685105843185
 30
0.0
 11
1138.28278156451
 21
211.3685105843185
 31
0.0
  0
LINE
  5
9641
330
18
100
AcDbEntity
  8
DRAW2
100
AcDbLine
 10
1150.782781564509
 20
230.8120856189518
 30
0.0
 11
1150.782781564509
 21
234.3120856189518
 31
0.0
  0
LINE
  5
9642
330
18
100
AcDbEntity
  8
DRAW2
100
AcDbLine
 10
1104.78278156451
 20
352.8685105843176
 30
0.0
 11
1106.78278156451
 21
350.8685105843176
 31
0.0
  0
LINE
  5
9643
330
18
100
AcDbEntity
  8
DRAW2
100
AcDbLine
 10
1092.78278156451
 20
352.8685105843176
 30
0.0
 11
1090.78278156451
 21
350.8685105843176
 31
0.0
  0
LINE
  5
9645
330
18
100
AcDbEntity
  8
DRAW2
100
AcDbLine
 10
1127.782781564509
 20
294.8685105843174
 30
0.0
 11
1079.78278156451
 21
294.8685105843173
 31
0.0
  0
LINE
  5
9646
330
18
100
AcDbEntity
  8
DRAW2
100
AcDbLine
 10
1079.78278156451
 20
328.8685105843175
 30
0.0
 11
1079.78278156451
 21
294.8685105843173
 31
0.0
  0
LINE
  5
9647
330
18
100
AcDbEntity
  8
DRAW2
100
AcDbLine
 10
1074.78278156451
 20
291.1505428870717
 30
0.0
 11
1049.78278156451
 21
291.1505428870718
 31
0.0
  0
LINE
  5
9648
330
18
100
AcDbEntity
  8
DRAW2
100
AcDbLine
 10
1049.78278156451
 20
265.1505428870718
 30
0.0
 11
1074.78278156451
 21
265.1505428870717
 31
0.0
  0
LINE
  5
9649
330
18
100
AcDbEntity
  8
DRAW2
100
AcDbLine
 10
1047.78278156451
 20
289.1505428870718
 30
0.0
 11
1047.78278156451
 21
267.1505428870718
 31
0.0
  0
LINE
  5
964A
330
18
100
AcDbEntity
  8
DRAW2
100
AcDbLine
 10
1049.78278156451
 20
291.1505428870718
 30
0.0
 11
1049.78278156451
 21
265.1505428870717
 31
0.0
  0
LINE
  5
964B
330
18
100
AcDbEntity
  8
DRAW2
100
AcDbLine
 10
1047.78278156451
 20
267.1505428870718
 30
0.0
 11
1049.78278156451
 21
265.1505428870718
 31
0.0
  0
LINE
  5
964C
330
18
100
AcDbEntity
  8
DRAW2
100
AcDbLine
 10
1047.78278156451
 20
289.1505428870718
 30
0.0
 11
1049.78278156451
 21
291.1505428870718
 31
0.0
  0
LINE
  5
964D
330
18
100
AcDbEntity
  8
DRAW2
100
AcDbLine
 10
1127.782781564509
 20
328.8685105843175
 30
0.0
 11
1127.782781564509
 21
294.8685105843174
 31
0.0
  0
LINE
  5
964E
330
18
100
AcDbEntity
  8
DRAW2
100
AcDbLine
 10
1117.78278156451
 20
254.7977037021976
 30
0.0
 11
1138.28278156451
 21
254.7977037021976
 31
0.0
  0
LINE
  5
964F
330
18
100
AcDbEntity
  8
DRAW2
100
AcDbLine
 10
1117.78278156451
 20
258.333237608127
 30
0.0
 11
1138.28278156451
 21
258.3332376081272
 31
0.0
  0
LINE
  5
9650
330
18
100
AcDbEntity
  8
DRAW2
100
AcDbLine
 10
1136.28278156451
 20
276.3685105843165
 30
0.0
 11
1118.78278156451
 21
276.3685105843165
 31
0.0
  0
LINE
  5
9651
330
18
100
AcDbEntity
  8
DRAW2
100
AcDbLine
 10
1118.78278156451
 20
276.3685105843167
 30
0.0
 11
1118.78278156451
 21
258.333237608127
 31
0.0
  0
LINE
  5
9652
330
18
100
AcDbEntity
  8
DRAW2
100
AcDbLine
 10
1117.78278156451
 20
275.3685105843166
 30
0.0
 11
1118.78278156451
 21
276.3685105843165
 31
0.0
  0
LINE
  5
9653
330
18
100
AcDbEntity
  8
DRAW2
100
AcDbLine
 10
1136.28278156451
 20
276.3685105843167
 30
0.0
 11
1136.28278156451
 21
258.3332376081272
 31
0.0
  0
LINE
  5
9654
330
18
100
AcDbEntity
  8
DRAW2
100
AcDbLine
 10
1136.28278156451
 20
276.3685105843165
 30
0.0
 11
1138.28278156451
 21
274.3685105843165
 31
0.0
  0
LINE
  5
9658
330
18
100
AcDbEntity
  8
DRAW2
100
AcDbLine
 10
1106.78278156451
 20
350.8685105843176
 30
0.0
 11
1090.78278156451
 21
350.8685105843176
 31
0.0
  0
LINE
  5
9659
330
18
100
AcDbEntity
  8
DRAW2
100
AcDbLine
 10
1106.78278156451
 20
333.8685105843176
 30
0.0
 11
1090.78278156451
 21
333.8685105843176
 31
0.0
  0
LINE
  5
965A
330
18
100
AcDbEntity
  8
DRAW2
100
AcDbLine
 10
1090.78278156451
 20
333.8685105843176
 30
0.0
 11
1090.78278156451
 21
350.8685105843176
 31
0.0
  0
LINE
  5
965B
330
18
100
AcDbEntity
  8
DRAW2
100
AcDbLine
 10
1106.78278156451
 20
350.8685105843176
 30
0.0
 11
1106.78278156451
 21
333.8685105843176
 31
0.0
  0
LINE
  5
965C
330
18
100
AcDbEntity
  8
DRAW2
100
AcDbLine
 10
1092.78278156451
 20
352.8685105843176
 30
0.0
 11
1104.78278156451
 21
352.8685105843176
 31
0.0
  0
LINE
  5
965D
330
18
100
AcDbEntity
  8
DRAW2
100
AcDbLine
 10
1180.766014456622
 20
245.8505149574379
 30
0.0
 11
1180.766014456622
 21
251.7394877031721
 31
0.0
  0
LINE
  5
965E
330
18
100
AcDbEntity
  8
DRAW2
100
AcDbLine
 10
1168.799548672397
 20
251.7394877031721
 30
0.0
 11
1168.799548672397
 21
245.8505149574379
 31
0.0
  0
LINE
  5
965F
330
18
100
AcDbEntity
  8
DRAW2
100
AcDbLine
 10
1177.782781564509
 20
250.7950013303051
 30
0.0
 11
1177.782781564509
 21
276.7801256742064
 31
0.0
  0
LINE
  5
9660
330
18
100
AcDbEntity
  8
DRAW2
100
AcDbLine
 10
1171.782781564509
 20
250.7950013303051
 30
0.0
 11
1171.782781564509
 21
276.350414856339
 31
0.0
  0
LINE
  5
9662
330
18
100
AcDbEntity
  8
DRAW2
100
AcDbLine
 10
1230.782781564509
 20
254.7977037021976
 30
0.0
 11
1230.782781564509
 21
211.3685105843185
 31
0.0
  0
LINE
  5
9663
330
18
100
AcDbEntity
  8
DRAW2
100
AcDbLine
 10
1213.282781564509
 20
254.7977037021976
 30
0.0
 11
1213.282781564509
 21
211.3685105843185
 31
0.0
  0
LINE
  5
9665
330
18
100
AcDbEntity
  8
DRAW2
100
AcDbLine
 10
1269.782781564509
 20
294.8685105843173
 30
0.0
 11
1269.78278156451
 21
208.8685105843174
 31
0.0
  0
LINE
  5
9666
330
18
100
AcDbEntity
  8
DRAW2
100
AcDbLine
 10
1231.782781564508
 20
208.8685105843164
 30
0.0
 11
1231.782781564509
 21
275.3685105843167
 31
0.0
  0
LINE
  5
9667
330
18
100
AcDbEntity
  8
DRAW2
100
AcDbLine
 10
1211.282781564509
 20
208.8685105843164
 30
0.0
 11
1211.282781564509
 21
274.3685105843167
 31
0.0
  0
LINE
  5
9668
330
18
100
AcDbEntity
  8
DRAW2
100
AcDbLine
 10
1232.28278156451
 20
294.8685105843173
 30
0.0
 11
1232.28278156451
 21
208.8685105843164
 31
0.0
  0
LINE
  5
966A
102
{ACAD_REACTORS
330
99BA
102
}
330
18
100
AcDbEntity
  8
DRAW2
100
AcDbLine
 10
1271.28278156451
 20
90.36851058431535
 30
0.0
 11
1321.78278156451
 21
90.36851058431535
 31
0.0
  0
LINE
  5
966B
102
{ACAD_REACTORS
330
99BA
102
}
330
18
100
AcDbEntity
  8
DRAW2
100
AcDbLine
 10
1271.28278156451
 20
121.3685105843153
 30
0.0
 11
1321.78278156451
 21
121.3685105843151
 31
0.0
  0
LINE
  5
966C
330
18
100
AcDbEntity
  8
DRAW2
100
AcDbLine
 10
1274.78278156451
 20
221.8685105843164
 30
0.0
 11
1299.78278156451
 21
221.8685105843164
 31
0.0
  0
LINE
  5
966D
330
18
100
AcDbEntity
  8
DRAW2
100
AcDbLine
 10
1299.78278156451
 20
195.8685105843164
 30
0.0
 11
1274.78278156451
 21
195.8685105843164
 31
0.0
  0
LINE
  5
966E
330
18
100
AcDbEntity
  8
DRAW2
100
AcDbLine
 10
1274.78278156451
 20
152.5864782815611
 30
0.0
 11
1299.78278156451
 21
152.5864782815611
 31
0.0
  0
LINE
  5
966F
330
18
100
AcDbEntity
  8
DRAW2
100
AcDbLine
 10
1299.78278156451
 20
126.5864782815611
 30
0.0
 11
1274.78278156451
 21
126.5864782815611
 31
0.0
  0
LINE
  5
9670
330
18
100
AcDbEntity
  8
DRAW2
100
AcDbLine
 10
1230.782781564509
 20
159.4037835605061
 30
0.0
 11
1230.782781564509
 21
141.3685105843179
 31
0.0
  0
LINE
  5
9671
330
18
100
AcDbEntity
  8
DRAW2
100
AcDbLine
 10
1213.282781564509
 20
159.4037835605061
 30
0.0
 11
1213.282781564509
 21
141.3685105843178
 31
0.0
  0
LINE
  5
9672
330
18
100
AcDbEntity
  8
DRAW2
100
AcDbLine
 10
1269.78278156451
 20
122.8685105843174
 30
0.0
 11
1269.78278156451
 21
208.8685105843174
 31
0.0
  0
LINE
  5
9673
330
18
100
AcDbEntity
  8
DRAW2
100
AcDbLine
 10
1211.282781564509
 20
208.8685105843164
 30
0.0
 11
1211.282781564509
 21
143.3685105843178
 31
0.0
  0
LINE
  5
9674
330
18
100
AcDbEntity
  8
DRAW2
100
AcDbLine
 10
1231.782781564508
 20
208.8685105843164
 30
0.0
 11
1231.782781564509
 21
142.3685105843179
 31
0.0
  0
LINE
  5
9675
330
18
100
AcDbEntity
  8
DRAW2
100
AcDbLine
 10
1232.28278156451
 20
122.8685105843172
 30
0.0
 11
1232.28278156451
 21
208.8685105843164
 31
0.0
  0
LINE
  5
9676
330
18
100
AcDbEntity
  8
DRAW2
100
AcDbLine
 10
1213.282781564509
 20
141.3685105843178
 30
0.0
 11
1230.782781564509
 21
141.3685105843179
 31
0.0
  0
LINE
  5
9678
330
18
100
AcDbEntity
  8
DRAW2
100
AcDbLine
 10
1213.282781564509
 20
141.3685105843178
 30
0.0
 11
1211.282781564509
 21
143.3685105843178
 31
0.0
  0
LINE
  5
9679
330
18
100
AcDbEntity
  8
DRAW2
100
AcDbLine
 10
1261.28279656451
 20
88.86848058431707
 30
0.0
 11
1261.28279656451
 21
108.8685105843169
 31
0.0
  0
LINE
  5
967A
330
18
100
AcDbEntity
  8
DRAW2
100
AcDbLine
 10
1240.28276656451
 20
88.86848058431707
 30
0.0
 11
1240.28276656451
 21
108.8685105843169
 31
0.0
  0
LINE
  5
967B
102
{ACAD_REACTORS
330
99BA
102
}
330
18
100
AcDbEntity
  8
DRAW2
100
AcDbLine
 10
1269.78278156451
 20
122.8685105843153
 30
0.0
 11
1269.782781564509
 21
88.86851058431535
 31
0.0
  0
LINE
  5
967C
102
{ACAD_REACTORS
330
99BA
102
}
330
18
100
AcDbEntity
  8
DRAW2
100
AcDbLine
 10
1221.782781564509
 20
88.86851058431535
 30
0.0
 11
1221.782781564509
 21
122.8685105843153
 31
0.0
  0
LINE
  5
967D
102
{ACAD_REACTORS
330
99BE
102
}
330
18
100
AcDbEntity
  8
DRAW2
100
AcDbLine
 10
1234.78278156451
 20
73.86851058431637
 30
0.0
 11
1266.78278156451
 21
73.86851058431637
 31
0.0
  0
LINE
  5
967E
102
{ACAD_REACTORS
330
99BE
102
}
330
18
100
AcDbEntity
  8
DRAW2
100
AcDbLine
 10
1232.78278156451
 20
83.86851058431636
 30
0.0
 11
1268.78278156451
 21
83.86851058431636
 31
0.0
  0
LINE
  5
967F
102
{ACAD_REACTORS
330
99BE
102
}
330
18
100
AcDbEntity
  8
DRAW2
100
AcDbLine
 10
1237.505156406125
 20
53.86851058431637
 30
0.0
 11
1264.060406722894
 21
53.86851058431637
 31
0.0
  0
LINE
  5
9680
102
{ACAD_REACTORS
330
99BA
102
}
330
18
100
AcDbEntity
  8
DRAW2
100
AcDbLine
 10
1221.782781564509
 20
88.86851058431535
 30
0.0
 11
1269.782781564509
 21
88.86851058431535
 31
0.0
  0
LINE
  5
9681
330
18
100
AcDbEntity
  8
DRAW2
100
AcDbLine
 10
1221.78278156451
 20
83.86851058431636
 30
0.0
 11
1269.78278156451
 21
83.86851058431636
 31
0.0
  0
ARC
  5
9682
102
{ACAD_REACTORS
330
99BE
102
}
330
18
100
AcDbEntity
  8
DRAW2
100
AcDbCircle
 10
1332.78278156451
 20
81.32679112287252
 30
0.0
 40
100.0
100
AcDbArc
 50
180.0
 51
188.5307656099486
  0
ARC
  5
9683
102
{ACAD_REACTORS
330
99BE
102
}
330
18
100
AcDbEntity
  8
DRAW2
100
AcDbCircle
 10
1237.505156406125
 20
55.86851058431637
 30
0.0
 40
2.0
100
AcDbArc
 50
188.5307656099486
 51
270.0
  0
LINE
  5
9684
102
{ACAD_REACTORS
330
99BE
102
}
330
18
100
AcDbEntity
  8
DRAW2
100
AcDbLine
 10
1233.88914627768
 20
66.4927458298481
 30
0.0
 11
1235.527283700389
 21
55.57182967845585
 31
0.0
  0
LINE
  5
9685
330
18
100
AcDbEntity
  8
DRAW2
100
AcDbLine
 10
1226.78278156451
 20
83.86851058431636
 30
0.0
 11
1226.78278156451
 21
88.86851058431636
 31
0.0
  0
LINE
  5
9686
102
{ACAD_REACTORS
330
99BE
102
}
330
18
100
AcDbEntity
  8
DRAW2
100
AcDbLine
 10
1232.78278156451
 20
83.86851058431636
 30
0.0
 11
1232.78278156451
 21
81.32679112287252
 31
0.0
  0
LINE
  5
9687
330
18
100
AcDbEntity
  8
DRAW2
100
AcDbLine
 10
1221.78278156451
 20
88.86851058431636
 30
0.0
 11
1221.78278156451
 21
83.86851058431636
 31
0.0
  0
ARC
  5
9688
102
{ACAD_REACTORS
330
99BE
102
}
330
18
100
AcDbEntity
  8
DRAW2
100
AcDbCircle
 10
1168.782781564509
 20
81.32679112287252
 30
0.0
 40
100.0
100
AcDbArc
 50
351.4692343900513
 51
0.0
  0
LINE
  5
9689
102
{ACAD_REACTORS
330
99BE
102
}
330
18
100
AcDbEntity
  8
DRAW2
100
AcDbLine
 10
1267.676416851339
 20
66.4927458298481
 30
0.0
 11
1266.038279428631
 21
55.57182967845585
 31
0.0
  0
ARC
  5
968A
102
{ACAD_REACTORS
330
99BE
102
}
330
18
100
AcDbEntity
  8
DRAW2
100
AcDbCircle
 10
1264.060406722894
 20
55.86851058431637
 30
0.0
 40
2.0
100
AcDbArc
 50
270.0
 51
351.4692343900513
  0
ARC
  5
968B
102
{ACAD_REACTORS
330
99BA
102
}
330
18
100
AcDbEntity
  8
DRAW2
100
AcDbCircle
 10
1271.28278156451
 20
88.86851058431535
 30
0.0
 40
1.5
100
AcDbArc
 50
90.0
 51
180.0
  0
LINE
  5
968C
330
18
100
AcDbEntity
  8
DRAW2
100
AcDbLine
 10
1264.78278156451
 20
83.86851058431636
 30
0.0
 11
1264.78278156451
 21
88.86851058431636
 31
0.0
  0
LINE
  5
968D
102
{ACAD_REACTORS
330
99BE
102
}
330
18
100
AcDbEntity
  8
DRAW2
100
AcDbLine
 10
1268.78278156451
 20
83.86851058431636
 30
0.0
 11
1268.78278156451
 21
81.32679112287252
 31
0.0
  0
LINE
  5
968E
330
18
100
AcDbEntity
  8
DRAW2
100
AcDbLine
 10
1269.78278156451
 20
83.86851058431636
 30
0.0
 11
1269.78278156451
 21
88.86851058431636
 31
0.0
  0
LINE
  5
968F
330
18
100
AcDbEntity
  8
DRAW2
100
AcDbLine
 10
1240.28276656451
 20
108.868450584317
 30
0.0
 11
1261.28279656451
 21
108.868450584317
 31
0.0
  0
LINE
  5
9690
330
18
100
AcDbEntity
  8
DRAW2
100
AcDbLine
 10
1242.282766564509
 20
110.8684805843169
 30
0.0
 11
1259.28279656451
 21
110.8684805843169
 31
0.0
  0
LINE
  5
9691
102
{ACAD_REACTORS
330
99BA
102
}
330
18
100
AcDbEntity
  8
DRAW2
100
AcDbLine
 10
1221.782781564509
 20
122.8685105843153
 30
0.0
 11
1269.78278156451
 21
122.8685105843153
 31
0.0
  0
LINE
  5
9692
330
18
100
AcDbEntity
  8
DRAW2
100
AcDbLine
 10
1240.28273656451
 20
108.868420584317
 30
0.0
 11
1242.28273656451
 21
110.868420584317
 31
0.0
  0
LINE
  5
9693
330
18
100
AcDbEntity
  8
DRAW2
100
AcDbLine
 10
1231.782781564509
 20
142.3685105843179
 30
0.0
 11
1230.782781564509
 21
141.3685105843179
 31
0.0
  0
ARC
  5
9694
102
{ACAD_REACTORS
330
99BA
102
}
330
18
100
AcDbEntity
  8
DRAW2
100
AcDbCircle
 10
1271.28278156451
 20
122.8685105843153
 30
0.0
 40
1.5
100
AcDbArc
 50
180.0
 51
270.0
  0
LINE
  5
9695
330
18
100
AcDbEntity
  8
DRAW2
100
AcDbLine
 10
1259.282676564509
 20
110.8684805843169
 30
0.0
 11
1261.282676564509
 21
108.8684805843169
 31
0.0
  0
LINE
  5
9696
330
18
100
AcDbEntity
  8
DRAW2
100
AcDbLine
 10
1231.782781564508
 20
211.3685105843185
 30
0.0
 11
1211.282781564509
 21
211.3685105843185
 31
0.0
  0
LINE
  5
9697
330
18
100
AcDbEntity
  8
DRAW2
100
AcDbLine
 10
1211.282781564509
 20
159.4037835605061
 30
0.0
 11
1231.782781564509
 21
159.4037835605061
 31
0.0
  0
LINE
  5
9698
330
18
100
AcDbEntity
  8
DRAW2
100
AcDbLine
 10
1211.282781564509
 20
162.9393174664357
 30
0.0
 11
1231.782781564509
 21
162.9393174664357
 31
0.0
  0
LINE
  5
9699
330
18
100
AcDbEntity
  8
DRAW2
100
AcDbLine
 10
1231.782781564508
 20
206.3685105843221
 30
0.0
 11
1211.282781564509
 21
206.3685105843221
 31
0.0
  0
LINE
  5
969A
330
18
100
AcDbEntity
  8
DRAW2
100
AcDbLine
 10
1213.282781564509
 20
206.3685105843221
 30
0.0
 11
1213.282781564509
 21
162.9393174664357
 31
0.0
  0
CIRCLE
  5
969B
330
18
100
AcDbEntity
  8
DRAW2
100
AcDbCircle
 10
1196.78278156451
 20
192.8685105843164
 30
0.0
 40
11.0
  0
CIRCLE
  5
969C
330
18
100
AcDbEntity
  8
DRAW2
100
AcDbCircle
 10
1196.78278156451
 20
192.8685105843164
 30
0.0
 40
10.5
  0
LINE
  5
969E
330
18
100
AcDbEntity
  8
DRAW2
100
AcDbLine
 10
1179.883802078943
 20
169.9564244156213
 30
0.0
 11
1189.681761050076
 21
169.9564244156213
 31
0.0
  0
LINE
  5
969F
330
18
100
AcDbEntity
  8
DRAW2
100
AcDbLine
 10
1179.883802078943
 20
168.5422108532482
 30
0.0
 11
1189.681761050076
 21
168.5422108532482
 31
0.0
  0
LINE
  5
96A1
330
18
100
AcDbEntity
  8
DRAW2
100
AcDbLine
 10
1190.07457763201
 20
190.8685105843169
 30
0.0
 11
1186.475017500465
 21
190.8685105843169
 31
0.0
  0
LINE
  5
96A2
330
18
100
AcDbEntity
  8
DRAW2
100
AcDbLine
 10
1190.07457763201
 20
194.868510584317
 30
0.0
 11
1186.475017500465
 21
194.868510584317
 31
0.0
  0
LINE
  5
96A3
330
18
100
AcDbEntity
  8
DRAW2
100
AcDbLine
 10
1174.78278156451
 20
158.868510584317
 30
0.0
 11
1211.282781564509
 21
158.868510584317
 31
0.0
  0
LINE
  5
96A5
330
18
100
AcDbEntity
  8
DRAW2
100
AcDbLine
 10
1169.681761050076
 20
168.5422108532482
 30
0.0
 11
1159.883802078943
 21
168.5422108532482
 31
0.0
  0
LINE
  5
96A6
330
18
100
AcDbEntity
  8
DRAW2
100
AcDbLine
 10
1169.681761050076
 20
169.9564244156213
 30
0.0
 11
1159.883802078943
 21
169.9564244156213
 31
0.0
  0
LINE
  5
96A7
330
18
100
AcDbEntity
  8
DRAW2
100
AcDbLine
 10
1169.78278156451
 20
170.2462067075617
 30
0.0
 11
1169.782781564509
 21
169.2493176344346
 31
0.0
  0
LINE
  5
96A8
330
18
100
AcDbEntity
  8
DRAW2
100
AcDbLine
 10
1159.78278156451
 20
170.2462067075617
 30
0.0
 11
1159.78278156451
 21
169.2493176344346
 31
0.0
  0
LINE
  5
96AB
330
18
100
AcDbEntity
  8
DRAW2
100
AcDbLine
 10
1179.78278156451
 20
170.2462067075617
 30
0.0
 11
1179.78278156451
 21
169.2493176344346
 31
0.0
  0
LINE
  5
96AC
330
18
100
AcDbEntity
  8
DRAW2
100
AcDbLine
 10
1159.490985497009
 20
190.8685105843169
 30
0.0
 11
1163.090545628554
 21
190.8685105843169
 31
0.0
  0
LINE
  5
96AD
330
18
100
AcDbEntity
  8
DRAW2
100
AcDbLine
 10
1159.490985497009
 20
194.868510584317
 30
0.0
 11
1163.090545628554
 21
194.868510584317
 31
0.0
  0
LINE
  5
96AE
330
18
100
AcDbEntity
  8
DRAW2
100
AcDbLine
 10
1189.78278156451
 20
170.2462067075617
 30
0.0
 11
1189.782781564509
 21
169.2493176344346
 31
0.0
  0
LINE
  5
96AF
330
18
100
AcDbEntity
  8
DRAW2
100
AcDbLine
 10
1203.490985497009
 20
190.8685105843169
 30
0.0
 11
1207.090545628554
 21
190.8685105843169
 31
0.0
  0
LINE
  5
96B0
330
18
100
AcDbEntity
  8
DRAW2
100
AcDbLine
 10
1203.490985497009
 20
194.868510584317
 30
0.0
 11
1207.090545628554
 21
194.868510584317
 31
0.0
  0
CIRCLE
  5
96B1
330
18
100
AcDbEntity
  8
DRAW2
100
AcDbCircle
 10
1196.78278156451
 20
192.8685105843164
 30
0.0
 40
2.5
  0
CIRCLE
  5
96B2
330
18
100
AcDbEntity
  8
DRAW2
100
AcDbCircle
 10
1196.78278156451
 20
192.8685105843164
 30
0.0
 40
5.694887103024191
  0
CIRCLE
  5
96B3
330
18
100
AcDbEntity
  8
DRAW3
100
AcDbCircle
 10
1196.78278156451
 20
192.8685105843164
 30
0.0
 40
6.578500006249994
  0
CIRCLE
  5
96B4
330
18
100
AcDbEntity
  8
DRAW2
100
AcDbCircle
 10
1196.78278156451
 20
192.8685105843164
 30
0.0
 40
7.0
  0
LINE
  5
96B5
330
18
100
AcDbEntity
  8
DRAW2
100
AcDbLine
 10
1159.828298892605
 20
227.3348442829995
 30
0.0
 11
1159.828298892605
 21
225.8348442829995
 31
0.0
  0
LINE
  5
96B6
330
18
100
AcDbEntity
  8
DRAW2
100
AcDbLine
 10
1156.828298892605
 20
225.8348442829995
 30
0.0
 11
1156.828298892605
 21
227.3348442829995
 31
0.0
  0
LINE
  5
96B7
330
18
100
AcDbEntity
  8
DRAW2
100
AcDbLine
 10
1158.328298892605
 20
225.0848442829995
 30
0.0
 11
1159.828298892605
 21
225.8348442829995
 31
0.0
  0
LINE
  5
96B8
330
18
100
AcDbEntity
  8
DRAW2
100
AcDbLine
 10
1156.828298892605
 20
225.8348442829995
 30
0.0
 11
1158.328298892605
 21
225.0848442829995
 31
0.0
  0
LINE
  5
96B9
330
18
100
AcDbEntity
  8
DRAW2
100
AcDbLine
 10
1171.466156774154
 20
236.0950348113828
 30
0.0
 11
1178.099406354865
 21
236.0950348113828
 31
0.0
  0
LINE
  5
96BA
330
18
100
AcDbEntity
  8
DRAW2
100
AcDbLine
 10
1171.466156774154
 20
239.0950348113828
 30
0.0
 11
1178.099406354865
 21
239.0950348113829
 31
0.0
  0
LINE
  5
96BB
330
18
100
AcDbEntity
  8
DRAW2
100
AcDbLine
 10
1168.799548672397
 20
242.993132125418
 30
0.0
 11
1174.782781564509
 21
240.1510902435506
 31
0.0
  0
LINE
  5
96BC
330
18
100
AcDbEntity
  8
DRAW2
100
AcDbLine
 10
1168.799548672397
 20
245.8505149574379
 30
0.0
 11
1174.782781564509
 21
243.0084730755705
 31
0.0
  0
LINE
  5
96BD
330
18
100
AcDbEntity
  8
DRAW2
100
AcDbLine
 10
1171.466156774154
 20
239.0950348113828
 30
0.0
 11
1171.466156774154
 21
236.0950348113828
 31
0.0
  0
LINE
  5
96BE
330
18
100
AcDbEntity
  8
DRAW2
100
AcDbLine
 10
1169.78278156451
 20
240.2618770918733
 30
0.0
 11
1169.78278156451
 21
237.2618770918732
 31
0.0
  0
LINE
  5
96BF
330
18
100
AcDbEntity
  8
DRAW2
100
AcDbLine
 10
1169.782781564509
 20
237.2618770918733
 30
0.0
 11
1171.466156774154
 21
236.0950348113828
 31
0.0
  0
LINE
  5
96C0
330
18
100
AcDbEntity
  8
DRAW2
100
AcDbLine
 10
1169.782781564509
 20
240.2618770918733
 30
0.0
 11
1171.466156774154
 21
239.0950348113828
 31
0.0
  0
LINE
  5
96C1
330
18
100
AcDbEntity
  8
DRAW2
100
AcDbLine
 10
1169.782781564509
 20
242.5260954732601
 30
0.0
 11
1169.782781564509
 21
240.2618770918733
 31
0.0
  0
LINE
  5
96C2
330
18
100
AcDbEntity
  8
DRAW2
100
AcDbLine
 10
1168.799548672397
 20
245.8505149574379
 30
0.0
 11
1168.799548672397
 21
242.993132125418
 31
0.0
  0
LINE
  5
96C3
330
18
100
AcDbEntity
  8
DRAW2
100
AcDbLine
 10
1169.032781564509
 20
250.545001330305
 30
0.0
 11
1169.032781564509
 21
249.295001330305
 31
0.0
  0
LINE
  5
96C4
330
18
100
AcDbEntity
  8
DRAW2
100
AcDbLine
 10
1158.328298892605
 20
228.0848442829994
 30
0.0
 11
1159.828298892605
 21
227.3348442829995
 31
0.0
  0
LINE
  5
96C5
330
18
100
AcDbEntity
  8
DRAW2
100
AcDbLine
 10
1156.828298892605
 20
227.3348442829995
 30
0.0
 11
1158.328298892605
 21
228.0848442829994
 31
0.0
  0
LINE
  5
96C6
330
18
100
AcDbEntity
  8
DRAW2
100
AcDbLine
 10
1178.099406354865
 20
239.0950348113828
 30
0.0
 11
1178.099406354865
 21
236.0950348113828
 31
0.0
  0
LINE
  5
96C7
330
18
100
AcDbEntity
  8
DRAW2
100
AcDbLine
 10
1179.782781564509
 20
237.2618770918733
 30
0.0
 11
1178.099406354865
 21
236.0950348113828
 31
0.0
  0
LINE
  5
96C8
330
18
100
AcDbEntity
  8
DRAW2
100
AcDbLine
 10
1179.782781564509
 20
240.2618770918733
 30
0.0
 11
1178.099406354865
 21
239.0950348113828
 31
0.0
  0
LINE
  5
96C9
330
18
100
AcDbEntity
  8
DRAW2
100
AcDbLine
 10
1179.782781564509
 20
242.5260954732601
 30
0.0
 11
1179.78278156451
 21
237.2618770918734
 31
0.0
  0
LINE
  5
96CA
330
18
100
AcDbEntity
  8
DRAW2
100
AcDbLine
 10
1174.782781564509
 20
243.0084730755705
 30
0.0
 11
1174.782781564509
 21
240.1510902435506
 31
0.0
  0
LINE
  5
96CB
330
18
100
AcDbEntity
  8
DRAW2
100
AcDbLine
 10
1180.766014456622
 20
245.8505149574379
 30
0.0
 11
1180.766014456622
 21
242.993132125418
 31
0.0
  0
LINE
  5
96CC
330
18
100
AcDbEntity
  8
DRAW2
100
AcDbLine
 10
1174.782781564509
 20
240.1510902435506
 30
0.0
 11
1180.766014456622
 21
242.993132125418
 31
0.0
  0
LINE
  5
96CD
330
18
100
AcDbEntity
  8
DRAW2
100
AcDbLine
 10
1174.782781564509
 20
243.0084730755705
 30
0.0
 11
1180.766014456622
 21
245.8505149574379
 31
0.0
  0
LINE
  5
96CE
330
18
100
AcDbEntity
  8
DRAW2
100
AcDbLine
 10
1180.532781564509
 20
249.295001330305
 30
0.0
 11
1180.532781564509
 21
250.545001330305
 31
0.0
  0
LINE
  5
96CF
330
18
100
AcDbEntity
  8
DRAW2
100
AcDbLine
 10
1189.737264236414
 20
227.3348442829995
 30
0.0
 11
1189.737264236414
 21
225.8348442829995
 31
0.0
  0
LINE
  5
96D0
330
18
100
AcDbEntity
  8
DRAW2
100
AcDbLine
 10
1192.737264236414
 20
225.8348442829995
 30
0.0
 11
1192.737264236414
 21
227.3348442829995
 31
0.0
  0
LINE
  5
96D1
330
18
100
AcDbEntity
  8
DRAW2
100
AcDbLine
 10
1192.737264236414
 20
225.8348442829995
 30
0.0
 11
1191.237264236414
 21
225.0848442829995
 31
0.0
  0
LINE
  5
96D2
330
18
100
AcDbEntity
  8
DRAW2
100
AcDbLine
 10
1191.237264236414
 20
225.0848442829995
 30
0.0
 11
1189.737264236414
 21
225.8348442829995
 31
0.0
  0
LINE
  5
96D4
330
18
100
AcDbEntity
  8
DRAW2
100
AcDbLine
 10
1192.737264236414
 20
227.3348442829995
 30
0.0
 11
1191.237264236414
 21
228.0848442829994
 31
0.0
  0
LINE
  5
96D5
330
18
100
AcDbEntity
  8
DRAW2
100
AcDbLine
 10
1191.237264236414
 20
228.0848442829994
 30
0.0
 11
1189.737264236414
 21
227.3348442829995
 31
0.0
  0
LINE
  5
96D6
330
18
100
AcDbEntity
  8
DRAW2
100
AcDbLine
 10
1198.78278156451
 20
234.3120856189518
 30
0.0
 11
1198.78278156451
 21
230.8120856189518
 31
0.0
  0
LINE
  5
96D7
330
18
100
AcDbEntity
  8
DRAW2
100
AcDbLine
 10
1230.782781564509
 20
206.3685105843221
 30
0.0
 11
1230.782781564509
 21
162.9393174664357
 31
0.0
  0
LINE
  5
96D9
102
{ACAD_REACTORS
330
99BA
102
}
330
18
100
AcDbEntity
  8
DRAW2
100
AcDbLine
 10
1340.782781564509
 20
60.86851058431534
 30
0.0
 11
1340.782781564509
 21
150.8685105843153
 31
0.0
  0
LINE
  5
96DA
102
{ACAD_REACTORS
330
99BA
102
}
330
18
100
AcDbEntity
  8
DRAW2
100
AcDbLine
 10
1325.78278156451
 20
60.86851058431534
 30
0.0
 11
1325.78278156451
 21
150.8685105843151
 31
0.0
  0
LINE
  5
96DB
330
18
100
AcDbEntity
  8
DRAW2
100
AcDbLine
 10
1301.78278156451
 20
150.5864782815612
 30
0.0
 11
1299.78278156451
 21
152.5864782815611
 31
0.0
  0
LINE
  5
96DC
330
18
100
AcDbEntity
  8
DRAW2
100
AcDbLine
 10
1299.78278156451
 20
152.5864782815611
 30
0.0
 11
1299.78278156451
 21
126.5864782815611
 31
0.0
  0
LINE
  5
96DD
102
{ACAD_REACTORS
330
99BA
102
}
330
18
100
AcDbEntity
  8
DRAW2
100
AcDbLine
 10
1321.78278156451
 20
149.8685105843153
 30
0.0
 11
1321.78278156451
 21
61.86851058431535
 31
0.0
  0
LINE
  5
96DE
102
{ACAD_REACTORS
330
99BA
102
}
330
18
100
AcDbEntity
  8
DRAW2
100
AcDbLine
 10
1323.78278156451
 20
149.8685105843153
 30
0.0
 11
1323.78278156451
 21
61.86851058431535
 31
0.0
  0
LINE
  5
96E0
102
{ACAD_REACTORS
330
99BA
102
}
330
18
100
AcDbEntity
  8
DRAW2
100
AcDbLine
 10
1325.78278156451
 20
60.86851058431534
 30
0.0
 11
1340.782781564509
 21
60.86851058431534
 31
0.0
  0
LINE
  5
96E1
102
{ACAD_REACTORS
330
99BA
102
}
330
18
100
AcDbEntity
  8
DRAW2
100
AcDbLine
 10
1325.78278156451
 20
61.86851058431535
 30
0.0
 11
1321.78278156451
 21
61.86851058431535
 31
0.0
  0
LINE
  5
96E3
330
18
100
AcDbEntity
  8
DRAW2
100
AcDbLine
 10
1301.78278156451
 20
128.5864782815612
 30
0.0
 11
1299.78278156451
 21
126.5864782815611
 31
0.0
  0
LINE
  5
96E4
330
18
100
AcDbEntity
  8
DRAW2
100
AcDbLine
 10
1301.78278156451
 20
150.5864782815612
 30
0.0
 11
1301.78278156451
 21
128.5864782815612
 31
0.0
  0
LINE
  5
96E5
102
{ACAD_REACTORS
330
99BA
102
}
330
18
100
AcDbEntity
  8
DRAW2
100
AcDbLine
 10
1321.78278156451
 20
105.8685105843153
 30
0.0
 11
1323.78278156451
 21
105.8685105843153
 31
0.0
  0
LINE
  5
96E6
102
{ACAD_REACTORS
330
99BA
102
}
330
18
100
AcDbEntity
  8
DRAW2
100
AcDbLine
 10
1325.78278156451
 20
149.8685105843153
 30
0.0
 11
1321.78278156451
 21
149.8685105843153
 31
0.0
  0
LINE
  5
96E7
330
18
100
AcDbEntity
  8
DRAW2
100
AcDbLine
 10
1299.78278156451
 20
221.8685105843164
 30
0.0
 11
1299.78278156451
 21
195.8685105843164
 31
0.0
  0
LINE
  5
96E8
330
18
100
AcDbEntity
  8
DRAW2
100
AcDbLine
 10
1301.78278156451
 20
219.8685105843164
 30
0.0
 11
1301.78278156451
 21
197.8685105843164
 31
0.0
  0
LINE
  5
96E9
330
18
100
AcDbEntity
  8
DRAW2
100
AcDbLine
 10
1301.78278156451
 20
197.8685105843164
 30
0.0
 11
1299.78278156451
 21
195.8685105843164
 31
0.0
  0
LINE
  5
96EA
102
{ACAD_REACTORS
330
99BA
102
}
330
18
100
AcDbEntity
  8
DRAW2
100
AcDbLine
 10
1325.78278156451
 20
150.8685105843151
 30
0.0
 11
1340.782781564509
 21
150.8685105843153
 31
0.0
  0
LINE
  5
96EB
330
18
100
AcDbEntity
  8
DRAW2
100
AcDbLine
 10
1301.78278156451
 20
219.8685105843164
 30
0.0
 11
1299.78278156451
 21
221.8685105843164
 31
0.0
  0
LINE
  5
96EC
102
{ACAD_REACTORS
330
99BA
102
}
330
18
100
AcDbEntity
  8
DRAW2
100
AcDbLine
 10
1271.28278156451
 20
327.3685105843153
 30
0.0
 11
1321.78278156451
 21
327.3685105843151
 31
0.0
  0
LINE
  5
96ED
102
{ACAD_REACTORS
330
99BA
102
}
330
18
100
AcDbEntity
  8
DRAW2
100
AcDbLine
 10
1271.28278156451
 20
296.3685105843153
 30
0.0
 11
1321.78278156451
 21
296.3685105843153
 31
0.0
  0
LINE
  5
96EE
330
18
100
AcDbEntity
  8
DRAW2
100
AcDbLine
 10
1274.78278156451
 20
291.1505428870717
 30
0.0
 11
1299.782781564509
 21
291.1505428870718
 31
0.0
  0
LINE
  5
96EF
330
18
100
AcDbEntity
  8
DRAW2
100
AcDbLine
 10
1299.782781564509
 20
265.1505428870718
 30
0.0
 11
1274.78278156451
 21
265.1505428870717
 31
0.0
  0
LINE
  5
96F0
330
18
100
AcDbEntity
  8
DRAW2
100
AcDbLine
 10
1244.78278156451
 20
352.8685105843174
 30
0.0
 11
1242.78278156451
 21
350.8685105843174
 31
0.0
  0
LINE
  5
96F1
330
18
100
AcDbEntity
  8
DRAW2
100
AcDbLine
 10
1256.78278156451
 20
352.8685105843174
 30
0.0
 11
1258.78278156451
 21
350.8685105843174
 31
0.0
  0
LINE
  5
96F2
330
18
100
AcDbEntity
  8
DRAW2
100
AcDbLine
 10
1231.782781564509
 20
258.333237608127
 30
0.0
 11
1211.282781564509
 21
258.3332376081272
 31
0.0
  0
LINE
  5
96F3
330
18
100
AcDbEntity
  8
DRAW2
100
AcDbLine
 10
1231.782781564509
 20
254.7977037021976
 30
0.0
 11
1211.282781564509
 21
254.7977037021976
 31
0.0
  0
LINE
  5
96F4
330
18
100
AcDbEntity
  8
DRAW2
100
AcDbLine
 10
1213.282781564509
 20
276.3685105843167
 30
0.0
 11
1230.782781564509
 21
276.3685105843167
 31
0.0
  0
LINE
  5
96F5
330
18
100
AcDbEntity
  8
DRAW2
100
AcDbLine
 10
1177.782794730464
 20
258.868510584317
 30
0.0
 11
1211.282781564509
 21
258.868510584317
 31
0.0
  0
LINE
  5
96F6
330
18
100
AcDbEntity
  8
DRAW2
100
AcDbLine
 10
1177.782794730464
 20
273.1505428870713
 30
0.0
 11
1211.282781564509
 21
273.1505428870713
 31
0.0
  0
LINE
  5
96F7
330
18
100
AcDbEntity
  8
DRAW2
100
AcDbLine
 10
1169.282627038307
 20
251.9969311292011
 30
0.0
 11
1168.799548672397
 21
251.7394877031721
 31
0.0
  0
LINE
  5
96F8
330
18
100
AcDbEntity
  8
DRAW2
100
AcDbLine
 10
1180.766014456622
 20
251.7394877031721
 30
0.0
 11
1180.282936090712
 21
251.9969311292011
 31
0.0
  0
LINE
  5
96F9
330
18
100
AcDbEntity
  8
DRAW2
100
AcDbLine
 10
1213.282781564509
 20
276.3685105843167
 30
0.0
 11
1213.282781564509
 21
258.3332376081272
 31
0.0
  0
LINE
  5
96FA
330
18
100
AcDbEntity
  8
DRAW2
100
AcDbLine
 10
1213.282781564509
 20
276.3685105843167
 30
0.0
 11
1211.282781564509
 21
274.3685105843167
 31
0.0
  0
LINE
  5
96FC
102
{ACAD_REACTORS
330
99BA
102
}
330
18
100
AcDbEntity
  8
DRAW2
100
AcDbLine
 10
1221.782781564509
 20
294.8685105843153
 30
0.0
 11
1221.782781564509
 21
328.8685105843153
 31
0.0
  0
LINE
  5
96FD
102
{ACAD_REACTORS
330
99BA
102
}
330
18
100
AcDbEntity
  8
DRAW2
100
AcDbLine
 10
1269.78278156451
 20
328.8685105843153
 30
0.0
 11
1269.782781564509
 21
294.8685105843153
 31
0.0
  0
LINE
  5
96FE
102
{ACAD_REACTORS
330
99BA
102
}
330
18
100
AcDbEntity
  8
DRAW2
100
AcDbLine
 10
1221.782781564509
 20
294.8685105843153
 30
0.0
 11
1269.782781564509
 21
294.8685105843153
 31
0.0
  0
LINE
  5
96FF
330
18
100
AcDbEntity
  8
DRAW2
100
AcDbLine
 10
1230.782781564509
 20
276.3685105843167
 30
0.0
 11
1230.782781564509
 21
258.333237608127
 31
0.0
  0
LINE
  5
9700
330
18
100
AcDbEntity
  8
DRAW2
100
AcDbLine
 10
1231.782781564509
 20
275.3685105843167
 30
0.0
 11
1230.782781564509
 21
276.3685105843167
 31
0.0
  0
ARC
  5
9702
102
{ACAD_REACTORS
330
99BA
102
}
330
18
100
AcDbEntity
  8
DRAW2
100
AcDbCircle
 10
1271.28278156451
 20
294.8685105843153
 30
0.0
 40
1.5
100
AcDbArc
 50
90.0
 51
180.0
  0
LINE
  5
9703
102
{ACAD_REACTORS
330
99BA
102
}
330
18
100
AcDbEntity
  8
DRAW2
100
AcDbLine
 10
1221.782781564509
 20
328.8685105843153
 30
0.0
 11
1269.78278156451
 21
328.8685105843153
 31
0.0
  0
LINE
  5
9704
330
18
100
AcDbEntity
  8
DRAW2
100
AcDbLine
 10
1242.78278156451
 20
350.8685105843174
 30
0.0
 11
1258.78278156451
 21
350.8685105843174
 31
0.0
  0
LINE
  5
9706
330
18
100
AcDbEntity
  8
DRAW2
100
AcDbLine
 10
1242.78278156451
 20
333.8685105843175
 30
0.0
 11
1242.78278156451
 21
350.8685105843174
 31
0.0
  0
ARC
  5
9707
102
{ACAD_REACTORS
330
99BA
102
}
330
18
100
AcDbEntity
  8
DRAW2
100
AcDbCircle
 10
1271.28278156451
 20
328.8685105843153
 30
0.0
 40
1.5
100
AcDbArc
 50
180.0
 51
270.0
  0
LINE
  5
9708
330
18
100
AcDbEntity
  8
DRAW2
100
AcDbLine
 10
1258.78278156451
 20
350.8685105843174
 30
0.0
 11
1258.78278156451
 21
333.8685105843175
 31
0.0
  0
LINE
  5
9709
330
18
100
AcDbEntity
  8
DRAW2
100
AcDbLine
 10
1244.78278156451
 20
352.8685105843174
 30
0.0
 11
1256.78278156451
 21
352.8685105843174
 31
0.0
  0
LINE
  5
970A
102
{ACAD_REACTORS
330
99BA
102
}
330
18
100
AcDbEntity
  8
DRAW2
100
AcDbLine
 10
1323.78278156451
 20
355.8685105843153
 30
0.0
 11
1323.78278156451
 21
267.8685105843153
 31
0.0
  0
LINE
  5
970B
102
{ACAD_REACTORS
330
99BA
102
}
330
18
100
AcDbEntity
  8
DRAW2
100
AcDbLine
 10
1321.78278156451
 20
355.8685105843153
 30
0.0
 11
1321.78278156451
 21
267.8685105843153
 31
0.0
  0
LINE
  5
970C
102
{ACAD_REACTORS
330
99BA
102
}
330
18
100
AcDbEntity
  8
DRAW2
100
AcDbLine
 10
1340.782781564509
 20
266.8685105843153
 30
0.0
 11
1340.782781564509
 21
356.8685105843153
 31
0.0
  0
LINE
  5
970D
102
{ACAD_REACTORS
330
99BA
102
}
330
18
100
AcDbEntity
  8
DRAW2
100
AcDbLine
 10
1325.78278156451
 20
266.8685105843153
 30
0.0
 11
1325.78278156451
 21
356.8685105843151
 31
0.0
  0
LINE
  5
970F
330
18
100
AcDbEntity
  8
DRAW2
100
AcDbLine
 10
1301.782781564509
 20
289.1505428870718
 30
0.0
 11
1301.782781564509
 21
267.1505428870718
 31
0.0
  0
LINE
  5
9710
330
18
100
AcDbEntity
  8
DRAW2
100
AcDbLine
 10
1299.782781564509
 20
265.1505428870718
 30
0.0
 11
1299.782781564509
 21
291.1505428870718
 31
0.0
  0
LINE
  5
9711
330
18
100
AcDbEntity
  8
DRAW2
100
AcDbLine
 10
1301.782781564509
 20
267.1505428870718
 30
0.0
 11
1299.782781564509
 21
265.1505428870718
 31
0.0
  0
LINE
  5
9712
330
18
100
AcDbEntity
  8
DRAW2
100
AcDbLine
 10
1301.782781564509
 20
289.1505428870718
 30
0.0
 11
1299.782781564509
 21
291.1505428870718
 31
0.0
  0
LINE
  5
9713
102
{ACAD_REACTORS
330
99BA
102
}
330
18
100
AcDbEntity
  8
DRAW2
100
AcDbLine
 10
1325.78278156451
 20
266.8685105843153
 30
0.0
 11
1340.782781564509
 21
266.8685105843153
 31
0.0
  0
LINE
  5
9714
102
{ACAD_REACTORS
330
99BA
102
}
330
18
100
AcDbEntity
  8
DRAW2
100
AcDbLine
 10
1325.78278156451
 20
267.8685105843153
 30
0.0
 11
1321.78278156451
 21
267.8685105843153
 31
0.0
  0
LINE
  5
9716
102
{ACAD_REACTORS
330
99BA
102
}
330
18
100
AcDbEntity
  8
DRAW2
100
AcDbLine
 10
1321.78278156451
 20
311.8685105843153
 30
0.0
 11
1323.78278156451
 21
311.8685105843153
 31
0.0
  0
LINE
  5
9717
102
{ACAD_REACTORS
330
99BA
102
}
330
18
100
AcDbEntity
  8
DRAW2
100
AcDbLine
 10
1325.78278156451
 20
356.8685105843151
 30
0.0
 11
1340.782781564509
 21
356.8685105843153
 31
0.0
  0
LINE
  5
9718
102
{ACAD_REACTORS
330
99BA
102
}
330
18
100
AcDbEntity
  8
DRAW2
100
AcDbLine
 10
1325.78278156451
 20
355.8685105843153
 30
0.0
 11
1321.78278156451
 21
355.8685105843153
 31
0.0
  0
LINE
  5
9719
330
18
100
AcDbEntity
  8
DRAW2
100
AcDbLine
 10
1163.28278156451
 20
516.5932831619942
 30
0.0
 11
1142.28278156451
 21
516.5932831619943
 31
0.0
  0
LINE
  5
971B
330
18
100
AcDbEntity
  8
DRAW2
100
AcDbLine
 10
1221.782781564509
 20
597.0833175365408
 30
0.0
 11
1127.782781564508
 21
597.083317536541
 31
0.0
  0
LINE
  5
971C
330
18
100
AcDbEntity
  8
DRAW2
100
AcDbLine
 10
1127.782781564508
 20
572.083317536541
 30
0.0
 11
1221.782781564509
 21
572.0833175365408
 31
0.0
  0
LINE
  5
971D
330
18
100
AcDbEntity
  8
DRAW2
100
AcDbLine
 10
1138.282781564509
 20
634.5833175365411
 30
0.0
 11
1211.282781564509
 21
634.583317536541
 31
0.0
  0
LINE
  5
971F
330
18
100
AcDbEntity
  8
DRAW2
100
AcDbLine
 10
1232.282781564509
 20
670.083317536541
 30
0.0
 11
1117.282781564509
 21
670.083317536541
 31
0.0
  0
LINE
  5
9720
330
18
100
AcDbEntity
  8
DRAW2
100
AcDbLine
 10
1232.282781564509
 20
659.083317536541
 30
0.0
 11
1117.282781564509
 21
659.083317536541
 31
0.0
  0
LINE
  5
9721
330
18
100
AcDbEntity
  8
DRAW2
100
AcDbLine
 10
1129.782781564509
 20
652.0833175365399
 30
0.0
 11
1129.782781564509
 21
659.083317536541
 31
0.0
  0
LINE
  5
9722
330
18
100
AcDbEntity
  8
DRAW2
100
AcDbLine
 10
1047.782781564509
 20
675.5833175365411
 30
0.0
 11
1047.782781564509
 21
653.5833175365411
 31
0.0
  0
LINE
  5
9723
330
18
100
AcDbEntity
  8
DRAW2
100
AcDbLine
 10
1049.782781564509
 20
677.5833175365411
 30
0.0
 11
1049.782781564509
 21
651.5833175365409
 31
0.0
  0
LINE
  5
9724
330
18
100
AcDbEntity
  8
DRAW2
100
AcDbLine
 10
1074.782781564509
 20
678.5833175365409
 30
0.0
 11
1074.782781564509
 21
490.5833175365408
 31
0.0
  0
LINE
  5
9725
330
18
100
AcDbEntity
  8
DRAW2
100
AcDbLine
 10
1079.782781564509
 20
678.5833175365409
 30
0.0
 11
1079.782781564509
 21
490.5833175365408
 31
0.0
  0
LINE
  5
9727
330
18
100
AcDbEntity
  8
DRAW2
100
AcDbLine
 10
1117.282781564509
 20
625.5833175365409
 30
0.0
 11
1117.282781564509
 21
678.5833175365409
 31
0.0
  0
LINE
  5
9728
330
18
100
AcDbEntity
  8
DRAW2
100
AcDbLine
 10
1136.282781564509
 20
572.083317536541
 30
0.0
 11
1136.282781564509
 21
538.6541244186595
 31
0.0
  0
CIRCLE
  5
9729
330
18
100
AcDbEntity
  8
DRAW2
100
AcDbCircle
 10
1098.782781564509
 20
560.5833175365411
 30
0.0
 40
8.0
  0
LINE
  5
972A
330
18
100
AcDbEntity
  8
DRAW2
100
AcDbLine
 10
1127.782781564508
 20
625.583317536541
 30
0.0
 11
1127.782781564508
 21
543.5833175365409
 31
0.0
  0
LINE
  5
972C
330
18
100
AcDbEntity
  8
DRAW2
100
AcDbLine
 10
1127.782781564508
 20
621.8928337488962
 30
0.0
 11
1127.782781564508
 21
547.2738013241857
 31
0.0
  0
LINE
  5
972D
330
18
100
AcDbEntity
  8
DRAW2
100
AcDbLine
 10
1049.782781564509
 20
557.5833175365411
 30
0.0
 11
1049.782781564509
 21
531.583317536541
 31
0.0
  0
LINE
  5
972E
330
18
100
AcDbEntity
  8
DRAW2
100
AcDbLine
 10
1047.782781564509
 20
555.5833175365411
 30
0.0
 11
1047.782781564509
 21
533.5833175365411
 31
0.0
  0
LINE
  5
972F
330
18
100
AcDbEntity
  8
DRAW2
100
AcDbLine
 10
1138.282781564509
 20
572.0833175365409
 30
0.0
 11
1138.282781564509
 21
519.083317536541
 31
0.0
  0
LINE
  5
9730
330
18
100
AcDbEntity
  8
DRAW2
100
AcDbLine
 10
1127.782781564508
 20
543.5833175365409
 30
0.0
 11
1079.782781564508
 21
543.5833175365409
 31
0.0
  0
LINE
  5
9731
330
18
100
AcDbEntity
  8
DRAW2
100
AcDbLine
 10
1079.782781564508
 20
547.2738013241857
 30
0.0
 11
1127.782781564508
 21
547.2738013241857
 31
0.0
  0
LINE
  5
9732
330
18
100
AcDbEntity
  8
DRAW2
100
AcDbLine
 10
1079.782781564509
 20
490.5833175365408
 30
0.0
 11
1117.282781564509
 21
490.5833175365408
 31
0.0
  0
LINE
  5
9733
330
18
100
AcDbEntity
  8
DRAW2
100
AcDbLine
 10
1079.782781564509
 20
490.5833175365408
 30
0.0
 11
1074.782781564509
 21
490.5833175365408
 31
0.0
  0
LINE
  5
9735
330
18
100
AcDbEntity
  8
DRAW2
100
AcDbLine
 10
1049.782781564509
 20
531.5833175365411
 30
0.0
 11
1074.782781564509
 21
531.583317536541
 31
0.0
  0
LINE
  5
9736
330
18
100
AcDbEntity
  8
DRAW2
100
AcDbLine
 10
1047.782781564509
 20
533.5833175365411
 30
0.0
 11
1049.782781564509
 21
531.5833175365411
 31
0.0
  0
LINE
  5
9737
330
18
100
AcDbEntity
  8
DRAW2
100
AcDbLine
 10
1079.782781564509
 20
544.4460530557619
 30
0.0
 11
1074.782781564509
 21
544.4460530557619
 31
0.0
  0
LINE
  5
9738
330
18
100
AcDbEntity
  8
DRAW2
100
AcDbLine
 10
1129.782781564509
 20
499.583317536541
 30
0.0
 11
1129.782781564509
 21
517.0833175365411
 31
0.0
  0
LINE
  5
9739
330
18
100
AcDbEntity
  8
DRAW2
100
AcDbLine
 10
1117.282781564509
 20
490.5833175365408
 30
0.0
 11
1117.282781564509
 21
543.5833175365409
 31
0.0
  0
LINE
  5
973A
330
18
100
AcDbEntity
  8
DRAW2
100
AcDbLine
 10
1117.282781564509
 20
494.5833175365411
 30
0.0
 11
1124.782781564509
 21
494.583317536541
 31
0.0
  0
LINE
  5
973B
330
18
100
AcDbEntity
  8
DRAW2
100
AcDbLine
 10
1124.782781564509
 20
494.583317536541
 30
0.0
 11
1129.782781564509
 21
499.583317536541
 31
0.0
  0
LINE
  5
973C
330
18
100
AcDbEntity
  8
DRAW2
100
AcDbLine
 10
1138.282781564509
 20
537.2071631970417
 30
0.0
 11
1117.782781564509
 21
537.2071631970417
 31
0.0
  0
LINE
  5
973D
330
18
100
AcDbEntity
  8
DRAW2
100
AcDbLine
 10
1136.282781564509
 20
535.1185905127267
 30
0.0
 11
1118.782781564509
 21
535.1185905127267
 31
0.0
  0
LINE
  5
973E
330
18
100
AcDbEntity
  8
DRAW2
100
AcDbLine
 10
1136.282781564509
 20
538.6541244186595
 30
0.0
 11
1118.782781564509
 21
538.6541244186595
 31
0.0
  0
LINE
  5
973F
330
18
100
AcDbEntity
  8
DRAW2
100
AcDbLine
 10
1136.282781564509
 20
517.083317536541
 30
0.0
 11
1118.782781564509
 21
517.083317536541
 31
0.0
  0
LINE
  5
9740
330
18
100
AcDbEntity
  8
DRAW2
100
AcDbLine
 10
1117.782781564509
 20
543.5833175365409
 30
0.0
 11
1117.782781564509
 21
518.0833175365409
 31
0.0
  0
LINE
  5
9741
330
18
100
AcDbEntity
  8
DRAW2
100
AcDbLine
 10
1118.782781564509
 20
535.1185905127267
 30
0.0
 11
1118.782781564509
 21
517.083317536541
 31
0.0
  0
LINE
  5
9742
330
18
100
AcDbEntity
  8
DRAW2
100
AcDbLine
 10
1117.282781564509
 20
524.0833175365414
 30
0.0
 11
1117.782781564509
 21
524.0833175365414
 31
0.0
  0
LINE
  5
9743
330
18
100
AcDbEntity
  8
DRAW2
100
AcDbLine
 10
1117.782781564509
 20
518.0833175365409
 30
0.0
 11
1118.782781564509
 21
517.083317536541
 31
0.0
  0
LINE
  5
9744
330
18
100
AcDbEntity
  8
DRAW2
100
AcDbLine
 10
1118.782781564509
 20
543.5833175365409
 30
0.0
 11
1118.782781564509
 21
538.6541244186595
 31
0.0
  0
LINE
  5
9745
330
18
100
AcDbEntity
  8
DRAW2
100
AcDbLine
 10
1118.782781564509
 20
535.1185905127267
 30
0.0
 11
1117.782781564509
 21
535.8261976173381
 31
0.0
  0
LINE
  5
9746
330
18
100
AcDbEntity
  8
DRAW2
100
AcDbLine
 10
1118.782781564509
 20
538.6541244186595
 30
0.0
 11
1117.782781564509
 21
539.3617315232709
 31
0.0
  0
LINE
  5
9747
330
18
100
AcDbEntity
  8
DRAW2
100
AcDbLine
 10
1117.782781564509
 20
528.5833175365404
 30
0.0
 11
1117.282781564509
 21
528.5833175365404
 31
0.0
  0
LINE
  5
9748
330
18
100
AcDbEntity
  8
DRAW2
100
AcDbLine
 10
1142.28278156451
 20
516.5932831619943
 30
0.0
 11
1142.28278156451
 21
534.5833175365409
 31
0.0
  0
LINE
  5
974A
330
18
100
AcDbEntity
  8
DRAW2
100
AcDbLine
 10
1136.282781564509
 20
535.1185905127267
 30
0.0
 11
1136.282781564509
 21
517.083317536541
 31
0.0
  0
LINE
  5
974B
330
18
100
AcDbEntity
  8
DRAW2
100
AcDbLine
 10
1136.282781564509
 20
517.083317536541
 30
0.0
 11
1138.282781564509
 21
519.083317536541
 31
0.0
  0
LINE
  5
974C
330
18
100
AcDbEntity
  8
DRAW2
100
AcDbLine
 10
1138.282781564509
 20
534.5833175365409
 30
0.0
 11
1153.808553635869
 21
534.5833175365409
 31
0.0
  0
LINE
  5
974D
330
18
100
AcDbEntity
  8
DRAW2
100
AcDbLine
 10
1136.282781564509
 20
535.1185905127267
 30
0.0
 11
1138.282781564509
 21
536.5338047219495
 31
0.0
  0
LINE
  5
974E
330
18
100
AcDbEntity
  8
DRAW2
100
AcDbLine
 10
1136.282781564509
 20
538.6541244186595
 30
0.0
 11
1138.282781564509
 21
540.0693386278821
 31
0.0
  0
LINE
  5
974F
330
18
100
AcDbEntity
  8
DRAW2
100
AcDbLine
 10
1150.782781564509
 20
540.4160219435346
 30
0.0
 11
1150.782781564509
 21
546.4781997700256
 31
0.0
  0
LINE
  5
9750
330
18
100
AcDbEntity
  8
DRAW2
100
AcDbLine
 10
1079.782781564508
 20
625.583317536541
 30
0.0
 11
1127.782781564508
 21
625.583317536541
 31
0.0
  0
LINE
  5
9751
330
18
100
AcDbEntity
  8
DRAW2
100
AcDbLine
 10
1127.782781564508
 20
621.8928337488962
 30
0.0
 11
1079.782781564508
 21
621.8928337488962
 31
0.0
  0
LINE
  5
9754
330
18
100
AcDbEntity
  8
DRAW2
100
AcDbLine
 10
1074.782781564509
 20
557.583317536541
 30
0.0
 11
1049.782781564509
 21
557.5833175365411
 31
0.0
  0
LINE
  5
9755
330
18
100
AcDbEntity
  8
DRAW2
100
AcDbLine
 10
1047.782781564509
 20
555.5833175365411
 30
0.0
 11
1049.782781564509
 21
557.5833175365411
 31
0.0
  0
LINE
  5
9756
330
18
100
AcDbEntity
  8
DRAW2
100
AcDbLine
 10
1049.782781564509
 20
651.5833175365411
 30
0.0
 11
1074.782781564509
 21
651.5833175365409
 31
0.0
  0
LINE
  5
9757
330
18
100
AcDbEntity
  8
DRAW2
100
AcDbLine
 10
1047.782781564509
 20
653.5833175365411
 30
0.0
 11
1049.782781564509
 21
651.5833175365411
 31
0.0
  0
LINE
  5
9758
330
18
100
AcDbEntity
  8
DRAW2
100
AcDbLine
 10
1079.782781564509
 20
624.7205820173198
 30
0.0
 11
1074.782781564509
 21
624.7205820173198
 31
0.0
  0
LINE
  5
9759
330
18
100
AcDbEntity
  8
DRAW2
100
AcDbLine
 10
1136.282781564509
 20
630.5125106544212
 30
0.0
 11
1136.282781564509
 21
597.083317536541
 31
0.0
  0
CIRCLE
  5
975A
330
18
100
AcDbEntity
  8
DRAW2
100
AcDbCircle
 10
1098.782781564509
 20
608.5833175365409
 30
0.0
 40
8.0
  0
CIRCLE
  5
975B
330
18
100
AcDbEntity
  8
DRAW2
100
AcDbCircle
 10
1098.782781564508
 20
608.583317536541
 30
0.0
 40
6.0
  0
LINE
  5
975C
330
18
100
AcDbEntity
  8
DRAW2
100
AcDbLine
 10
1138.282781564509
 20
597.0833175365409
 30
0.0
 11
1138.282781564509
 21
650.0833175365397
 31
0.0
  0
CIRCLE
  5
975D
330
18
100
AcDbEntity
  8
DRAW2
100
AcDbCircle
 10
1098.782781564508
 20
560.5833175365408
 30
0.0
 40
6.0
  0
LINE
  5
975E
330
18
100
AcDbEntity
  8
DRAW2
100
AcDbLine
 10
1136.282781564509
 20
652.0833175365397
 30
0.0
 11
1118.782781564509
 21
652.0833175365397
 31
0.0
  0
LINE
  5
975F
330
18
100
AcDbEntity
  8
DRAW2
100
AcDbLine
 10
1136.282781564509
 20
634.048044560354
 30
0.0
 11
1118.782781564509
 21
634.048044560354
 31
0.0
  0
LINE
  5
9760
330
18
100
AcDbEntity
  8
DRAW2
100
AcDbLine
 10
1136.282781564509
 20
630.5125106544212
 30
0.0
 11
1118.782781564509
 21
630.5125106544212
 31
0.0
  0
LINE
  5
9761
330
18
100
AcDbEntity
  8
DRAW2
100
AcDbLine
 10
1138.282781564509
 20
631.9594718760391
 30
0.0
 11
1117.782781564509
 21
631.9594718760391
 31
0.0
  0
LINE
  5
9762
330
18
100
AcDbEntity
  8
DRAW2
100
AcDbLine
 10
1118.782781564509
 20
630.5125106544212
 30
0.0
 11
1118.782781564509
 21
625.5833175365409
 31
0.0
  0
LINE
  5
9763
330
18
100
AcDbEntity
  8
DRAW2
100
AcDbLine
 10
1117.782781564509
 20
625.583317536541
 30
0.0
 11
1117.782781564509
 21
651.0833175365397
 31
0.0
  0
LINE
  5
9764
330
18
100
AcDbEntity
  8
DRAW2
100
AcDbLine
 10
1117.282781564509
 20
645.0833175365403
 30
0.0
 11
1117.782781564509
 21
645.0833175365403
 31
0.0
  0
LINE
  5
9765
330
18
100
AcDbEntity
  8
DRAW2
100
AcDbLine
 10
1117.782781564509
 20
640.5833175365404
 30
0.0
 11
1117.282781564509
 21
640.5833175365404
 31
0.0
  0
LINE
  5
9766
330
18
100
AcDbEntity
  8
DRAW2
100
AcDbLine
 10
1117.782781564509
 20
651.0833175365397
 30
0.0
 11
1118.782781564509
 21
652.0833175365397
 31
0.0
  0
LINE
  5
9767
330
18
100
AcDbEntity
  8
DRAW2
100
AcDbLine
 10
1118.782781564509
 20
630.5125106544212
 30
0.0
 11
1117.782781564509
 21
629.80490354981
 31
0.0
  0
LINE
  5
9768
330
18
100
AcDbEntity
  8
DRAW2
100
AcDbLine
 10
1118.782781564509
 20
634.048044560354
 30
0.0
 11
1117.782781564509
 21
633.3404374557426
 31
0.0
  0
LINE
  5
9769
330
18
100
AcDbEntity
  8
DRAW2
100
AcDbLine
 10
1118.782781564509
 20
652.0833175365397
 30
0.0
 11
1118.782781564509
 21
634.048044560354
 31
0.0
  0
LINE
  5
976A
330
18
100
AcDbEntity
  8
DRAW2
100
AcDbLine
 10
1136.282781564509
 20
652.0833175365397
 30
0.0
 11
1138.282781564509
 21
650.0833175365397
 31
0.0
  0
LINE
  5
976B
330
18
100
AcDbEntity
  8
DRAW2
100
AcDbLine
 10
1136.282781564509
 20
630.5125106544212
 30
0.0
 11
1138.282781564509
 21
629.0972964451985
 31
0.0
  0
LINE
  5
976C
330
18
100
AcDbEntity
  8
DRAW2
100
AcDbLine
 10
1136.282781564509
 20
634.048044560354
 30
0.0
 11
1138.282781564509
 21
632.6328303511314
 31
0.0
  0
LINE
  5
976D
330
18
100
AcDbEntity
  8
DRAW2
100
AcDbLine
 10
1136.282781564509
 20
652.0833175365397
 30
0.0
 11
1136.282781564509
 21
634.0480445603541
 31
0.0
  0
LINE
  5
976E
330
18
100
AcDbEntity
  8
DRAW2
100
AcDbLine
 10
1079.782781564509
 20
678.5833175365409
 30
0.0
 11
1117.282781564509
 21
678.5833175365409
 31
0.0
  0
LINE
  5
9770
330
18
100
AcDbEntity
  8
DRAW2
100
AcDbLine
 10
1074.782781564509
 20
677.583317536541
 30
0.0
 11
1049.782781564509
 21
677.5833175365411
 31
0.0
  0
LINE
  5
9771
330
18
100
AcDbEntity
  8
DRAW2
100
AcDbLine
 10
1047.782781564509
 20
675.5833175365411
 30
0.0
 11
1049.782781564509
 21
677.5833175365411
 31
0.0
  0
LINE
  5
9772
330
18
100
AcDbEntity
  8
DRAW2
100
AcDbLine
 10
1079.782781564509
 20
678.5833175365409
 30
0.0
 11
1074.782781564509
 21
678.5833175365409
 31
0.0
  0
LINE
  5
9773
330
18
100
AcDbEntity
  8
DRAW2
100
AcDbLine
 10
1124.782781564509
 20
674.583317536541
 30
0.0
 11
1117.282781564509
 21
674.5833175365411
 31
0.0
  0
LINE
  5
9774
330
18
100
AcDbEntity
  8
DRAW2
100
AcDbLine
 10
1124.782781564509
 20
674.583317536541
 30
0.0
 11
1129.282781564509
 21
670.083317536541
 31
0.0
  0
LINE
  5
9775
330
18
100
AcDbEntity
  8
DRAW2
100
AcDbLine
 10
1299.782781564509
 20
677.5833175365411
 30
0.0
 11
1299.782781564509
 21
651.5833175365409
 31
0.0
  0
LINE
  5
9776
330
18
100
AcDbEntity
  8
DRAW2
100
AcDbLine
 10
1301.782781564509
 20
675.5833175365411
 30
0.0
 11
1301.782781564509
 21
653.5833175365411
 31
0.0
  0
LINE
  5
9777
330
18
100
AcDbEntity
  8
DRAW2
100
AcDbLine
 10
1219.782781564509
 20
652.0833175365399
 30
0.0
 11
1219.782781564509
 21
659.083317536541
 31
0.0
  0
LINE
  5
9779
330
18
100
AcDbEntity
  8
DRAW2
100
AcDbLine
 10
1232.282781564509
 20
625.5833175365409
 30
0.0
 11
1232.282781564509
 21
678.5833175365409
 31
0.0
  0
LINE
  5
977B
330
18
100
AcDbEntity
  8
DRAW2
100
AcDbLine
 10
1269.782781564509
 20
678.5833175365409
 30
0.0
 11
1269.782781564509
 21
490.5833175365408
 31
0.0
  0
LINE
  5
977C
330
18
100
AcDbEntity
  8
DRAW2
100
AcDbLine
 10
1274.782781564509
 20
678.5833175365409
 30
0.0
 11
1274.782781564509
 21
600.0833175365409
 31
0.0
  0
LINE
  5
977D
330
18
100
AcDbEntity
  8
DRAW2
100
AcDbLine
 10
1189.782781564509
 20
634.583317536541
 30
0.0
 11
1189.782781564509
 21
659.083317536541
 31
0.0
  0
LINE
  5
977E
330
18
100
AcDbEntity
  8
DRAW2
100
AcDbLine
 10
1159.782781564509
 20
634.583317536541
 30
0.0
 11
1159.782781564509
 21
659.083317536541
 31
0.0
  0
LINE
  5
977F
330
18
100
AcDbEntity
  8
DRAW2
100
AcDbLine
 10
1299.782781564509
 20
651.5833175365411
 30
0.0
 11
1274.782781564509
 21
651.5833175365409
 31
0.0
  0
LINE
  5
9780
330
18
100
AcDbEntity
  8
DRAW2
100
AcDbLine
 10
1299.782781564509
 20
531.5833175365411
 30
0.0
 11
1274.782781564509
 21
531.583317536541
 31
0.0
  0
LINE
  5
9782
330
18
100
AcDbEntity
  8
DRAW2
100
AcDbLine
 10
1274.782781564509
 20
557.583317536541
 30
0.0
 11
1299.782781564509
 21
557.5833175365411
 31
0.0
  0
LINE
  5
9783
330
18
100
AcDbEntity
  8
DRAW2
100
AcDbLine
 10
1271.28278156451
 20
569.0833175365408
 30
0.0
 11
1321.782781564509
 21
569.0833175365408
 31
0.0
  0
LINE
  5
9784
330
18
100
AcDbEntity
  8
DRAW2
100
AcDbLine
 10
1271.28278156451
 20
600.0833175365409
 30
0.0
 11
1321.782781564509
 21
600.0833175365407
 31
0.0
  0
CIRCLE
  5
9785
330
18
100
AcDbEntity
  8
DRAW2
100
AcDbCircle
 10
1250.78278156451
 20
560.583317536541
 30
0.0
 40
8.0
  0
LINE
  5
9786
330
18
100
AcDbEntity
  8
DRAW2
100
AcDbLine
 10
1269.782781564509
 20
543.5833175365409
 30
0.0
 11
1269.782781564509
 21
625.583317536541
 31
0.0
  0
LINE
  5
9787
330
18
100
AcDbEntity
  8
DRAW2
100
AcDbLine
 10
1221.782781564509
 20
625.583317536541
 30
0.0
 11
1221.782781564509
 21
543.5833175365409
 31
0.0
  0
LINE
  5
9789
330
18
100
AcDbEntity
  8
DRAW2
100
AcDbLine
 10
1269.782781564509
 20
621.8928337488962
 30
0.0
 11
1269.782781564509
 21
547.2738013241857
 31
0.0
  0
LINE
  5
978A
330
18
100
AcDbEntity
  8
DRAW2
100
AcDbLine
 10
1221.782781564509
 20
621.8928337488962
 30
0.0
 11
1221.782781564509
 21
547.2738013241857
 31
0.0
  0
LINE
  5
978B
330
18
100
AcDbEntity
  8
DRAW2
100
AcDbLine
 10
1269.782781564509
 20
625.5833175365409
 30
0.0
 11
1269.782781564509
 21
543.5833175365408
 31
0.0
  0
LINE
  5
978C
330
18
100
AcDbEntity
  8
DRAW2
100
AcDbLine
 10
1221.782781564509
 20
625.5833175365409
 30
0.0
 11
1221.782781564509
 21
543.5833175365408
 31
0.0
  0
LINE
  5
978D
330
18
100
AcDbEntity
  8
DRAW2
100
AcDbLine
 10
1213.282781564509
 20
572.0833175365408
 30
0.0
 11
1213.282781564509
 21
538.6541244186595
 31
0.0
  0
LINE
  5
978E
330
18
100
AcDbEntity
  8
DRAW2
100
AcDbLine
 10
1274.782781564509
 20
569.0833175365408
 30
0.0
 11
1274.782781564509
 21
490.5833175365408
 31
0.0
  0
LINE
  5
978F
330
18
100
AcDbEntity
  8
DRAW2
100
AcDbLine
 10
1211.282781564509
 20
572.0833175365409
 30
0.0
 11
1211.282781564509
 21
519.083317536541
 31
0.0
  0
LINE
  5
9790
330
18
100
AcDbEntity
  8
DRAW2
100
AcDbLine
 10
1211.282781564509
 20
537.2071631970417
 30
0.0
 11
1231.782781564509
 21
537.2071631970417
 31
0.0
  0
LINE
  5
9791
330
18
100
AcDbEntity
  8
DRAW2
100
AcDbLine
 10
1213.282781564509
 20
535.1185905127267
 30
0.0
 11
1230.782781564509
 21
535.1185905127267
 31
0.0
  0
LINE
  5
9792
330
18
100
AcDbEntity
  8
DRAW2
100
AcDbLine
 10
1213.282781564509
 20
538.6541244186595
 30
0.0
 11
1230.782781564509
 21
538.6541244186595
 31
0.0
  0
LINE
  5
9793
330
18
100
AcDbEntity
  8
DRAW2
100
AcDbLine
 10
1213.282781564509
 20
517.083317536541
 30
0.0
 11
1230.782781564509
 21
517.083317536541
 31
0.0
  0
LINE
  5
9794
330
18
100
AcDbEntity
  8
DRAW2
100
AcDbLine
 10
1224.782781564509
 20
494.583317536541
 30
0.0
 11
1219.782781564509
 21
499.583317536541
 31
0.0
  0
LINE
  5
9795
330
18
100
AcDbEntity
  8
DRAW2
100
AcDbLine
 10
1177.782781564509
 20
517.8667744745954
 30
0.0
 11
1177.782781564509
 21
499.6219125537034
 31
0.0
  0
LINE
  5
9796
330
18
100
AcDbEntity
  8
DRAW2
100
AcDbLine
 10
1171.782781564509
 20
517.8667744745954
 30
0.0
 11
1171.782781564509
 21
499.1922017358358
 31
0.0
  0
LINE
  5
9797
330
18
100
AcDbEntity
  8
DRAW2
100
AcDbLine
 10
1219.782781564509
 20
499.583317536541
 30
0.0
 11
1219.782781564509
 21
517.0833175365411
 31
0.0
  0
LINE
  5
9798
330
18
100
AcDbEntity
  8
DRAW2
100
AcDbLine
 10
1207.28278156451
 20
516.5932831619942
 30
0.0
 11
1186.28278156451
 21
516.5932831619943
 31
0.0
  0
LINE
  5
9799
330
18
100
AcDbEntity
  8
DRAW2
100
AcDbLine
 10
1174.782781564509
 20
529.4207761993382
 30
0.0
 11
1174.782781564509
 21
524.4716439576047
 31
0.0
  0
LINE
  5
979A
330
18
100
AcDbEntity
  8
DRAW2
100
AcDbLine
 10
1174.782781564509
 20
529.4207761993382
 30
0.0
 11
1180.766014456621
 21
527.9800083314666
 31
0.0
  0
LINE
  5
979B
330
18
100
AcDbEntity
  8
DRAW2
100
AcDbLine
 10
1168.799548672396
 20
527.9800083314666
 30
0.0
 11
1174.782781564509
 21
529.4207761993382
 31
0.0
  0
LINE
  5
979C
330
18
100
AcDbEntity
  8
DRAW2
100
AcDbLine
 10
1186.28278156451
 20
516.5932831619943
 30
0.0
 11
1186.28278156451
 21
529.3064714692103
 31
0.0
  0
LINE
  5
979D
330
18
100
AcDbEntity
  8
DRAW2
100
AcDbLine
 10
1163.28278156451
 20
529.3064714692099
 30
0.0
 11
1163.28278156451
 21
516.5932831619942
 31
0.0
  0
LINE
  5
979E
330
18
100
AcDbEntity
  8
DRAW2
100
AcDbLine
 10
1168.799548672396
 20
523.0308760897331
 30
0.0
 11
1174.782781564509
 21
524.4716439576047
 31
0.0
  0
LINE
  5
979F
330
18
100
AcDbEntity
  8
DRAW2
100
AcDbLine
 10
1168.799548672396
 20
527.9800083314666
 30
0.0
 11
1168.799548672396
 21
523.0308760897331
 31
0.0
  0
LINE
  5
97A0
330
18
100
AcDbEntity
  8
DRAW2
100
AcDbLine
 10
1169.032781564509
 20
519.5513147189723
 30
0.0
 11
1168.799548672396
 21
519.6308760897331
 31
0.0
  0
LINE
  5
97A1
330
18
100
AcDbEntity
  8
DRAW2
100
AcDbLine
 10
1168.799548672396
 20
519.6308760897331
 30
0.0
 11
1168.799548672396
 21
523.0308760897331
 31
0.0
  0
LINE
  5
97A2
330
18
100
AcDbEntity
  8
DRAW2
100
AcDbLine
 10
1169.032781564509
 20
518.2997871764875
 30
0.0
 11
1169.032781564509
 21
520.4648506859487
 31
0.0
  0
LINE
  5
97A3
330
18
100
AcDbEntity
  8
DRAW2
100
AcDbLine
 10
1180.766014456621
 20
527.9800083314666
 30
0.0
 11
1180.766014456621
 21
523.0308760897331
 31
0.0
  0
LINE
  5
97A4
330
18
100
AcDbEntity
  8
DRAW2
100
AcDbLine
 10
1180.766014456621
 20
519.6308760897331
 30
0.0
 11
1180.532781564509
 21
519.5513147189723
 31
0.0
  0
LINE
  5
97A5
330
18
100
AcDbEntity
  8
DRAW2
100
AcDbLine
 10
1174.782781564509
 20
524.4716439576047
 30
0.0
 11
1180.766014456621
 21
523.0308760897331
 31
0.0
  0
LINE
  5
97A6
330
18
100
AcDbEntity
  8
DRAW2
100
AcDbLine
 10
1180.766014456621
 20
523.0308760897331
 30
0.0
 11
1180.766014456621
 21
519.6308760897331
 31
0.0
  0
LINE
  5
97A7
330
18
100
AcDbEntity
  8
DRAW2
100
AcDbLine
 10
1180.532781564509
 20
520.4648506859487
 30
0.0
 11
1180.532781564509
 21
518.2997871764875
 31
0.0
  0
LINE
  5
97A8
330
18
100
AcDbEntity
  8
DRAW2
100
AcDbLine
 10
1171.466156774154
 20
538.32786335493
 30
0.0
 11
1178.099406354864
 21
538.32786335493
 31
0.0
  0
LINE
  5
97A9
330
18
100
AcDbEntity
  8
DRAW2
100
AcDbLine
 10
1171.466156774154
 20
533.1317109322234
 30
0.0
 11
1178.099406354864
 21
533.1317109322234
 31
0.0
  0
LINE
  5
97AA
330
18
100
AcDbEntity
  8
DRAW2
100
AcDbLine
 10
1169.824094064509
 20
537.5599141624989
 30
0.0
 11
1169.823065266623
 21
537.5063176011649
 31
0.0
  0
LINE
  5
97AB
330
18
100
AcDbEntity
  8
DRAW2
100
AcDbLine
 10
1169.918781564509
 20
540.1839711359657
 30
0.0
 11
1169.824094064509
 21
537.5599141624989
 31
0.0
  0
LINE
  5
97AC
330
18
100
AcDbEntity
  8
DRAW2
100
AcDbLine
 10
1169.782781564509
 20
528.3137939389943
 30
0.0
 11
1169.782781564509
 21
528.2167716972146
 31
0.0
  0
LINE
  5
97AD
330
18
100
AcDbEntity
  8
DRAW2
100
AcDbLine
 10
1169.923620725418
 20
528.9029789565911
 30
0.0
 11
1169.782781564509
 21
528.9733985370455
 31
0.0
  0
LINE
  5
97AE
330
18
100
AcDbEntity
  8
DRAW2
100
AcDbLine
 10
1169.782781564509
 20
532.290023327401
 30
0.0
 11
1169.782781564509
 21
537.4861757501077
 31
0.0
  0
LINE
  5
97AF
330
18
100
AcDbEntity
  8
DRAW2
100
AcDbLine
 10
1169.782781564509
 20
537.4861757501077
 30
0.0
 11
1171.466156774153
 21
538.32786335493
 31
0.0
  0
LINE
  5
97B0
330
18
100
AcDbEntity
  8
DRAW2
100
AcDbLine
 10
1169.782781564509
 20
532.290023327401
 30
0.0
 11
1171.466156774153
 21
533.1317109322234
 31
0.0
  0
LINE
  5
97B1
330
18
100
AcDbEntity
  8
DRAW2
100
AcDbLine
 10
1171.466156774153
 20
538.32786335493
 30
0.0
 11
1171.466156774153
 21
533.1317109322234
 31
0.0
  0
LINE
  5
97B2
330
18
100
AcDbEntity
  8
DRAW2
100
AcDbLine
 10
1169.782781564509
 20
532.290023327401
 30
0.0
 11
1169.782781564509
 21
528.9733985370455
 31
0.0
  0
LINE
  5
97B3
330
18
100
AcDbEntity
  8
DRAW2
100
AcDbLine
 10
1170.582781564509
 20
530.6317109322232
 30
0.0
 11
1170.582781564509
 21
529.6702599356193
 31
0.0
  0
LINE
  5
97B4
330
18
100
AcDbEntity
  8
DRAW2
100
AcDbLine
 10
1169.782781564509
 20
528.3137939389943
 30
0.0
 11
1169.782781564509
 21
528.2167716972146
 31
0.0
  0
LINE
  5
97B5
330
18
100
AcDbEntity
  8
DRAW2
100
AcDbLine
 10
1156.828298892604
 20
535.2330092416422
 30
0.0
 11
1158.328298892604
 21
535.6660219435345
 31
0.0
  0
LINE
  5
97B6
330
18
100
AcDbEntity
  8
DRAW2
100
AcDbLine
 10
1158.328298892604
 20
535.6660219435345
 30
0.0
 11
1159.828298892604
 21
535.2330092416422
 31
0.0
  0
LINE
  5
97B7
330
18
100
AcDbEntity
  8
DRAW2
100
AcDbLine
 10
1159.828298892604
 20
535.2330092416422
 30
0.0
 11
1159.828298892604
 21
534.3669838378579
 31
0.0
  0
LINE
  5
97B8
330
18
100
AcDbEntity
  8
DRAW2
100
AcDbLine
 10
1156.828298892604
 20
534.3669838378579
 30
0.0
 11
1158.328298892604
 21
533.9339711359656
 31
0.0
  0
LINE
  5
97B9
330
18
100
AcDbEntity
  8
DRAW2
100
AcDbLine
 10
1156.828298892604
 20
534.3669838378579
 30
0.0
 11
1156.828298892604
 21
535.2330092416422
 31
0.0
  0
LINE
  5
97BA
330
18
100
AcDbEntity
  8
DRAW2
100
AcDbLine
 10
1158.328298892604
 20
533.9339711359656
 30
0.0
 11
1159.828298892604
 21
534.3669838378579
 31
0.0
  0
LINE
  5
97BB
330
18
100
AcDbEntity
  8
DRAW2
100
AcDbLine
 10
1179.742497862394
 20
537.506317601165
 30
0.0
 11
1179.741469064509
 21
537.5599141624989
 31
0.0
  0
LINE
  5
97BC
330
18
100
AcDbEntity
  8
DRAW2
100
AcDbLine
 10
1179.646781564509
 20
540.1839711359657
 30
0.0
 11
1179.741469064509
 21
537.5599141624989
 31
0.0
  0
LINE
  5
97BD
330
18
100
AcDbEntity
  8
DRAW2
100
AcDbLine
 10
1179.782781564509
 20
528.9733985370455
 30
0.0
 11
1179.782781564509
 21
532.290023327401
 31
0.0
  0
LINE
  5
97BE
330
18
100
AcDbEntity
  8
DRAW2
100
AcDbLine
 10
1179.6419424036
 20
528.9029789565911
 30
0.0
 11
1179.782781564509
 21
528.9733985370455
 31
0.0
  0
LINE
  5
97BF
330
18
100
AcDbEntity
  8
DRAW2
100
AcDbLine
 10
1179.782781564509
 20
532.290023327401
 30
0.0
 11
1179.782781564509
 21
537.4861757501077
 31
0.0
  0
LINE
  5
97C0
330
18
100
AcDbEntity
  8
DRAW2
100
AcDbLine
 10
1179.782781564509
 20
537.4861757501077
 30
0.0
 11
1178.099406354864
 21
538.32786335493
 31
0.0
  0
LINE
  5
97C1
330
18
100
AcDbEntity
  8
DRAW2
100
AcDbLine
 10
1179.782781564509
 20
532.290023327401
 30
0.0
 11
1178.099406354864
 21
533.1317109322234
 31
0.0
  0
LINE
  5
97C2
330
18
100
AcDbEntity
  8
DRAW2
100
AcDbLine
 10
1178.099406354864
 20
538.32786335493
 30
0.0
 11
1178.099406354864
 21
533.1317109322234
 31
0.0
  0
LINE
  5
97C3
330
18
100
AcDbEntity
  8
DRAW2
100
AcDbLine
 10
1179.782781564509
 20
528.2167716972145
 30
0.0
 11
1179.782781564509
 21
528.3137939389943
 31
0.0
  0
LINE
  5
97C4
330
18
100
AcDbEntity
  8
DRAW2
100
AcDbLine
 10
1178.982781564509
 20
530.6317109322232
 30
0.0
 11
1178.982781564509
 21
529.6702599356193
 31
0.0
  0
LINE
  5
97C5
330
18
100
AcDbEntity
  8
DRAW2
100
AcDbLine
 10
1179.782781564509
 20
528.2167716972145
 30
0.0
 11
1179.782781564509
 21
528.3137939389943
 31
0.0
  0
LINE
  5
97C6
330
18
100
AcDbEntity
  8
DRAW2
100
AcDbLine
 10
1174.782781564509
 20
549.9160219435347
 30
0.0
 11
1176.282781564509
 21
549.4830092416424
 31
0.0
  0
LINE
  5
97C7
330
18
100
AcDbEntity
  8
DRAW2
100
AcDbLine
 10
1173.282781564509
 20
549.4830092416424
 30
0.0
 11
1174.782781564509
 21
549.9160219435347
 31
0.0
  0
LINE
  5
97C8
330
18
100
AcDbEntity
  8
DRAW2
100
AcDbLine
 10
1174.782781564509
 20
548.1839711359659
 30
0.0
 11
1176.282781564509
 21
548.6169838378581
 31
0.0
  0
LINE
  5
97C9
330
18
100
AcDbEntity
  8
DRAW2
100
AcDbLine
 10
1173.282781564509
 20
548.6169838378581
 30
0.0
 11
1174.782781564509
 21
548.1839711359659
 31
0.0
  0
LINE
  5
97CA
330
18
100
AcDbEntity
  8
DRAW2
100
AcDbLine
 10
1176.282781564509
 20
549.4830092416424
 30
0.0
 11
1176.282781564509
 21
548.6169838378581
 31
0.0
  0
LINE
  5
97CB
330
18
100
AcDbEntity
  8
DRAW2
100
AcDbLine
 10
1173.282781564509
 20
548.6169838378581
 30
0.0
 11
1173.282781564509
 21
549.4830092416424
 31
0.0
  0
LINE
  5
97CC
330
18
100
AcDbEntity
  8
DRAW2
100
AcDbLine
 10
1207.28278156451
 20
534.583317536541
 30
0.0
 11
1207.28278156451
 21
516.5932831619942
 31
0.0
  0
LINE
  5
97CE
330
18
100
AcDbEntity
  8
DRAW2
100
AcDbLine
 10
1213.282781564509
 20
535.1185905127267
 30
0.0
 11
1213.282781564509
 21
517.083317536541
 31
0.0
  0
LINE
  5
97CF
330
18
100
AcDbEntity
  8
DRAW2
100
AcDbLine
 10
1213.282781564509
 20
517.083317536541
 30
0.0
 11
1211.282781564509
 21
519.083317536541
 31
0.0
  0
LINE
  5
97D0
330
18
100
AcDbEntity
  8
DRAW2
100
AcDbLine
 10
1195.757009493149
 20
534.583317536541
 30
0.0
 11
1211.282781564509
 21
534.583317536541
 31
0.0
  0
LINE
  5
97D1
330
18
100
AcDbEntity
  8
DRAW2
100
AcDbLine
 10
1192.737264236413
 20
535.2330092416422
 30
0.0
 11
1192.737264236413
 21
534.3669838378579
 31
0.0
  0
LINE
  5
97D2
330
18
100
AcDbEntity
  8
DRAW2
100
AcDbLine
 10
1189.737264236413
 20
534.3669838378579
 30
0.0
 11
1189.737264236413
 21
535.2330092416422
 31
0.0
  0
LINE
  5
97D3
330
18
100
AcDbEntity
  8
DRAW2
100
AcDbLine
 10
1189.737264236413
 20
534.3669838378579
 30
0.0
 11
1191.237264236413
 21
533.9339711359656
 31
0.0
  0
LINE
  5
97D4
330
18
100
AcDbEntity
  8
DRAW2
100
AcDbLine
 10
1189.737264236413
 20
535.2330092416422
 30
0.0
 11
1191.237264236413
 21
535.6660219435345
 31
0.0
  0
LINE
  5
97D5
330
18
100
AcDbEntity
  8
DRAW2
100
AcDbLine
 10
1191.237264236413
 20
533.9339711359656
 30
0.0
 11
1192.737264236413
 21
534.3669838378579
 31
0.0
  0
LINE
  5
97D6
330
18
100
AcDbEntity
  8
DRAW2
100
AcDbLine
 10
1191.237264236413
 20
535.6660219435345
 30
0.0
 11
1192.737264236413
 21
535.2330092416422
 31
0.0
  0
LINE
  5
97D7
330
18
100
AcDbEntity
  8
DRAW2
100
AcDbLine
 10
1198.782781564509
 20
546.4781997700256
 30
0.0
 11
1198.782781564509
 21
540.4160219435346
 31
0.0
  0
LINE
  5
97D8
330
18
100
AcDbEntity
  8
DRAW2
100
AcDbLine
 10
1213.282781564509
 20
535.1185905127267
 30
0.0
 11
1211.282781564509
 21
536.5338047219495
 31
0.0
  0
LINE
  5
97D9
330
18
100
AcDbEntity
  8
DRAW2
100
AcDbLine
 10
1213.282781564509
 20
538.6541244186595
 30
0.0
 11
1211.282781564509
 21
540.0693386278821
 31
0.0
  0
LINE
  5
97DA
330
18
100
AcDbEntity
  8
DRAW2
100
AcDbLine
 10
1232.282781564509
 20
490.5833175365408
 30
0.0
 11
1232.282781564509
 21
543.5833175365409
 31
0.0
  0
LINE
  5
97DB
330
18
100
AcDbEntity
  8
DRAW2
100
AcDbLine
 10
1269.782781564509
 20
490.5833175365408
 30
0.0
 11
1232.282781564509
 21
490.5833175365408
 31
0.0
  0
LINE
  5
97DC
330
18
100
AcDbEntity
  8
DRAW2
100
AcDbLine
 10
1232.282781564509
 20
494.5833175365411
 30
0.0
 11
1224.782781564509
 21
494.583317536541
 31
0.0
  0
LINE
  5
97DD
330
18
100
AcDbEntity
  8
DRAW2
100
AcDbLine
 10
1269.782781564509
 20
490.5833175365408
 30
0.0
 11
1274.782781564509
 21
490.5833175365408
 31
0.0
  0
LINE
  5
97DE
330
18
100
AcDbEntity
  8
DRAW2
100
AcDbLine
 10
1269.782781564509
 20
547.2738013241857
 30
0.0
 11
1221.782781564509
 21
547.2738013241857
 31
0.0
  0
LINE
  5
97DF
330
18
100
AcDbEntity
  8
DRAW2
100
AcDbLine
 10
1269.782781564509
 20
543.5833175365409
 30
0.0
 11
1221.782781564509
 21
543.5833175365409
 31
0.0
  0
LINE
  5
97E0
330
18
100
AcDbEntity
  8
DRAW2
100
AcDbLine
 10
1231.782781564509
 20
543.5833175365409
 30
0.0
 11
1231.782781564509
 21
518.0833175365409
 31
0.0
  0
LINE
  5
97E1
330
18
100
AcDbEntity
  8
DRAW2
100
AcDbLine
 10
1230.782781564509
 20
535.1185905127267
 30
0.0
 11
1230.782781564509
 21
517.083317536541
 31
0.0
  0
LINE
  5
97E2
330
18
100
AcDbEntity
  8
DRAW2
100
AcDbLine
 10
1232.282781564509
 20
524.0833175365414
 30
0.0
 11
1231.782781564509
 21
524.0833175365414
 31
0.0
  0
LINE
  5
97E3
330
18
100
AcDbEntity
  8
DRAW2
100
AcDbLine
 10
1231.782781564509
 20
518.0833175365409
 30
0.0
 11
1230.782781564509
 21
517.083317536541
 31
0.0
  0
LINE
  5
97E4
330
18
100
AcDbEntity
  8
DRAW2
100
AcDbLine
 10
1230.782781564509
 20
543.5833175365409
 30
0.0
 11
1230.782781564509
 21
538.6541244186595
 31
0.0
  0
LINE
  5
97E5
330
18
100
AcDbEntity
  8
DRAW2
100
AcDbLine
 10
1230.782781564509
 20
535.1185905127267
 30
0.0
 11
1231.782781564509
 21
535.8261976173381
 31
0.0
  0
LINE
  5
97E6
330
18
100
AcDbEntity
  8
DRAW2
100
AcDbLine
 10
1230.782781564509
 20
538.6541244186595
 30
0.0
 11
1231.782781564509
 21
539.3617315232709
 31
0.0
  0
LINE
  5
97E7
330
18
100
AcDbEntity
  8
DRAW2
100
AcDbLine
 10
1231.782781564509
 20
528.5833175365404
 30
0.0
 11
1232.282781564509
 21
528.5833175365404
 31
0.0
  0
LINE
  5
97E8
330
18
100
AcDbEntity
  8
DRAW2
100
AcDbLine
 10
1269.782781564509
 20
544.4460530557619
 30
0.0
 11
1274.782781564509
 21
544.4460530557619
 31
0.0
  0
LINE
  5
97E9
330
18
100
AcDbEntity
  8
DRAW2
100
AcDbLine
 10
1213.282781564509
 20
652.0833175365397
 30
0.0
 11
1230.782781564509
 21
652.0833175365397
 31
0.0
  0
LINE
  5
97EA
330
18
100
AcDbEntity
  8
DRAW2
100
AcDbLine
 10
1213.282781564509
 20
634.048044560354
 30
0.0
 11
1230.782781564509
 21
634.048044560354
 31
0.0
  0
LINE
  5
97EB
330
18
100
AcDbEntity
  8
DRAW2
100
AcDbLine
 10
1213.282781564509
 20
630.5125106544212
 30
0.0
 11
1230.782781564509
 21
630.5125106544212
 31
0.0
  0
LINE
  5
97EC
330
18
100
AcDbEntity
  8
DRAW2
100
AcDbLine
 10
1211.282781564509
 20
631.9594718760391
 30
0.0
 11
1231.782781564509
 21
631.9594718760391
 31
0.0
  0
LINE
  5
97ED
330
18
100
AcDbEntity
  8
DRAW2
100
AcDbLine
 10
1213.282781564509
 20
630.5125106544212
 30
0.0
 11
1213.282781564509
 21
597.0833175365408
 31
0.0
  0
LINE
  5
97EE
330
18
100
AcDbEntity
  8
DRAW2
100
AcDbLine
 10
1211.282781564509
 20
597.0833175365409
 30
0.0
 11
1211.282781564509
 21
650.0833175365397
 31
0.0
  0
LINE
  5
97EF
330
18
100
AcDbEntity
  8
DRAW2
100
AcDbLine
 10
1159.782781564509
 20
634.583317536541
 30
0.0
 11
1189.782781564509
 21
634.583317536541
 31
0.0
  0
LINE
  5
97F0
330
18
100
AcDbEntity
  8
DRAW2
100
AcDbLine
 10
1213.282781564509
 20
652.0833175365397
 30
0.0
 11
1211.282781564509
 21
650.0833175365397
 31
0.0
  0
LINE
  5
97F1
330
18
100
AcDbEntity
  8
DRAW2
100
AcDbLine
 10
1213.282781564509
 20
630.5125106544212
 30
0.0
 11
1211.282781564509
 21
629.0972964451985
 31
0.0
  0
LINE
  5
97F2
330
18
100
AcDbEntity
  8
DRAW2
100
AcDbLine
 10
1213.282781564509
 20
634.048044560354
 30
0.0
 11
1211.282781564509
 21
632.6328303511314
 31
0.0
  0
LINE
  5
97F3
330
18
100
AcDbEntity
  8
DRAW2
100
AcDbLine
 10
1213.282781564509
 20
652.0833175365397
 30
0.0
 11
1213.282781564509
 21
634.0480445603541
 31
0.0
  0
CIRCLE
  5
97F4
330
18
100
AcDbEntity
  8
DRAW2
100
AcDbCircle
 10
1250.78278156451
 20
608.5833175365409
 30
0.0
 40
8.0
  0
CIRCLE
  5
97F5
330
18
100
AcDbEntity
  8
DRAW2
100
AcDbCircle
 10
1250.78278156451
 20
608.5833175365411
 30
0.0
 40
6.0
  0
CIRCLE
  5
97F7
330
18
100
AcDbEntity
  8
DRAW2
100
AcDbCircle
 10
1250.78278156451
 20
560.583317536541
 30
0.0
 40
6.0
  0
ARC
  5
97F8
330
18
100
AcDbEntity
  8
DRAW2
100
AcDbCircle
 10
1271.28278156451
 20
567.583317536541
 30
0.0
 40
1.5
100
AcDbArc
 50
90.0
 51
180.0
  0
ARC
  5
97F9
330
18
100
AcDbEntity
  8
DRAW2
100
AcDbCircle
 10
1271.28278156451
 20
601.5833175365409
 30
0.0
 40
1.5
100
AcDbArc
 50
180.0
 51
270.0
  0
LINE
  5
97FA
330
18
100
AcDbEntity
  8
DRAW2
100
AcDbLine
 10
1221.782781564509
 20
621.8928337488962
 30
0.0
 11
1269.782781564509
 21
621.8928337488962
 31
0.0
  0
LINE
  5
97FC
330
18
100
AcDbEntity
  8
DRAW2
100
AcDbLine
 10
1221.782781564509
 20
625.5833175365409
 30
0.0
 11
1269.782781564509
 21
625.5833175365409
 31
0.0
  0
LINE
  5
97FD
330
18
100
AcDbEntity
  8
DRAW2
100
AcDbLine
 10
1230.782781564509
 20
630.5125106544212
 30
0.0
 11
1230.782781564509
 21
625.5833175365409
 31
0.0
  0
LINE
  5
97FE
330
18
100
AcDbEntity
  8
DRAW2
100
AcDbLine
 10
1231.782781564509
 20
625.583317536541
 30
0.0
 11
1231.782781564509
 21
651.0833175365397
 31
0.0
  0
LINE
  5
97FF
330
18
100
AcDbEntity
  8
DRAW2
100
AcDbLine
 10
1232.282781564509
 20
645.0833175365403
 30
0.0
 11
1231.782781564509
 21
645.0833175365403
 31
0.0
  0
LINE
  5
9800
330
18
100
AcDbEntity
  8
DRAW2
100
AcDbLine
 10
1231.782781564509
 20
640.5833175365404
 30
0.0
 11
1232.282781564509
 21
640.5833175365404
 31
0.0
  0
LINE
  5
9801
330
18
100
AcDbEntity
  8
DRAW2
100
AcDbLine
 10
1231.782781564509
 20
651.0833175365397
 30
0.0
 11
1230.782781564509
 21
652.0833175365397
 31
0.0
  0
LINE
  5
9802
330
18
100
AcDbEntity
  8
DRAW2
100
AcDbLine
 10
1230.782781564509
 20
630.5125106544212
 30
0.0
 11
1231.782781564509
 21
629.80490354981
 31
0.0
  0
LINE
  5
9803
330
18
100
AcDbEntity
  8
DRAW2
100
AcDbLine
 10
1230.782781564509
 20
634.048044560354
 30
0.0
 11
1231.782781564509
 21
633.3404374557426
 31
0.0
  0
LINE
  5
9804
330
18
100
AcDbEntity
  8
DRAW2
100
AcDbLine
 10
1230.782781564509
 20
652.0833175365397
 30
0.0
 11
1230.782781564509
 21
634.048044560354
 31
0.0
  0
LINE
  5
9805
330
18
100
AcDbEntity
  8
DRAW2
100
AcDbLine
 10
1269.782781564509
 20
624.7205820173198
 30
0.0
 11
1274.782781564509
 21
624.7205820173198
 31
0.0
  0
LINE
  5
9806
330
18
100
AcDbEntity
  8
DRAW2
100
AcDbLine
 10
1340.782781564509
 20
629.583317536541
 30
0.0
 11
1340.782781564509
 21
539.5833175365409
 31
0.0
  0
LINE
  5
9807
330
18
100
AcDbEntity
  8
DRAW2
100
AcDbLine
 10
1325.78278156451
 20
629.5833175365409
 30
0.0
 11
1325.78278156451
 21
539.5833175365409
 31
0.0
  0
LINE
  5
9808
330
18
100
AcDbEntity
  8
DRAW2
100
AcDbLine
 10
1321.782781564509
 20
628.5833175365412
 30
0.0
 11
1321.782781564509
 21
540.583317536541
 31
0.0
  0
LINE
  5
9809
330
18
100
AcDbEntity
  8
DRAW2
100
AcDbLine
 10
1323.78278156451
 20
628.5833175365412
 30
0.0
 11
1323.78278156451
 21
540.583317536541
 31
0.0
  0
LINE
  5
980A
330
18
100
AcDbEntity
  8
DRAW2
100
AcDbLine
 10
1299.782781564509
 20
557.5833175365411
 30
0.0
 11
1299.782781564509
 21
531.583317536541
 31
0.0
  0
LINE
  5
980B
330
18
100
AcDbEntity
  8
DRAW2
100
AcDbLine
 10
1301.782781564509
 20
555.5833175365411
 30
0.0
 11
1301.782781564509
 21
533.5833175365411
 31
0.0
  0
LINE
  5
980C
330
18
100
AcDbEntity
  8
DRAW2
100
AcDbLine
 10
1301.782781564509
 20
533.5833175365411
 30
0.0
 11
1299.782781564509
 21
531.5833175365411
 31
0.0
  0
LINE
  5
980D
330
18
100
AcDbEntity
  8
DRAW2
100
AcDbLine
 10
1325.78278156451
 20
539.5833175365409
 30
0.0
 11
1340.782781564509
 21
539.5833175365409
 31
0.0
  0
LINE
  5
980F
330
18
100
AcDbEntity
  8
DRAW2
100
AcDbLine
 10
1325.78278156451
 20
540.583317536541
 30
0.0
 11
1321.782781564509
 21
540.583317536541
 31
0.0
  0
LINE
  5
9810
330
18
100
AcDbEntity
  8
DRAW2
100
AcDbLine
 10
1301.782781564509
 20
555.5833175365411
 30
0.0
 11
1299.782781564509
 21
557.5833175365411
 31
0.0
  0
LINE
  5
9811
330
18
100
AcDbEntity
  8
DRAW2
100
AcDbLine
 10
1301.782781564509
 20
653.5833175365411
 30
0.0
 11
1299.782781564509
 21
651.5833175365411
 31
0.0
  0
LINE
  5
9813
330
18
100
AcDbEntity
  8
DRAW2
100
AcDbLine
 10
1325.78278156451
 20
628.5833175365412
 30
0.0
 11
1321.782781564509
 21
628.5833175365412
 31
0.0
  0
LINE
  5
9814
330
18
100
AcDbEntity
  8
DRAW2
100
AcDbLine
 10
1325.78278156451
 20
629.5833175365409
 30
0.0
 11
1340.782781564509
 21
629.583317536541
 31
0.0
  0
LINE
  5
9816
330
18
100
AcDbEntity
  8
DRAW2
100
AcDbLine
 10
1274.782781564509
 20
677.583317536541
 30
0.0
 11
1299.782781564509
 21
677.5833175365411
 31
0.0
  0
LINE
  5
9817
330
18
100
AcDbEntity
  8
DRAW2
100
AcDbLine
 10
1224.782781564509
 20
674.583317536541
 30
0.0
 11
1220.282781564509
 21
670.083317536541
 31
0.0
  0
LINE
  5
9818
330
18
100
AcDbEntity
  8
DRAW2
100
AcDbLine
 10
1269.782781564509
 20
678.5833175365409
 30
0.0
 11
1232.282781564509
 21
678.5833175365409
 31
0.0
  0
LINE
  5
9819
330
18
100
AcDbEntity
  8
DRAW2
100
AcDbLine
 10
1224.782781564509
 20
674.583317536541
 30
0.0
 11
1232.282781564509
 21
674.5833175365411
 31
0.0
  0
LINE
  5
981A
330
18
100
AcDbEntity
  8
DRAW2
100
AcDbLine
 10
1269.782781564509
 20
678.5833175365409
 30
0.0
 11
1274.782781564509
 21
678.5833175365409
 31
0.0
  0
LINE
  5
981B
330
18
100
AcDbEntity
  8
DRAW2
100
AcDbLine
 10
1301.782781564509
 20
675.5833175365411
 30
0.0
 11
1299.782781564509
 21
677.5833175365411
 31
0.0
  0
SPLINE
  5
9822
330
18
100
AcDbEntity
  8
DRAW3
100
AcDbSpline
210
0.0
220
0.0
230
1.0
 70
     8
 71
     3
 72
    10
 73
     6
 74
     4
 42
0.0000000001
 43
0.0000000001
 44
0.0000000001
 40
0.0
 40
0.0
 40
0.0
 40
0.0
 40
1.972684243528373
 40
4.621558289201663
 40
6.679776794359192
 40
6.679776794359192
 40
6.679776794359192
 40
6.679776794359192
 10
1541.328837419229
 20
266.2192773240531
 30
0.0
 10
1541.788382206265
 20
265.6430053265788
 30
0.0
 10
1542.864992934388
 20
264.2929288328374
 30
0.0
 10
1540.584544375246
 20
262.1103790963471
 30
0.0
 10
1541.79838529937
 20
260.7946094308342
 30
0.0
 10
1542.329148148278
 20
260.2192773240531
 30
0.0
 11
1541.328837419229
 21
266.2192773240531
 31
0.0
 11
1542.223852816561
 21
264.4613152757695
 31
0.0
 11
1541.276188060792
 21
261.9877621187672
 31
0.0
 11
1542.329148148278
 21
260.2192773240531
 31
0.0
  0
SPLINE
  5
9823
330
18
100
AcDbEntity
  8
DRAW3
100
AcDbSpline
210
0.0
220
0.0
230
1.0
 70
     8
 71
     3
 72
    10
 73
     6
 74
     4
 42
0.0000000001
 43
0.0000000001
 44
0.0000000001
 40
0.0
 40
0.0
 40
0.0
 40
0.0
 40
1.972684243528373
 40
4.621558289201663
 40
6.679776794359192
 40
6.679776794359192
 40
6.679776794359192
 40
6.679776794359192
 10
1543.328837419229
 20
266.2192773240531
 30
0.0
 10
1543.788382206265
 20
265.6430053265788
 30
0.0
 10
1544.864992934388
 20
264.2929288328374
 30
0.0
 10
1542.584544375245
 20
262.1103790963471
 30
0.0
 10
1543.79838529937
 20
260.7946094308342
 30
0.0
 10
1544.329148148277
 20
260.2192773240531
 30
0.0
 11
1543.328837419229
 21
266.2192773240531
 31
0.0
 11
1544.223852816561
 21
264.4613152757695
 31
0.0
 11
1543.276188060792
 21
261.9877621187672
 31
0.0
 11
1544.329148148277
 21
260.2192773240531
 31
0.0
  0
SPLINE
  5
9824
330
18
100
AcDbEntity
  8
DRAW3
100
AcDbSpline
210
0.0
220
0.0
230
1.0
 70
     8
 71
     3
 72
    10
 73
     6
 74
     4
 42
0.0000000001
 43
0.0000000001
 44
0.0000000001
 40
0.0
 40
0.0
 40
0.0
 40
0.0
 40
0.3934537606273082
 40
0.8633942176749133
 40
1.429935674776396
 40
1.429935674776396
 40
1.429935674776396
 40
1.429935674776396
 10
1455.295626988467
 20
229.1843872992362
 30
0.0
 10
1455.190601157571
 20
229.0642025613517
 30
0.0
 10
1454.960132665014
 20
228.8004693908342
 30
0.0
 10
1454.567575602707
 20
229.3743978539872
 30
0.0
 10
1454.230094372877
 20
229.148380565918
 30
0.0
 10
1454.045626988467
 20
229.0248394196956
 30
0.0
 11
1455.295626988467
 21
229.1843872992362
 31
0.0
 11
1454.979187775989
 21
228.9505666702111
 31
0.0
 11
1454.583212702164
 21
229.2036432872255
 31
0.0
 11
1454.045626988467
 21
229.0248394196956
 31
0.0
  0
SPLINE
  5
9825
330
18
100
AcDbEntity
  8
DRAW3
100
AcDbSpline
210
0.0
220
0.0
230
1.0
 70
     8
 71
     3
 72
    10
 73
     6
 74
     4
 42
0.0000000001
 43
0.0000000001
 44
0.0000000001
 40
0.0
 40
0.0
 40
0.0
 40
0.0
 40
0.3934537606269424
 40
0.8633942176749307
 40
1.202033207996425
 40
1.202033207996425
 40
1.202033207996425
 40
1.202033207996425
 10
1462.170626988466
 20
229.1843872992358
 30
0.0
 10
1462.066329033413
 20
229.0596310245523
 30
0.0
 10
1461.837457790284
 20
228.7858660819863
 30
0.0
 10
1461.495050825088
 20
229.346299319824
 30
0.0
 10
1461.266391279608
 20
229.1197288081778
 30
0.0
 10
1461.170626988466
 20
229.0248394196951
 30
0.0
 11
1462.170626988466
 21
229.1843872992358
 31
0.0
 11
1461.854187775988
 21
228.9505666702107
 31
0.0
 11
1461.458212702163
 21
229.203643287225
 31
0.0
 11
1461.170626988466
 21
229.0248394196951
 31
0.0
  0
SPLINE
  5
9826
330
18
100
AcDbEntity
  8
DRAW3
100
AcDbSpline
210
0.0
220
0.0
230
1.0
 70
     8
 71
     3
 72
    10
 73
     6
 74
     4
 42
0.0000000001
 43
0.0000000001
 44
0.0000000001
 40
0.0
 40
0.0
 40
0.0
 40
0.0
 40
0.3934537606273082
 40
0.8633942176749133
 40
1.429935674776396
 40
1.429935674776396
 40
1.429935674776396
 40
1.429935674776396
 10
1455.295626988467
 20
231.1843872992362
 30
0.0
 10
1455.190601157571
 20
231.0642025613517
 30
0.0
 10
1454.960132665014
 20
230.8004693908342
 30
0.0
 10
1454.567575602707
 20
231.3743978539872
 30
0.0
 10
1454.230094372877
 20
231.148380565918
 30
0.0
 10
1454.045626988467
 20
231.0248394196956
 30
0.0
 11
1455.295626988467
 21
231.1843872992362
 31
0.0
 11
1454.979187775989
 21
230.9505666702111
 31
0.0
 11
1454.583212702164
 21
231.2036432872255
 31
0.0
 11
1454.045626988467
 21
231.0248394196956
 31
0.0
  0
SPLINE
  5
9827
330
18
100
AcDbEntity
  8
DRAW3
100
AcDbSpline
210
0.0
220
0.0
230
1.0
 70
     8
 71
     3
 72
    10
 73
     6
 74
     4
 42
0.0000000001
 43
0.0000000001
 44
0.0000000001
 40
0.0
 40
0.0
 40
0.0
 40
0.0
 40
0.3934537606269424
 40
0.8633942176749307
 40
1.202033207996425
 40
1.202033207996425
 40
1.202033207996425
 40
1.202033207996425
 10
1462.170626988466
 20
231.1843872992358
 30
0.0
 10
1462.066329033413
 20
231.0596310245522
 30
0.0
 10
1461.837457790284
 20
230.7858660819863
 30
0.0
 10
1461.495050825088
 20
231.346299319824
 30
0.0
 10
1461.266391279608
 20
231.1197288081778
 30
0.0
 10
1461.170626988466
 20
231.0248394196951
 30
0.0
 11
1462.170626988466
 21
231.1843872992358
 31
0.0
 11
1461.854187775988
 21
230.9505666702107
 31
0.0
 11
1461.458212702163
 21
231.203643287225
 31
0.0
 11
1461.170626988466
 21
231.0248394196951
 31
0.0
  0
SPLINE
  5
9828
330
18
100
AcDbEntity
  8
DRAW3
100
AcDbSpline
210
0.0
220
0.0
230
1.0
 70
     8
 71
     3
 72
    10
 73
     6
 74
     4
 42
0.0000000001
 43
0.0000000001
 44
0.0000000001
 40
0.0
 40
0.0
 40
0.0
 40
0.0
 40
0.7869075212542507
 40
1.726788435349844
 40
2.626116616137474
 40
2.626116616137474
 40
2.626116616137474
 40
2.626116616137474
 10
1479.170626988475
 20
229.1843872992358
 30
0.0
 10
1478.960900774829
 20
228.9403787114917
 30
0.0
 10
1478.500677952538
 20
228.4049267097482
 30
0.0
 10
1477.773672055567
 20
229.5267683436262
 30
0.0
 10
1477.200764664575
 20
229.0825187203664
 30
0.0
 10
1476.920626988476
 20
228.8652915401544
 30
0.0
 11
1479.170626988475
 21
229.1843872992358
 31
0.0
 11
1478.537748563518
 21
228.7167460411856
 31
0.0
 11
1477.745798415867
 21
229.2228992752143
 31
0.0
 11
1476.920626988476
 21
228.8652915401544
 31
0.0
  0
SPLINE
  5
9829
330
18
100
AcDbEntity
  8
DRAW3
100
AcDbSpline
210
0.0
220
0.0
230
1.0
 70
     8
 71
     3
 72
    10
 73
     6
 74
     4
 42
0.0000000001
 43
0.0000000001
 44
0.0000000001
 40
0.0
 40
0.0
 40
0.0
 40
0.0
 40
0.7869075212542507
 40
1.726788435349844
 40
2.626116616137474
 40
2.626116616137474
 40
2.626116616137474
 40
2.626116616137474
 10
1479.170626988475
 20
231.1843872992358
 30
0.0
 10
1478.960900774829
 20
230.9403787114917
 30
0.0
 10
1478.500677952538
 20
230.4049267097482
 30
0.0
 10
1477.773672055567
 20
231.5267683436261
 30
0.0
 10
1477.200764664575
 20
231.0825187203664
 30
0.0
 10
1476.920626988476
 20
230.8652915401544
 30
0.0
 11
1479.170626988475
 21
231.1843872992358
 31
0.0
 11
1478.537748563518
 21
230.7167460411856
 31
0.0
 11
1477.745798415867
 21
231.2228992752143
 31
0.0
 11
1476.920626988476
 21
230.8652915401544
 31
0.0
  0
SPLINE
  5
982A
330
18
100
AcDbEntity
  8
DRAW3
100
AcDbSpline
210
0.0
220
0.0
230
1.0
 70
     8
 71
     3
 72
    13
 73
     9
 74
     0
 42
0.0000000001
 43
0.0000000001
 40
15.30293154848652
 40
15.30293154848652
 40
15.30293154848652
 40
15.30293154848652
 40
20.18646405576841
 40
28.42945051837856
 40
36.84357676839221
 40
49.90020666553566
 40
59.19744131361298
 40
60.48168214932836
 40
60.48168214932836
 40
60.48168214932836
 40
60.48168214932836
 10
1664.04243268167
 20
205.5589670553024
 30
0.0
 10
1668.139871971743
 20
205.7941031305357
 30
0.0
 10
1677.33338116859
 20
211.7877472125774
 30
0.0
 10
1686.93278166451
 20
198.3685105843168
 30
0.0
 10
1704.759923237432
 20
197.6695217055999
 30
0.0
 10
1707.329326806603
 20
172.2863032748375
 30
0.0
 10
1732.663330074998
 20
188.7071233414474
 30
0.0
 10
1755.130296427718
 20
182.9680805492416
 30
0.0
 10
1755.933250566888
 20
181.7399165923614
 30
0.0
  0
ARC
  5
982B
330
18
100
AcDbEntity
  8
DRAW2
100
AcDbCircle
 10
1673.93278166451
 20
139.5864782815618
 30
0.0
 40
13.00000000000004
100
AcDbArc
 50
9.507953649141102
 51
270.2336724650328
  0
CIRCLE
  5
982C
102
{ACAD_REACTORS
330
99BC
102
}
330
18
100
AcDbEntity
  8
DRAW2
100
AcDbCircle
 10
1713.93278166451
 20
105.8685105843172
 30
0.0
 40
45.0
  0
CIRCLE
  5
982D
102
{ACAD_REACTORS
330
99BB
102
}
330
18
100
AcDbEntity
  8
DRAW2
100
AcDbCircle
 10
1713.93278166451
 20
311.8685105843172
 30
0.0
 40
45.0
  0
LINE
  5
982E
330
18
100
AcDbEntity
  8
HIDDEN
100
AcDbLine
 10
1679.893456713319
 20
168.6616235109211
 30
0.0
 11
1685.617397718677
 21
174.7548510327535
 31
0.0
  0
LINE
  5
982F
330
18
100
AcDbEntity
  8
HIDDEN
100
AcDbLine
 10
1679.035647799389
 20
166.9003089073311
 30
0.0
 11
1686.263870093376
 21
174.5948681235096
 31
0.0
  0
LINE
  5
9830
330
18
100
AcDbEntity
  8
HIDDEN
100
AcDbLine
 10
1686.263870093376
 20
174.5948681235096
 30
0.0
 11
1679.659139203703
 21
181.1995990131825
 31
0.0
  0
LINE
  5
9831
330
18
100
AcDbEntity
  8
HIDDEN
100
AcDbLine
 10
1682.749372614184
 20
183.4833771397197
 30
0.0
 11
1679.819122112946
 21
180.5531266384816
 31
0.0
  0
LINE
  5
9832
330
18
100
AcDbEntity
  8
HIDDEN
100
AcDbLine
 10
1682.016809988874
 20
170.9219673203833
 30
0.0
 11
1675.986238400576
 21
176.9525389086809
 31
0.0
  0
LINE
  5
9833
330
18
100
AcDbEntity
  8
HIDDEN
100
AcDbLine
 10
1671.93278166451
 20
186.2900105780668
 30
0.0
 11
1681.33278166451
 21
186.5837605780668
 31
0.0
  0
LINE
  5
9834
330
18
100
AcDbEntity
  8
HIDDEN
100
AcDbLine
 10
1671.93278166451
 20
199.4470105905668
 30
0.0
 11
1681.33278166451
 21
199.1532605905667
 31
0.0
  0
LINE
  5
9837
330
18
100
AcDbEntity
  8
HIDDEN
100
AcDbLine
 10
1679.05278186451
 20
198.3685105843168
 30
0.0
 11
1686.93278166451
 21
198.3685105843168
 31
0.0
  0
LINE
  5
9838
330
18
100
AcDbEntity
  8
HIDDEN
100
AcDbLine
 10
1679.05278186451
 20
187.3685105843168
 30
0.0
 11
1686.93278166451
 21
187.3685105843168
 31
0.0
  0
LINE
  5
9839
330
18
100
AcDbEntity
  8
HIDDEN
100
AcDbLine
 10
1677.595680438627
 20
179.2611983550813
 30
0.0
 11
1684.325469435274
 21
172.531409358434
 31
0.0
  0
LINE
  5
983A
330
18
100
AcDbEntity
  8
HIDDEN
100
AcDbLine
 10
1678.443843617712
 20
179.2611983550813
 30
0.0
 11
1684.325469435275
 21
173.3795725375192
 31
0.0
  0
ARC
  5
983C
330
18
100
AcDbEntity
  8
DRAW2
100
AcDbCircle
 10
1673.93278166451
 20
278.1505428870719
 30
0.0
 40
13.00000000000004
100
AcDbArc
 50
89.76632753496536
 51
350.4920463508615
  0
ARC
  5
983D
330
18
100
AcDbEntity
  8
DRAW2
100
AcDbCircle
 10
1673.93278166451
 20
278.1505428870722
 30
0.0
 40
10.99999999999997
100
AcDbArc
 50
83.77076459497921
 51
356.4876092908473
  0
ARC
  5
9841
330
18
100
AcDbEntity
  8
DRAW2
100
AcDbCircle
 10
1673.93278166451
 20
139.5864782815618
 30
0.0
 40
10.99999999999997
100
AcDbArc
 50
3.512390709153795
 51
276.2292354050205
  0
ARC
  5
9844
330
18
100
AcDbEntity
  8
HIDDEN
100
AcDbCircle
 10
1713.93278166451
 20
208.8685105843168
 30
0.0
 40
49.99999999999994
100
AcDbArc
 50
183.7952322728986
 51
327.1411099329509
  0
ARC
  5
9848
330
18
100
AcDbEntity
  8
DRAW2
100
AcDbCircle
 10
1487.170626988467
 20
236.5942773240531
 30
0.0
 40
26.0
100
AcDbArc
 50
90.0
 51
180.0
  0
ARC
  5
984A
330
18
100
AcDbEntity
  8
DRAW2
100
AcDbCircle
 10
1480.295626988467
 20
238.5942773240526
 30
0.0
 40
25.0
100
AcDbArc
 50
90.0
 51
180.0
  0
ARC
  5
984B
330
18
100
AcDbEntity
  8
DRAW2
100
AcDbCircle
 10
1480.295626988467
 20
238.5942773240526
 30
0.0
 40
26.25
100
AcDbArc
 50
90.0
 51
180.0
  0
ARC
  5
984C
330
18
100
AcDbEntity
  8
DRAW2
100
AcDbCircle
 10
1487.170626988467
 20
236.5942773240531
 30
0.0
 40
25.0
100
AcDbArc
 50
90.0
 51
180.0
  0
ARC
  5
984F
330
18
100
AcDbEntity
  8
DRAW2
100
AcDbCircle
 10
1503.170626988471
 20
238.5942773240521
 30
0.0
 40
25.0
100
AcDbArc
 50
90.0
 51
180.0
  0
ARC
  5
9850
330
18
100
AcDbEntity
  8
DRAW2
100
AcDbCircle
 10
1503.170626988471
 20
238.5942773240521
 30
0.0
 40
26.25
100
AcDbArc
 50
90.0
 51
180.0
  0
ARC
  5
9851
330
18
100
AcDbEntity
  8
DRAW2
100
AcDbCircle
 10
1504.170626988468
 20
236.5942773240535
 30
0.0
 40
26.0
100
AcDbArc
 50
90.0
 51
180.0
  0
ARC
  5
9852
330
18
100
AcDbEntity
  8
DRAW2
100
AcDbCircle
 10
1504.170626988468
 20
236.5942773240535
 30
0.0
 40
25.0
100
AcDbArc
 50
90.0
 51
180.0
  0
ARC
  5
9853
330
18
100
AcDbEntity
  8
DRAW2
100
AcDbCircle
 10
1713.93278166451
 20
208.8685105843171
 30
0.0
 40
94.0
100
AcDbArc
 50
115.8934747632966
 51
244.1065252367033
  0
LINE
  5
9859
330
18
100
AcDbEntity
  8
DRAW2
100
AcDbLine
 10
1484.270626988466
 20
176.3688508709692
 30
0.0
 11
1482.870626988466
 21
173.8688508709692
 31
0.0
  0
LINE
  5
985A
330
18
100
AcDbEntity
  8
DRAW2
100
AcDbLine
 10
1470.670626988466
 20
184.8688508709687
 30
0.0
 11
1485.670626988466
 21
184.8688508709692
 31
0.0
  0
LINE
  5
985B
330
18
100
AcDbEntity
  8
DRAW2
100
AcDbLine
 10
1479.070626988466
 20
176.3688508709692
 30
0.0
 11
1484.270626988466
 21
176.3688508709692
 31
0.0
  0
LINE
  5
985C
330
18
100
AcDbEntity
  8
DRAW2
100
AcDbLine
 10
1479.070626988466
 20
180.3688508709692
 30
0.0
 11
1484.270626988466
 21
180.3688508709692
 31
0.0
  0
LINE
  5
985D
330
18
100
AcDbEntity
  8
DRAW2
100
AcDbLine
 10
1485.670626988466
 20
180.8688508709692
 30
0.0
 11
1478.920626988466
 21
180.8688508709687
 31
0.0
  0
ARC
  5
985F
330
18
100
AcDbEntity
  8
DRAW2
100
AcDbCircle
 10
1453.170626988466
 20
202.5791583187697
 30
0.0
 40
23.75
100
AcDbArc
 50
340.4757284897078
 51
0.0
  0
ARC
  5
9860
330
18
100
AcDbEntity
  8
DRAW2
100
AcDbCircle
 10
1453.170626988466
 20
202.5791583187697
 30
0.0
 40
25.0
100
AcDbArc
 50
340.4757284897078
 51
0.0
  0
ARC
  5
9862
330
18
100
AcDbEntity
  8
DRAW2
100
AcDbCircle
 10
1503.170626988466
 20
202.9275729802006
 30
0.0
 40
24.0
100
AcDbArc
 50
180.0
 51
199.9484435888027
  0
ARC
  5
9863
330
18
100
AcDbEntity
  8
DRAW2
100
AcDbCircle
 10
1503.170626988466
 20
202.9275729802006
 30
0.0
 40
25.0
100
AcDbArc
 50
180.0
 51
199.9484435888027
  0
LINE
  5
9865
330
18
100
AcDbEntity
  8
DRAW2
100
AcDbLine
 10
1454.045626988466
 20
184.8688508709687
 30
0.0
 11
1454.045626988466
 21
229.0248394196951
 31
0.0
  0
LINE
  5
9867
330
18
100
AcDbEntity
  8
DRAW2
100
AcDbLine
 10
1455.295626988466
 20
184.8688508709687
 30
0.0
 11
1455.295626988466
 21
229.184387299234
 31
0.0
  0
LINE
  5
9868
330
18
100
AcDbEntity
  8
DRAW2
100
AcDbLine
 10
1461.170626988466
 20
184.8688508709687
 30
0.0
 11
1461.170626988466
 21
229.0248394196951
 31
0.0
  0
LINE
  5
9869
330
18
100
AcDbEntity
  8
DRAW2
100
AcDbLine
 10
1462.170626988466
 20
184.8688508709687
 30
0.0
 11
1462.170626988466
 21
229.1843872992355
 31
0.0
  0
LINE
  5
986A
330
18
100
AcDbEntity
  8
DRAW2
100
AcDbLine
 10
1450.670626988466
 20
184.8688508709687
 30
0.0
 11
1465.670626988466
 21
184.8688508709692
 31
0.0
  0
LINE
  5
986B
330
18
100
AcDbEntity
  8
DRAW2
100
AcDbLine
 10
1450.670626988466
 20
180.8688508709692
 30
0.0
 11
1457.420626988466
 21
180.8688508709687
 31
0.0
  0
LINE
  5
986C
330
18
100
AcDbEntity
  8
DRAW2
100
AcDbLine
 10
1450.670626988466
 20
180.8688508709692
 30
0.0
 11
1450.670626988466
 21
184.8688508709687
 31
0.0
  0
LINE
  5
986E
330
18
100
AcDbEntity
  8
DRAW2
100
AcDbLine
 10
1477.270626988466
 20
176.3688508709692
 30
0.0
 11
1475.870626988466
 21
173.8688508709692
 31
0.0
  0
LINE
  5
986F
330
18
100
AcDbEntity
  8
DRAW2
100
AcDbLine
 10
1472.070626988466
 20
176.3688508709692
 30
0.0
 11
1473.470626988466
 21
173.8688508709692
 31
0.0
  0
LINE
  5
9870
330
18
100
AcDbEntity
  8
DRAW2
100
AcDbLine
 10
1452.070626988466
 20
176.3688508709692
 30
0.0
 11
1453.470626988466
 21
173.8688508709692
 31
0.0
  0
LINE
  5
9871
330
18
100
AcDbEntity
  8
DRAW2
100
AcDbLine
 10
1459.070626988467
 20
176.3688508709692
 30
0.0
 11
1460.470626988466
 21
173.8688508709692
 31
0.0
  0
LINE
  5
9872
330
18
100
AcDbEntity
  8
DRAW2
100
AcDbLine
 10
1457.270626988466
 20
176.3688508709692
 30
0.0
 11
1455.870626988466
 21
173.8688508709692
 31
0.0
  0
LINE
  5
9873
330
18
100
AcDbEntity
  8
DRAW2
100
AcDbLine
 10
1464.270626988466
 20
176.3688508709692
 30
0.0
 11
1462.870626988466
 21
173.8688508709692
 31
0.0
  0
LINE
  5
9875
330
18
100
AcDbEntity
  8
DRAW2
100
AcDbLine
 10
1479.070626988466
 20
176.3688508709692
 30
0.0
 11
1480.470626988466
 21
173.8688508709692
 31
0.0
  0
LINE
  5
9876
330
18
100
AcDbEntity
  8
DRAW2
100
AcDbLine
 10
1453.470626988466
 20
163.8688508709692
 30
0.0
 11
1453.470626988466
 21
173.8688508709697
 31
0.0
  0
LINE
  5
9877
330
18
100
AcDbEntity
  8
DRAW2
100
AcDbLine
 10
1462.870626988467
 20
163.8688508709692
 30
0.0
 11
1462.870626988467
 21
173.8688508709697
 31
0.0
  0
LINE
  5
9878
330
18
100
AcDbEntity
  8
DRAW2
100
AcDbLine
 10
1460.470626988466
 20
163.8688508709692
 30
0.0
 11
1460.470626988466
 21
173.8688508709697
 31
0.0
  0
LINE
  5
9879
330
18
100
AcDbEntity
  8
DRAW2
100
AcDbLine
 10
1455.870626988467
 20
163.8688508709692
 30
0.0
 11
1455.870626988467
 21
173.8688508709697
 31
0.0
  0
LINE
  5
987A
330
18
100
AcDbEntity
  8
DRAW2
100
AcDbLine
 10
1453.470626988466
 20
173.8688508709692
 30
0.0
 11
1455.870626988467
 21
173.8688508709692
 31
0.0
  0
LINE
  5
987B
330
18
100
AcDbEntity
  8
DRAW2
100
AcDbLine
 10
1460.470626988466
 20
173.8688508709692
 30
0.0
 11
1462.870626988467
 21
173.8688508709692
 31
0.0
  0
LINE
  5
987C
330
18
100
AcDbEntity
  8
DRAW2
100
AcDbLine
 10
1460.470626988466
 20
163.8688508709692
 30
0.0
 11
1462.870626988467
 21
163.8688508709697
 31
0.0
  0
LINE
  5
987D
330
18
100
AcDbEntity
  8
DRAW2
100
AcDbLine
 10
1453.470626988466
 20
163.8688508709692
 30
0.0
 11
1455.870626988467
 21
163.8688508709697
 31
0.0
  0
LINE
  5
987E
330
18
100
AcDbEntity
  8
DRAW2
100
AcDbLine
 10
1482.870626988467
 20
163.8688508709692
 30
0.0
 11
1482.870626988467
 21
173.8688508709697
 31
0.0
  0
LINE
  5
987F
330
18
100
AcDbEntity
  8
DRAW2
100
AcDbLine
 10
1480.470626988466
 20
163.8688508709692
 30
0.0
 11
1480.470626988466
 21
173.8688508709697
 31
0.0
  0
LINE
  5
9880
330
18
100
AcDbEntity
  8
DRAW2
100
AcDbLine
 10
1480.470626988466
 20
173.8688508709692
 30
0.0
 11
1482.870626988467
 21
173.8688508709692
 31
0.0
  0
LINE
  5
9881
330
18
100
AcDbEntity
  8
DRAW2
100
AcDbLine
 10
1473.470626988466
 20
163.8688508709692
 30
0.0
 11
1473.470626988466
 21
173.8688508709697
 31
0.0
  0
LINE
  5
9882
330
18
100
AcDbEntity
  8
DRAW2
100
AcDbLine
 10
1475.870626988466
 20
163.8688508709692
 30
0.0
 11
1475.870626988466
 21
173.8688508709697
 31
0.0
  0
LINE
  5
9883
330
18
100
AcDbEntity
  8
DRAW2
100
AcDbLine
 10
1473.470626988466
 20
173.8688508709692
 30
0.0
 11
1475.870626988466
 21
173.8688508709692
 31
0.0
  0
LINE
  5
9884
330
18
100
AcDbEntity
  8
DRAW2
100
AcDbLine
 10
1473.470626988466
 20
163.8688508709692
 30
0.0
 11
1475.870626988466
 21
163.8688508709697
 31
0.0
  0
LINE
  5
9885
330
18
100
AcDbEntity
  8
DRAW2
100
AcDbLine
 10
1480.470626988466
 20
163.8688508709692
 30
0.0
 11
1482.870626988467
 21
163.8688508709697
 31
0.0
  0
LINE
  5
9886
330
18
100
AcDbEntity
  8
DRAW2
100
AcDbLine
 10
1464.270626988466
 20
176.3688508709692
 30
0.0
 11
1464.270626988466
 21
180.3688508709692
 31
0.0
  0
LINE
  5
9887
330
18
100
AcDbEntity
  8
DRAW2
100
AcDbLine
 10
1452.070626988466
 20
176.3688508709692
 30
0.0
 11
1457.270626988466
 21
176.3688508709692
 31
0.0
  0
LINE
  5
9888
330
18
100
AcDbEntity
  8
DRAW2
100
AcDbLine
 10
1457.420626988466
 20
177.8688508709697
 30
0.0
 11
1458.920626988466
 21
177.8688508709697
 31
0.0
  0
LINE
  5
9889
330
18
100
AcDbEntity
  8
DRAW2
100
AcDbLine
 10
1452.070626988466
 20
180.3688508709692
 30
0.0
 11
1457.270626988466
 21
180.3688508709692
 31
0.0
  0
LINE
  5
988A
330
18
100
AcDbEntity
  8
DRAW2
100
AcDbLine
 10
1453.420626988466
 20
180.3688508709697
 30
0.0
 11
1453.420626988466
 21
180.8688508709687
 31
0.0
  0
LINE
  5
988B
330
18
100
AcDbEntity
  8
DRAW2
100
AcDbLine
 10
1455.920626988466
 20
180.3688508709697
 30
0.0
 11
1455.920626988466
 21
180.8688508709687
 31
0.0
  0
LINE
  5
988C
330
18
100
AcDbEntity
  8
DRAW2
100
AcDbLine
 10
1460.420626988466
 20
180.3688508709697
 30
0.0
 11
1460.420626988466
 21
180.8688508709687
 31
0.0
  0
LINE
  5
988D
330
18
100
AcDbEntity
  8
DRAW2
100
AcDbLine
 10
1462.920626988466
 20
180.3688508709697
 30
0.0
 11
1462.920626988466
 21
180.8688508709687
 31
0.0
  0
LINE
  5
988E
330
18
100
AcDbEntity
  8
DRAW2
100
AcDbLine
 10
1452.070626988466
 20
176.3688508709692
 30
0.0
 11
1452.070626988466
 21
180.3688508709692
 31
0.0
  0
LINE
  5
988F
330
18
100
AcDbEntity
  8
DRAW2
100
AcDbLine
 10
1459.070626988467
 20
176.3688508709692
 30
0.0
 11
1459.070626988466
 21
180.3688508709692
 31
0.0
  0
LINE
  5
9890
330
18
100
AcDbEntity
  8
DRAW2
100
AcDbLine
 10
1457.270626988466
 20
176.3688508709692
 30
0.0
 11
1457.270626988466
 21
180.3688508709692
 31
0.0
  0
LINE
  5
9891
330
18
100
AcDbEntity
  8
DRAW2
100
AcDbLine
 10
1457.420626988466
 20
177.8688508709697
 30
0.0
 11
1457.420626988466
 21
180.8688508709687
 31
0.0
  0
LINE
  5
9892
330
18
100
AcDbEntity
  8
DRAW2
100
AcDbLine
 10
1458.920626988466
 20
177.8688508709697
 30
0.0
 11
1458.920626988466
 21
180.8688508709687
 31
0.0
  0
LINE
  5
9893
330
18
100
AcDbEntity
  8
DRAW2
100
AcDbLine
 10
1465.670626988466
 20
180.8688508709692
 30
0.0
 11
1458.920626988466
 21
180.8688508709687
 31
0.0
  0
LINE
  5
9894
330
18
100
AcDbEntity
  8
DRAW2
100
AcDbLine
 10
1459.070626988467
 20
176.3688508709692
 30
0.0
 11
1464.270626988466
 21
176.3688508709692
 31
0.0
  0
LINE
  5
9895
330
18
100
AcDbEntity
  8
DRAW2
100
AcDbLine
 10
1459.070626988466
 20
180.3688508709692
 30
0.0
 11
1464.270626988466
 21
180.3688508709692
 31
0.0
  0
LINE
  5
9896
330
18
100
AcDbEntity
  8
DRAW2
100
AcDbLine
 10
1465.670626988466
 20
180.8688508709692
 30
0.0
 11
1465.670626988466
 21
184.8688508709687
 31
0.0
  0
ARC
  5
9897
330
18
100
AcDbEntity
  8
DRAW2
100
AcDbCircle
 10
1456.170626988466
 20
185.8688508709688
 30
0.0
 40
26.0
100
AcDbArc
 50
0.0
 51
19.94844358880264
  0
LINE
  5
9898
330
18
100
AcDbEntity
  8
DRAW2
100
AcDbLine
 10
1481.170626988466
 20
185.8688508709688
 30
0.0
 11
1481.170626988466
 21
184.8688508709687
 31
0.0
  0
LINE
  5
9899
330
18
100
AcDbEntity
  8
DRAW2
100
AcDbLine
 10
1482.170626988466
 20
185.8688508709688
 30
0.0
 11
1482.170626988466
 21
184.8688508709687
 31
0.0
  0
ARC
  5
989B
330
18
100
AcDbEntity
  8
DRAW2
100
AcDbCircle
 10
1456.170626988466
 20
185.8688508709688
 30
0.0
 40
25.0
100
AcDbArc
 50
0.0
 51
19.94844358880264
  0
LINE
  5
989C
330
18
100
AcDbEntity
  8
DRAW2
100
AcDbLine
 10
1480.420626988466
 20
180.3688508709697
 30
0.0
 11
1480.420626988466
 21
180.8688508709687
 31
0.0
  0
LINE
  5
989D
330
18
100
AcDbEntity
  8
DRAW2
100
AcDbLine
 10
1482.920626988466
 20
180.3688508709697
 30
0.0
 11
1482.920626988466
 21
180.8688508709687
 31
0.0
  0
LINE
  5
989E
330
18
100
AcDbEntity
  8
DRAW2
100
AcDbLine
 10
1474.045626988466
 20
185.8688508709683
 30
0.0
 11
1474.045626988466
 21
184.8688508709687
 31
0.0
  0
LINE
  5
989F
330
18
100
AcDbEntity
  8
DRAW2
100
AcDbLine
 10
1475.295626988466
 20
185.8688508709683
 30
0.0
 11
1475.295626988466
 21
184.8688508709687
 31
0.0
  0
ARC
  5
98A1
330
18
100
AcDbEntity
  8
DRAW2
100
AcDbCircle
 10
1500.295626988466
 20
185.8688508709683
 30
0.0
 40
26.25
100
AcDbArc
 50
160.4757284897078
 51
180.0
  0
ARC
  5
98A2
330
18
100
AcDbEntity
  8
DRAW2
100
AcDbCircle
 10
1500.295626988466
 20
185.8688508709683
 30
0.0
 40
25.0
100
AcDbArc
 50
160.4757284897078
 51
180.0
  0
LINE
  5
98A3
330
18
100
AcDbEntity
  8
DRAW2
100
AcDbLine
 10
1477.420626988466
 20
177.8688508709697
 30
0.0
 11
1478.920626988466
 21
177.8688508709697
 31
0.0
  0
LINE
  5
98A4
330
18
100
AcDbEntity
  8
DRAW2
100
AcDbLine
 10
1472.070626988466
 20
176.3688508709692
 30
0.0
 11
1477.270626988466
 21
176.3688508709692
 31
0.0
  0
LINE
  5
98A5
330
18
100
AcDbEntity
  8
DRAW2
100
AcDbLine
 10
1470.670626988466
 20
180.8688508709692
 30
0.0
 11
1477.420626988466
 21
180.8688508709687
 31
0.0
  0
LINE
  5
98A6
330
18
100
AcDbEntity
  8
DRAW2
100
AcDbLine
 10
1475.920626988466
 20
180.3688508709697
 30
0.0
 11
1475.920626988466
 21
180.8688508709687
 31
0.0
  0
LINE
  5
98A7
330
18
100
AcDbEntity
  8
DRAW2
100
AcDbLine
 10
1473.420626988466
 20
180.3688508709697
 30
0.0
 11
1473.420626988466
 21
180.8688508709687
 31
0.0
  0
LINE
  5
98A8
330
18
100
AcDbEntity
  8
DRAW2
100
AcDbLine
 10
1472.070626988466
 20
180.3688508709692
 30
0.0
 11
1477.270626988466
 21
180.3688508709692
 31
0.0
  0
LINE
  5
98A9
330
18
100
AcDbEntity
  8
DRAW2
100
AcDbLine
 10
1478.920626988466
 20
177.8688508709697
 30
0.0
 11
1478.920626988466
 21
180.8688508709687
 31
0.0
  0
LINE
  5
98AA
330
18
100
AcDbEntity
  8
DRAW2
100
AcDbLine
 10
1477.420626988466
 20
177.8688508709697
 30
0.0
 11
1477.420626988466
 21
180.8688508709687
 31
0.0
  0
LINE
  5
98AB
330
18
100
AcDbEntity
  8
DRAW2
100
AcDbLine
 10
1477.270626988466
 20
176.3688508709692
 30
0.0
 11
1477.270626988466
 21
180.3688508709692
 31
0.0
  0
LINE
  5
98AC
330
18
100
AcDbEntity
  8
DRAW2
100
AcDbLine
 10
1479.070626988466
 20
176.3688508709692
 30
0.0
 11
1479.070626988466
 21
180.3688508709692
 31
0.0
  0
LINE
  5
98AD
330
18
100
AcDbEntity
  8
DRAW2
100
AcDbLine
 10
1472.070626988466
 20
176.3688508709692
 30
0.0
 11
1472.070626988466
 21
180.3688508709692
 31
0.0
  0
LINE
  5
98AE
330
18
100
AcDbEntity
  8
DRAW2
100
AcDbLine
 10
1470.670626988466
 20
180.8688508709692
 30
0.0
 11
1470.670626988466
 21
184.8688508709687
 31
0.0
  0
LINE
  5
98B0
330
18
100
AcDbEntity
  8
DRAW2
100
AcDbLine
 10
1476.920626988474
 20
223.9275729802047
 30
0.0
 11
1476.920626988474
 21
228.8652915401537
 31
0.0
  0
LINE
  5
98B1
330
18
100
AcDbEntity
  8
DRAW2
100
AcDbLine
 10
1478.170626988474
 20
223.9275729802047
 30
0.0
 11
1478.170626988474
 21
228.9310845610557
 31
0.0
  0
LINE
  5
98B3
330
18
100
AcDbEntity
  8
DRAW2
100
AcDbLine
 10
1479.170626988475
 20
223.9275729802047
 30
0.0
 11
1479.170626988475
 21
229.1843872992355
 31
0.0
  0
TEXT
  5
98B4
330
18
100
AcDbEntity
  8
DRAW4
100
AcDbText
 10
1479.770626988468
 20
213.0012307685875
 30
0.0
 40
3.2
  1
A
 50
90.0
 51
10.0
  7
DIMFONT
 72
     1
 11
1478.170626988468
 21
214.372659340016
 31
0.0
100
AcDbText
 73
     2
  0
LINE
  5
98B5
330
18
100
AcDbEntity
  8
DRAW2
100
AcDbLine
 10
1476.170626988474
 20
223.9275729802047
 30
0.0
 11
1480.170626988475
 21
223.9275729802047
 31
0.0
  0
LINE
  5
98B8
330
18
100
AcDbEntity
  8
DRAW2
100
AcDbLine
 10
1478.170626988466
 20
202.5791583187697
 30
0.0
 11
1478.170626988466
 21
203.9275729802048
 31
0.0
  0
LINE
  5
98B9
330
18
100
AcDbEntity
  8
DRAW2
100
AcDbLine
 10
1479.170626988461
 20
202.9275729802006
 30
0.0
 11
1479.170626988461
 21
203.9275729802048
 31
0.0
  0
LINE
  5
98BA
330
18
100
AcDbEntity
  8
DRAW2
100
AcDbLine
 10
1476.920626988461
 20
202.5791583187697
 30
0.0
 11
1476.920626988461
 21
203.9275729802048
 31
0.0
  0
LINE
  5
98BB
330
18
100
AcDbEntity
  8
DRAW2
100
AcDbLine
 10
1476.170626988458
 20
203.9275729802048
 30
0.0
 11
1480.170626988465
 21
203.9275729802048
 31
0.0
  0
LINE
  5
98BD
330
18
100
AcDbEntity
  8
DRAW2
100
AcDbLine
 10
1476.170626988474
 20
223.9275729802047
 30
0.0
 11
1476.170626988458
 21
203.9275729802048
 31
0.0
  0
LINE
  5
98BE
330
18
100
AcDbEntity
  8
DRAW2
100
AcDbLine
 10
1480.170626988475
 20
223.9275729802047
 30
0.0
 11
1480.170626988465
 21
203.9275729802048
 31
0.0
  0
LINE
  5
98C0
330
18
100
AcDbEntity
  8
DRAW2
100
AcDbLine
 10
1454.045626988467
 20
231.0248394196956
 30
0.0
 11
1454.045626988467
 21
238.5942773240526
 31
0.0
  0
LINE
  5
98C1
330
18
100
AcDbEntity
  8
DRAW2
100
AcDbLine
 10
1455.295626988467
 20
231.1843872992362
 30
0.0
 11
1455.295626988467
 21
238.5942773240526
 31
0.0
  0
LINE
  5
98C2
330
18
100
AcDbEntity
  8
DRAW2
100
AcDbLine
 10
1461.170626988466
 20
231.0248394196951
 30
0.0
 11
1461.170626988466
 21
236.5942773240526
 31
0.0
  0
LINE
  5
98C4
330
18
100
AcDbEntity
  8
DRAW2
100
AcDbLine
 10
1462.170626988466
 20
231.1843872992358
 30
0.0
 11
1462.170626988466
 21
236.5942773240526
 31
0.0
  0
LINE
  5
98C7
330
18
100
AcDbEntity
  8
DRAW2
100
AcDbLine
 10
1476.920626988476
 20
230.8652915401544
 30
0.0
 11
1476.920626988476
 21
238.5942773240521
 31
0.0
  0
LINE
  5
98C8
330
18
100
AcDbEntity
  8
DRAW2
100
AcDbLine
 10
1478.170626988474
 20
230.9310845610557
 30
0.0
 11
1478.170626988474
 21
238.5942773240517
 31
0.0
  0
LINE
  5
98C9
330
18
100
AcDbEntity
  8
DRAW2
100
AcDbLine
 10
1479.170626988475
 20
231.1843872992358
 30
0.0
 11
1479.170626988475
 21
236.5942773240531
 31
0.0
  0
LINE
  5
98CA
330
18
100
AcDbEntity
  8
DRAW2
100
AcDbLine
 10
1484.270626988466
 20
176.3688508709692
 30
0.0
 11
1484.270626988466
 21
180.3688508709692
 31
0.0
  0
LINE
  5
98CB
330
18
100
AcDbEntity
  8
DRAW2
100
AcDbLine
 10
1485.670626988466
 20
180.8688508709692
 30
0.0
 11
1485.670626988466
 21
184.8688508709687
 31
0.0
  0
LINE
  5
98CD
330
18
100
AcDbEntity
  8
DRAW2
100
AcDbLine
 10
1633.43278166451
 20
88.86848058431713
 30
0.0
 11
1633.43278166451
 21
108.868510584317
 31
0.0
  0
LINE
  5
98CE
330
18
100
AcDbEntity
  8
DRAW2
100
AcDbLine
 10
1654.43281166451
 20
88.86848058431713
 30
0.0
 11
1654.43281166451
 21
108.868510584317
 31
0.0
  0
LINE
  5
98CF
102
{ACAD_REACTORS
330
99BF
102
}
330
18
100
AcDbEntity
  8
DRAW2
100
AcDbLine
 10
1627.93278166451
 20
73.86851058431705
 30
0.0
 11
1659.93278166451
 21
73.86851058431705
 31
0.0
  0
LINE
  5
98D0
102
{ACAD_REACTORS
330
99BF
102
}
330
18
100
AcDbEntity
  8
DRAW2
100
AcDbLine
 10
1625.93278166451
 20
83.86851058431705
 30
0.0
 11
1661.93278166451
 21
83.86851058431705
 31
0.0
  0
LINE
  5
98D1
102
{ACAD_REACTORS
330
99BF
102
}
330
18
100
AcDbEntity
  8
DRAW2
100
AcDbLine
 10
1630.655156506126
 20
53.86851058431705
 30
0.0
 11
1657.210406822894
 21
53.86851058431705
 31
0.0
  0
LINE
  5
98D2
330
18
100
AcDbEntity
  8
DRAW2
100
AcDbLine
 10
1674.677208811729
 20
83.86851058431705
 30
0.0
 11
1623.93278166451
 21
83.86851058431705
 31
0.0
  0
LINE
  5
98D3
330
18
100
AcDbEntity
  8
DRAW2
100
AcDbLine
 10
1672.267448352511
 20
88.86851058431705
 30
0.0
 11
1623.93278166451
 21
88.86851058431705
 31
0.0
  0
ARC
  5
98D4
102
{ACAD_REACTORS
330
99BF
102
}
330
18
100
AcDbEntity
  8
DRAW2
100
AcDbCircle
 10
1725.93278166451
 20
81.3267911228732
 30
0.0
 40
100.0
100
AcDbArc
 50
180.0
 51
188.5307656099486
  0
ARC
  5
98D5
102
{ACAD_REACTORS
330
99BF
102
}
330
18
100
AcDbEntity
  8
DRAW2
100
AcDbCircle
 10
1630.655156506126
 20
55.86851058431705
 30
0.0
 40
2.0
100
AcDbArc
 50
188.5307656099486
 51
270.0
  0
LINE
  5
98D6
102
{ACAD_REACTORS
330
99BF
102
}
330
18
100
AcDbEntity
  8
DRAW2
100
AcDbLine
 10
1627.039146377681
 20
66.49274582984879
 30
0.0
 11
1628.67728380039
 21
55.57182967845654
 31
0.0
  0
LINE
  5
98D7
102
{ACAD_REACTORS
330
99BF
102
}
330
18
100
AcDbEntity
  8
DRAW2
100
AcDbLine
 10
1625.93278166451
 20
83.86851058431705
 30
0.0
 11
1625.93278166451
 21
81.3267911228732
 31
0.0
  0
LINE
  5
98D8
330
18
100
AcDbEntity
  8
DRAW2
100
AcDbLine
 10
1628.93278166451
 20
83.86851058431705
 30
0.0
 11
1628.93278166451
 21
88.86851058431705
 31
0.0
  0
LINE
  5
98D9
330
18
100
AcDbEntity
  8
DRAW2
100
AcDbLine
 10
1623.93278166451
 20
83.86851058431705
 30
0.0
 11
1623.93278166451
 21
88.86851058431705
 31
0.0
  0
ARC
  5
98DA
102
{ACAD_REACTORS
330
99BF
102
}
330
18
100
AcDbEntity
  8
DRAW2
100
AcDbCircle
 10
1561.93278166451
 20
81.3267911228732
 30
0.0
 40
100.0
100
AcDbArc
 50
351.4692343900513
 51
0.0
  0
LINE
  5
98DB
102
{ACAD_REACTORS
330
99BF
102
}
330
18
100
AcDbEntity
  8
DRAW2
100
AcDbLine
 10
1660.82641695134
 20
66.49274582984879
 30
0.0
 11
1659.188279528631
 21
55.57182967845654
 31
0.0
  0
ARC
  5
98DC
102
{ACAD_REACTORS
330
99BF
102
}
330
18
100
AcDbEntity
  8
DRAW2
100
AcDbCircle
 10
1657.210406822894
 20
55.86851058431705
 30
0.0
 40
2.0
100
AcDbArc
 50
270.0
 51
351.4692343900513
  0
LINE
  5
98DD
102
{ACAD_REACTORS
330
99BF
102
}
330
18
100
AcDbEntity
  8
DRAW2
100
AcDbLine
 10
1661.93278166451
 20
83.86851058431705
 30
0.0
 11
1661.93278166451
 21
81.3267911228732
 31
0.0
  0
LINE
  5
98DE
330
18
100
AcDbEntity
  8
DRAW2
100
AcDbLine
 10
1633.43278166451
 20
108.868450584317
 30
0.0
 11
1654.43281166451
 21
108.868450584317
 31
0.0
  0
LINE
  5
98DF
330
18
100
AcDbEntity
  8
DRAW2
100
AcDbLine
 10
1635.43278166451
 20
110.868480584317
 30
0.0
 11
1652.43281166451
 21
110.868480584317
 31
0.0
  0
LINE
  5
98E0
330
18
100
AcDbEntity
  8
DRAW2
100
AcDbLine
 10
1633.43275166451
 20
108.868420584317
 30
0.0
 11
1635.43275166451
 21
110.868420584317
 31
0.0
  0
LINE
  5
98E1
330
18
100
AcDbEntity
  8
DRAW2
100
AcDbLine
 10
1652.43269166451
 20
110.868480584317
 30
0.0
 11
1654.43269166451
 21
108.868480584317
 31
0.0
  0
LINE
  5
98E6
330
18
100
AcDbEntity
  8
HIDDEN
100
AcDbLine
 10
1664.94278186451
 20
182.3685105843169
 30
0.0
 11
1664.94278186451
 21
203.3685105843169
 31
0.0
  0
LINE
  5
98E7
330
18
100
AcDbEntity
  8
HIDDEN
100
AcDbLine
 10
1644.94278186451
 20
203.3685105843169
 30
0.0
 11
1644.94278186451
 21
194.868510584317
 31
0.0
  0
LINE
  5
98E8
330
18
100
AcDbEntity
  8
HIDDEN
100
AcDbLine
 10
1671.93278166451
 20
203.8685105843168
 30
0.0
 11
1671.93278166451
 21
181.8685105843168
 31
0.0
  0
LINE
  5
98E9
330
18
100
AcDbEntity
  8
HIDDEN
100
AcDbLine
 10
1644.94278186451
 20
182.3685105843169
 30
0.0
 11
1664.94278186451
 21
182.3685105843169
 31
0.0
  0
LINE
  5
98EA
330
18
100
AcDbEntity
  8
HIDDEN
100
AcDbLine
 10
1644.94278186451
 20
190.8685105843169
 30
0.0
 11
1647.44278186451
 21
190.8685105843169
 31
0.0
  0
LINE
  5
98EB
330
18
100
AcDbEntity
  8
HIDDEN
100
AcDbLine
 10
1647.44278186451
 20
194.868510584317
 30
0.0
 11
1647.44278186451
 21
190.8685105843169
 31
0.0
  0
LINE
  5
98EC
330
18
100
AcDbEntity
  8
HIDDEN
100
AcDbLine
 10
1647.44278186451
 20
194.868510584317
 30
0.0
 11
1644.94278186451
 21
194.8685105843169
 31
0.0
  0
LINE
  5
98ED
330
18
100
AcDbEntity
  8
HIDDEN
100
AcDbLine
 10
1644.94278186451
 20
190.8685105843169
 30
0.0
 11
1644.94278186451
 21
182.3685105843169
 31
0.0
  0
LINE
  5
98EF
330
18
100
AcDbEntity
  8
HIDDEN
100
AcDbLine
 10
1673.725894591114
 20
174.8291856331255
 30
0.0
 11
1679.819122112946
 21
180.5531266384816
 31
0.0
  0
LINE
  5
98F0
330
18
100
AcDbEntity
  8
HIDDEN
100
AcDbLine
 10
1671.964579987522
 20
173.9713767191947
 30
0.0
 11
1679.659139203703
 21
181.1995990131825
 31
0.0
  0
LINE
  5
98F1
330
18
100
AcDbEntity
  8
HIDDEN
100
AcDbLine
 10
1677.142015839374
 20
170.6635311968078
 30
0.0
 11
1675.020695495814
 21
168.5422108532482
 31
0.0
  0
LINE
  5
98F2
330
18
100
AcDbEntity
  8
HIDDEN
100
AcDbLine
 10
1680.304285753188
 20
168.2507944710516
 30
0.0
 11
1673.315065551245
 21
175.2400146729948
 31
0.0
  0
LINE
  5
98F3
330
18
100
AcDbEntity
  8
HIDDEN
100
AcDbLine
 10
1679.035647799391
 20
166.9003089073328
 30
0.0
 11
1677.84912262056
 21
165.713783728502
 31
0.0
  0
LINE
  5
98F4
330
18
100
AcDbEntity
  8
HIDDEN
100
AcDbLine
 10
1675.020695495814
 20
168.5422108532482
 30
0.0
 11
1677.84912262056
 21
165.713783728502
 31
0.0
  0
LINE
  5
98F5
330
18
100
AcDbEntity
  8
HIDDEN
100
AcDbLine
 10
1679.575499017807
 20
167.4749892366137
 30
0.0
 11
1679.893456713319
 21
168.6616235109211
 31
0.0
  0
LINE
  5
98F7
330
18
100
AcDbEntity
  8
HIDDEN
100
AcDbLine
 10
1675.727802277001
 20
172.0777447591809
 30
0.0
 11
1673.606481933441
 21
169.9564244156213
 31
0.0
  0
LINE
  5
98F8
330
18
100
AcDbEntity
  8
HIDDEN
100
AcDbLine
 10
1671.964579987526
 20
173.9713767191986
 30
0.0
 11
1670.778054808695
 21
172.7848515403675
 31
0.0
  0
LINE
  5
98F9
330
18
100
AcDbEntity
  8
HIDDEN
100
AcDbLine
 10
1670.778054808695
 20
172.7848515403675
 30
0.0
 11
1673.606481933441
 21
169.9564244156213
 31
0.0
  0
LINE
  5
98FA
330
18
100
AcDbEntity
  8
HIDDEN
100
AcDbLine
 10
1675.727802277001
 20
172.0777447591809
 30
0.0
 11
1677.142015839374
 21
170.6635311968078
 31
0.0
  0
LINE
  5
98FB
330
18
100
AcDbEntity
  8
HIDDEN
100
AcDbLine
 10
1672.539260316807
 20
174.5112279376137
 30
0.0
 11
1673.725894591114
 21
174.8291856331254
 31
0.0
  0
LINE
  5
98FD
330
18
100
AcDbEntity
  8
HIDDEN
100
AcDbLine
 10
1677.94278186451
 20
198.4031980843169
 30
0.0
 11
1677.059168961284
 21
199.2868109875427
 31
0.0
  0
LINE
  5
98FE
330
18
100
AcDbEntity
  8
HIDDEN
100
AcDbLine
 10
1677.94278186451
 20
187.3338230843169
 30
0.0
 11
1677.94278186451
 21
198.4031980843169
 31
0.0
  0
LINE
  5
98FF
330
18
100
AcDbEntity
  8
HIDDEN
100
AcDbLine
 10
1677.94278186451
 20
187.3338230843169
 30
0.0
 11
1677.059168961284
 21
186.4502101810911
 31
0.0
  0
LINE
  5
9900
330
18
100
AcDbEntity
  8
HIDDEN
100
AcDbLine
 10
1677.059168961284
 20
199.2868109875427
 30
0.0
 11
1677.059168961284
 21
186.4502101810911
 31
0.0
  0
LINE
  5
9901
330
18
100
AcDbEntity
  8
HIDDEN
100
AcDbLine
 10
1666.665304153374
 20
186.1254019058439
 30
0.0
 11
1668.232781864511
 21
187.030385584317
 31
0.0
  0
LINE
  5
9902
330
18
100
AcDbEntity
  8
HIDDEN
100
AcDbLine
 10
1668.232781864508
 20
199.5626355843169
 30
0.0
 11
1668.23278186451
 21
186.1743855843169
 31
0.0
  0
LINE
  5
9903
330
18
100
AcDbEntity
  8
HIDDEN
100
AcDbLine
 10
1666.665304153374
 20
199.6116192627899
 30
0.0
 11
1668.23278186451
 21
198.7066355843169
 31
0.0
  0
LINE
  5
9904
330
18
100
AcDbEntity
  8
HIDDEN
100
AcDbLine
 10
1664.94278186451
 20
199.6654480843169
 30
0.0
 11
1677.059168961284
 21
199.2868109875427
 31
0.0
  0
LINE
  5
9905
330
18
100
AcDbEntity
  8
HIDDEN
100
AcDbLine
 10
1668.23278186451
 20
198.7066355843169
 30
0.0
 11
1677.94278186451
 21
198.4031980843169
 31
0.0
  0
LINE
  5
9906
330
18
100
AcDbEntity
  8
HIDDEN
100
AcDbLine
 10
1668.232781864511
 20
187.030385584317
 30
0.0
 11
1677.94278186451
 21
187.3338230843169
 31
0.0
  0
LINE
  5
9907
330
18
100
AcDbEntity
  8
HIDDEN
100
AcDbLine
 10
1664.94278186451
 20
186.0715730843169
 30
0.0
 11
1677.059168961284
 21
186.4502101810911
 31
0.0
  0
LINE
  5
9908
330
18
100
AcDbEntity
  8
HIDDEN
100
AcDbLine
 10
1679.659139203703
 20
181.1995990131825
 30
0.0
 11
1680.760777608586
 21
181.4947821341221
 31
0.0
  0
LINE
  5
9909
330
18
100
AcDbEntity
  8
HIDDEN
100
AcDbLine
 10
1675.444202163572
 20
176.9525389086809
 30
0.0
 11
1675.986238400576
 21
176.9525389086809
 31
0.0
  0
LINE
  5
990A
330
18
100
AcDbEntity
  8
HIDDEN
100
AcDbLine
 10
1672.816394567736
 20
187.1736234812926
 30
0.0
 11
1672.816394567736
 21
198.5633976873409
 31
0.0
  0
LINE
  5
990B
330
18
100
AcDbEntity
  8
HIDDEN
100
AcDbLine
 10
1671.93278166451
 20
186.2900105780668
 30
0.0
 11
1672.816394567736
 21
187.1736234812926
 31
0.0
  0
LINE
  5
990C
330
18
100
AcDbEntity
  8
HIDDEN
100
AcDbLine
 10
1671.93278166451
 20
199.4470105905668
 30
0.0
 11
1672.816394567736
 21
198.5633976873409
 31
0.0
  0
LINE
  5
990D
330
18
100
AcDbEntity
  8
HIDDEN
100
AcDbLine
 10
1672.816394567736
 20
187.1736234812926
 30
0.0
 11
1679.05278186451
 21
187.3685105843168
 31
0.0
  0
LINE
  5
990E
330
18
100
AcDbEntity
  8
HIDDEN
100
AcDbLine
 10
1672.816394567736
 20
198.5633976873409
 30
0.0
 11
1679.05278186451
 21
198.3685105843168
 31
0.0
  0
LINE
  5
990F
330
18
100
AcDbEntity
  8
HIDDEN
100
AcDbLine
 10
1671.849530839509
 20
181.8685105843168
 30
0.0
 11
1671.93278166451
 21
181.8685105843168
 31
0.0
  0
LINE
  5
9910
330
18
100
AcDbEntity
  8
HIDDEN
100
AcDbLine
 10
1677.595680438627
 20
179.2611983550813
 30
0.0
 11
1678.443843617712
 21
179.2611983550813
 31
0.0
  0
LINE
  5
9911
330
18
100
AcDbEntity
  8
HIDDEN
100
AcDbLine
 10
1664.94278186451
 20
203.3685105843169
 30
0.0
 11
1644.94278186451
 21
203.3685105843169
 31
0.0
  0
LINE
  5
9912
330
18
100
AcDbEntity
  8
HIDDEN
100
AcDbLine
 10
1664.618221575329
 20
203.8685105843168
 30
0.0
 11
1671.93278166451
 21
203.8685105843168
 31
0.0
  0
LINE
  5
9914
330
18
100
AcDbEntity
  8
DRAW2
100
AcDbLine
 10
1543.328837419233
 20
266.2192773240485
 30
0.0
 11
1616.952168890733
 21
266.2192773240533
 31
0.0
  0
LINE
  5
9915
330
18
100
AcDbEntity
  8
DRAW2
100
AcDbLine
 10
1544.329148148285
 20
260.2192773240468
 30
0.0
 11
1616.952168890733
 21
260.2192773240533
 31
0.0
  0
LINE
  5
9916
330
18
100
AcDbEntity
  8
DRAW2
100
AcDbLine
 10
1480.295626988466
 20
263.5942773240524
 30
0.0
 11
1495.16672169168
 21
263.5942773240528
 31
0.0
  0
LINE
  5
9918
330
18
100
AcDbEntity
  8
DRAW2
100
AcDbLine
 10
1480.295626988466
 20
264.8442773240524
 30
0.0
 11
1511.542931923058
 21
264.8442773240528
 31
0.0
  0
LINE
  5
9919
330
18
100
AcDbEntity
  8
DRAW2
100
AcDbLine
 10
1511.542931923057
 20
260.2192773240521
 30
0.0
 11
1542.329148148278
 21
260.2192773240529
 31
0.0
  0
LINE
  5
991A
330
18
100
AcDbEntity
  8
DRAW2
100
AcDbLine
 10
1511.542931923057
 20
266.2192773240521
 30
0.0
 11
1541.32883741923
 21
266.2192773240529
 31
0.0
  0
LINE
  5
991B
330
18
100
AcDbEntity
  8
DRAW2
100
AcDbLine
 10
1496.170626988471
 20
262.5942773240524
 30
0.0
 11
1511.542931923057
 21
262.5942773240533
 31
0.0
  0
LINE
  5
991D
330
18
100
AcDbEntity
  8
DRAW2
100
AcDbLine
 10
1487.170626988465
 20
262.5942773240519
 30
0.0
 11
1492.537541829402
 21
262.5942773240524
 31
0.0
  0
LINE
  5
991E
330
18
100
AcDbEntity
  8
DRAW2
100
AcDbLine
 10
1487.170626988466
 20
261.5942773240528
 30
0.0
 11
1490.519046059591
 21
261.5942773240528
 31
0.0
  0
LINE
  5
991F
330
18
100
AcDbEntity
  8
DRAW2
100
AcDbLine
 10
1493.372668017339
 20
261.5942773240528
 30
0.0
 11
1497.029198559922
 21
261.5942773240528
 31
0.0
  0
LINE
  5
9920
330
18
100
AcDbEntity
  8
DRAW2
100
AcDbLine
 10
1503.170626988471
 20
263.5942773240521
 30
0.0
 11
1511.542931923057
 21
263.5942773240521
 31
0.0
  0
LINE
  5
9921
330
18
100
AcDbEntity
  8
DRAW2
100
AcDbLine
 10
1504.170626988468
 20
261.5942773240535
 30
0.0
 11
1511.542931923057
 21
261.5942773240535
 31
0.0
  0
LINE
  5
9922
330
18
100
AcDbEntity
  8
DRAW2
100
AcDbLine
 10
1511.542931923058
 20
266.2192773240526
 30
0.0
 11
1511.542931923057
 21
260.2192773240526
 31
0.0
  0
ARC
  5
9923
330
18
100
AcDbEntity
  8
DRAW2
100
AcDbCircle
 10
1616.952168890734
 20
230.2192773240533
 30
0.0
 40
30.0
100
AcDbArc
 50
59.99999999999946
 51
90.0
  0
ARC
  5
9924
330
18
100
AcDbEntity
  8
DRAW2
100
AcDbCircle
 10
1616.952168890734
 20
230.2192773240533
 30
0.0
 40
36.0
100
AcDbArc
 50
59.99999999999946
 51
90.0
  0
LINE
  5
9926
330
18
100
AcDbEntity
  8
DRAW2
100
AcDbLine
 10
1631.952168890734
 20
256.2000394375868
 30
0.0
 11
1632.526393708773
 21
255.8685105843169
 31
0.0
  0
LINE
  5
9927
330
18
100
AcDbEntity
  8
DRAW2
100
AcDbLine
 10
1634.952168890733
 20
261.3961918602933
 30
0.0
 11
1635.69239761815
 21
260.9688206052573
 31
0.0
  0
ARC
  5
9929
330
18
100
AcDbEntity
  8
DRAW2
100
AcDbCircle
 10
1713.93278166451
 20
208.868510584317
 30
0.0
 40
94.0
100
AcDbArc
 50
295.8934747632966
 51
64.1065252367034
  0
CIRCLE
  5
992A
102
{ACAD_REACTORS
330
99BC
102
}
330
18
100
AcDbEntity
  8
DRAW2
100
AcDbCircle
 10
1713.93278166451
 20
105.8685105843172
 30
0.0
 40
8.0
  0
CIRCLE
  5
992B
102
{ACAD_REACTORS
330
99BC
102
}
330
18
100
AcDbEntity
  8
DRAW2
100
AcDbCircle
 10
1713.93278166451
 20
105.8685105843172
 30
0.0
 40
7.0
  0
LINE
  5
992E
102
{ACAD_REACTORS
330
99BC
102
}
330
18
100
AcDbEntity
  8
DRAW2
100
AcDbLine
 10
1683.93278166451
 20
64.86851058431728
 30
0.0
 11
1681.93278166451
 21
66.86851058431727
 31
0.0
  0
LINE
  5
992F
102
{ACAD_REACTORS
330
99BC
102
}
330
18
100
AcDbEntity
  8
DRAW2
100
AcDbLine
 10
1681.93278166451
 20
66.86851058431727
 30
0.0
 11
1691.482837343866
 21
66.86851058431727
 31
0.0
  0
LINE
  5
9930
102
{ACAD_REACTORS
330
99BC
102
}
330
18
100
AcDbEntity
  8
DRAW2
100
AcDbLine
 10
1681.93278166451
 20
66.86851058431727
 30
0.0
 11
1681.93278166451
 21
74.22992654520448
 31
0.0
  0
LINE
  5
9931
102
{ACAD_REACTORS
330
99BC
102
}
330
18
100
AcDbEntity
  8
DRAW2
100
AcDbLine
 10
1695.385544673519
 20
64.86851058431728
 30
0.0
 11
1683.93278166451
 21
64.86851058431728
 31
0.0
  0
LINE
  5
9932
102
{ACAD_REACTORS
330
99BC
102
}
330
18
100
AcDbEntity
  8
DRAW2
100
AcDbLine
 10
1698.387380998354
 20
83.86851058431721
 30
0.0
 11
1683.516241553541
 21
83.86851058431721
 31
0.0
  0
CIRCLE
  5
9933
102
{ACAD_REACTORS
330
99BC
102
}
330
18
100
AcDbEntity
  8
DRAW2
100
AcDbCircle
 10
1690.951811275947
 20
82.8875401957544
 30
0.0
 40
7.500000000000004
  0
LINE
  5
9936
102
{ACAD_REACTORS
330
99BC
102
}
330
18
100
AcDbEntity
  8
DRAW2
100
AcDbLine
 10
1686.426549602725
 20
88.86851058431711
 30
0.0
 11
1695.477072949169
 21
88.86851058431721
 31
0.0
  0
LINE
  5
9937
102
{ACAD_REACTORS
330
99BC
102
}
330
18
100
AcDbEntity
  8
DRAW2
100
AcDbLine
 10
1697.93278166451
 20
83.86851058431721
 30
0.0
 11
1697.93278166451
 21
80.14599821467715
 31
0.0
  0
LINE
  5
9938
102
{ACAD_REACTORS
330
99BC
102
}
330
18
100
AcDbEntity
  8
DRAW2
100
AcDbLine
 10
1743.93278166451
 20
64.86851058431728
 30
0.0
 11
1745.93278166451
 21
66.86851058431727
 31
0.0
  0
LINE
  5
9939
102
{ACAD_REACTORS
330
99BC
102
}
330
18
100
AcDbEntity
  8
DRAW2
100
AcDbLine
 10
1745.93278166451
 20
66.86851058431727
 30
0.0
 11
1736.382725985154
 21
66.86851058431727
 31
0.0
  0
LINE
  5
993A
102
{ACAD_REACTORS
330
99BC
102
}
330
18
100
AcDbEntity
  8
DRAW2
100
AcDbLine
 10
1732.480018655502
 20
64.86851058431728
 30
0.0
 11
1743.93278166451
 21
64.86851058431728
 31
0.0
  0
LINE
  5
993B
102
{ACAD_REACTORS
330
99BC
102
}
330
18
100
AcDbEntity
  8
DRAW2
100
AcDbLine
 10
1745.93278166451
 20
66.86851058431727
 30
0.0
 11
1745.93278166451
 21
74.22992654520448
 31
0.0
  0
LINE
  5
993C
102
{ACAD_REACTORS
330
99BC
102
}
330
18
100
AcDbEntity
  8
DRAW2
100
AcDbLine
 10
1729.478182330667
 20
83.86851058431721
 30
0.0
 11
1744.349321775479
 21
83.86851058431721
 31
0.0
  0
CIRCLE
  5
993D
102
{ACAD_REACTORS
330
99BC
102
}
330
18
100
AcDbEntity
  8
DRAW2
100
AcDbCircle
 10
1736.913752053073
 20
82.8875401957544
 30
0.0
 40
7.500000000000004
  0
LINE
  5
9940
102
{ACAD_REACTORS
330
99BC
102
}
330
18
100
AcDbEntity
  8
DRAW2
100
AcDbLine
 10
1729.93278166451
 20
83.86851058431721
 30
0.0
 11
1729.93278166451
 21
80.14599821467715
 31
0.0
  0
LINE
  5
9941
102
{ACAD_REACTORS
330
99BC
102
}
330
18
100
AcDbEntity
  8
DRAW2
100
AcDbLine
 10
1732.388490379851
 20
88.86851058431721
 30
0.0
 11
1741.439013726295
 21
88.86851058431721
 31
0.0
  0
CIRCLE
  5
9943
102
{ACAD_REACTORS
330
99BC
102
}
330
18
100
AcDbEntity
  8
DRAW2
100
AcDbCircle
 10
1690.951811275947
 20
128.8494809728799
 30
0.0
 40
7.500000000000004
  0
LINE
  5
9946
102
{ACAD_REACTORS
330
99BC
102
}
330
18
100
AcDbEntity
  8
DRAW2
100
AcDbLine
 10
1686.426549602725
 20
122.8685105843172
 30
0.0
 11
1695.477072949169
 21
122.8685105843172
 31
0.0
  0
ARC
  5
9947
330
18
100
AcDbEntity
  8
DRAW2
100
AcDbCircle
 10
1673.93278166451
 20
139.5864782815618
 30
0.0
 40
13.00000000000004
100
AcDbArc
 50
319.4268127254547
 51
336.079017975435
  0
CIRCLE
  5
9948
102
{ACAD_REACTORS
330
99BC
102
}
330
18
100
AcDbEntity
  8
DRAW2
100
AcDbCircle
 10
1736.913752053073
 20
128.84948097288
 30
0.0
 40
7.500000000000004
  0
LINE
  5
994B
102
{ACAD_REACTORS
330
99BC
102
}
330
18
100
AcDbEntity
  8
DRAW2
100
AcDbLine
 10
1732.388490379851
 20
122.8685105843172
 30
0.0
 11
1741.439013726295
 21
122.8685105843172
 31
0.0
  0
LINE
  5
994C
330
18
100
AcDbEntity
  8
DRAW2
100
AcDbLine
 10
1794.43278166451
 20
88.86848058431713
 30
0.0
 11
1794.43278166451
 21
108.868510584317
 31
0.0
  0
LINE
  5
994D
330
18
100
AcDbEntity
  8
DRAW2
100
AcDbLine
 10
1773.43275166451
 20
88.86848058431713
 30
0.0
 11
1773.43275166451
 21
108.868510584317
 31
0.0
  0
LINE
  5
994E
102
{ACAD_REACTORS
330
99C0
102
}
330
18
100
AcDbEntity
  8
DRAW2
100
AcDbLine
 10
1767.93278166451
 20
73.86851058431705
 30
0.0
 11
1799.93278166451
 21
73.86851058431705
 31
0.0
  0
LINE
  5
994F
102
{ACAD_REACTORS
330
99C0
102
}
330
18
100
AcDbEntity
  8
DRAW2
100
AcDbLine
 10
1765.93278166451
 20
83.86851058431705
 30
0.0
 11
1801.93278166451
 21
83.86851058431705
 31
0.0
  0
LINE
  5
9950
102
{ACAD_REACTORS
330
99C0
102
}
330
18
100
AcDbEntity
  8
DRAW2
100
AcDbLine
 10
1770.655156506125
 20
53.86851058431705
 30
0.0
 11
1797.210406822894
 21
53.86851058431705
 31
0.0
  0
LINE
  5
9951
330
18
100
AcDbEntity
  8
DRAW2
100
AcDbLine
 10
1803.93278166451
 20
88.86851058431705
 30
0.0
 11
1755.59811497651
 21
88.86851058431705
 31
0.0
  0
LINE
  5
9952
330
18
100
AcDbEntity
  8
DRAW2
100
AcDbLine
 10
1803.93278166451
 20
83.86851058431705
 30
0.0
 11
1753.188354517291
 21
83.86851058431705
 31
0.0
  0
ARC
  5
9953
102
{ACAD_REACTORS
330
99C0
102
}
330
18
100
AcDbEntity
  8
DRAW2
100
AcDbCircle
 10
1865.93278166451
 20
81.3267911228732
 30
0.0
 40
100.0
100
AcDbArc
 50
180.0
 51
188.5307656099486
  0
ARC
  5
9954
102
{ACAD_REACTORS
330
99C0
102
}
330
18
100
AcDbEntity
  8
DRAW2
100
AcDbCircle
 10
1770.655156506125
 20
55.86851058431705
 30
0.0
 40
2.0
100
AcDbArc
 50
188.5307656099486
 51
270.0
  0
LINE
  5
9955
102
{ACAD_REACTORS
330
99C0
102
}
330
18
100
AcDbEntity
  8
DRAW2
100
AcDbLine
 10
1767.03914637768
 20
66.49274582984879
 30
0.0
 11
1768.677283800389
 21
55.57182967845654
 31
0.0
  0
LINE
  5
9956
102
{ACAD_REACTORS
330
99C0
102
}
330
18
100
AcDbEntity
  8
DRAW2
100
AcDbLine
 10
1765.93278166451
 20
83.86851058431705
 30
0.0
 11
1765.93278166451
 21
81.3267911228732
 31
0.0
  0
ARC
  5
9957
102
{ACAD_REACTORS
330
99C0
102
}
330
18
100
AcDbEntity
  8
DRAW2
100
AcDbCircle
 10
1701.93278166451
 20
81.3267911228732
 30
0.0
 40
100.0
100
AcDbArc
 50
351.4692343900513
 51
0.0
  0
LINE
  5
9958
102
{ACAD_REACTORS
330
99C0
102
}
330
18
100
AcDbEntity
  8
DRAW2
100
AcDbLine
 10
1800.826416951339
 20
66.49274582984879
 30
0.0
 11
1799.188279528631
 21
55.57182967845654
 31
0.0
  0
ARC
  5
9959
102
{ACAD_REACTORS
330
99C0
102
}
330
18
100
AcDbEntity
  8
DRAW2
100
AcDbCircle
 10
1797.210406822894
 20
55.86851058431705
 30
0.0
 40
2.0
100
AcDbArc
 50
270.0
 51
351.4692343900513
  0
LINE
  5
995B
102
{ACAD_REACTORS
330
99C0
102
}
330
18
100
AcDbEntity
  8
DRAW2
100
AcDbLine
 10
1801.93278166451
 20
83.86851058431705
 30
0.0
 11
1801.93278166451
 21
81.3267911228732
 31
0.0
  0
LINE
  5
995C
330
18
100
AcDbEntity
  8
DRAW2
100
AcDbLine
 10
1803.93278166451
 20
83.86851058431705
 30
0.0
 11
1803.93278166451
 21
88.86851058431705
 31
0.0
  0
LINE
  5
995D
330
18
100
AcDbEntity
  8
DRAW2
100
AcDbLine
 10
1798.93278166451
 20
83.86851058431705
 30
0.0
 11
1798.93278166451
 21
88.86851058431705
 31
0.0
  0
LINE
  5
995E
330
18
100
AcDbEntity
  8
DRAW2
100
AcDbLine
 10
1792.43278166451
 20
110.868480584317
 30
0.0
 11
1775.43275166451
 21
110.868480584317
 31
0.0
  0
LINE
  5
995F
330
18
100
AcDbEntity
  8
DRAW2
100
AcDbLine
 10
1794.43278166451
 20
108.868450584317
 30
0.0
 11
1773.43275166451
 21
108.868450584317
 31
0.0
  0
LINE
  5
9960
330
18
100
AcDbEntity
  8
DRAW2
100
AcDbLine
 10
1775.43287166451
 20
110.868480584317
 30
0.0
 11
1773.43287166451
 21
108.868480584317
 31
0.0
  0
LINE
  5
9961
330
18
100
AcDbEntity
  8
DRAW2
100
AcDbLine
 10
1794.43281166451
 20
108.868420584317
 30
0.0
 11
1792.43281166451
 21
110.868420584317
 31
0.0
  0
LINE
  5
9962
330
18
100
AcDbEntity
  8
HIDDEN
100
AcDbLine
 10
1746.732912225841
 20
165.4633929572003
 30
0.0
 11
1742.094446639658
 21
172.9474144273343
 31
0.0
  0
LINE
  5
9963
330
18
100
AcDbEntity
  8
HIDDEN
100
AcDbLine
 10
1735.12265090318
 20
158.7602054572001
 30
0.0
 11
1746.73291222584
 21
165.4633929572002
 31
0.0
  0
LINE
  5
9965
330
18
100
AcDbEntity
  8
HIDDEN
100
AcDbLine
 10
1688.547648219913
 20
177.6851015339901
 30
0.0
 11
1685.617397718677
 21
174.7548510327535
 31
0.0
  0
LINE
  5
9966
330
18
100
AcDbEntity
  8
HIDDEN
100
AcDbLine
 10
1686.263870093376
 20
174.5948681235096
 30
0.0
 11
1686.559053214315
 21
175.6965065283922
 31
0.0
  0
LINE
  5
9967
330
18
100
AcDbEntity
  8
HIDDEN
100
AcDbLine
 10
1682.016809988874
 20
170.3799310833792
 30
0.0
 11
1682.016809988874
 21
170.9219673203833
 31
0.0
  0
LINE
  5
9968
330
18
100
AcDbEntity
  8
HIDDEN
100
AcDbLine
 10
1684.325469435274
 20
172.531409358434
 30
0.0
 11
1684.325469435275
 21
173.3795725375192
 31
0.0
  0
LINE
  5
9969
330
18
100
AcDbEntity
  8
HIDDEN
100
AcDbLine
 10
1697.612737222487
 20
196.7911068294129
 30
0.0
 11
1683.976263192999
 21
183.1546327999248
 31
0.0
  0
LINE
  5
996A
330
18
100
AcDbEntity
  8
HIDDEN
100
AcDbLine
 10
1702.25277325771
 20
192.9458614903973
 30
0.0
 11
1688.218903880118
 21
178.9119921128057
 31
0.0
  0
LINE
  5
996B
330
18
100
AcDbEntity
  8
HIDDEN
100
AcDbLine
 10
1683.976263192999
 20
183.1546327999248
 30
0.0
 11
1682.749372614184
 21
183.4833771397197
 31
0.0
  0
LINE
  5
996C
330
18
100
AcDbEntity
  8
HIDDEN
100
AcDbLine
 10
1688.547648219913
 20
177.6851015339901
 30
0.0
 11
1688.218903880118
 21
178.9119921128057
 31
0.0
  0
LINE
  5
996D
330
18
100
AcDbEntity
  8
HIDDEN
100
AcDbLine
 10
1688.218903880118
 20
178.9119921128055
 30
0.0
 11
1683.976263192999
 21
183.1546327999248
 31
0.0
  0
LINE
  5
996E
330
18
100
AcDbEntity
  8
HIDDEN
100
AcDbLine
 10
1688.547648219913
 20
177.6851015339901
 30
0.0
 11
1682.749372614184
 21
183.4833771397197
 31
0.0
  0
LINE
  5
996F
330
18
100
AcDbEntity
  8
HIDDEN
100
AcDbLine
 10
1686.93278166451
 20
198.3685105843168
 30
0.0
 11
1686.93278166451
 21
187.3685105843168
 31
0.0
  0
LINE
  5
9971
330
18
100
AcDbEntity
  8
HIDDEN
100
AcDbLine
 10
1690.108208145054
 20
192.8685105843168
 30
0.0
 11
1686.93278166451
 21
187.3685105843168
 31
0.0
  0
LINE
  5
9972
330
18
100
AcDbEntity
  8
HIDDEN
100
AcDbLine
 10
1690.108208145054
 20
192.8685105843168
 30
0.0
 11
1686.93278166451
 21
198.3685105843168
 31
0.0
  0
CIRCLE
  5
9973
330
18
100
AcDbEntity
  8
HIDDEN
100
AcDbCircle
 10
1685.93278166451
 20
192.8685105843168
 30
0.0
 40
2.5
  0
LINE
  5
9974
330
18
100
AcDbEntity
  8
HIDDEN
100
AcDbLine
 10
1681.33278166451
 20
186.5837605780668
 30
0.0
 11
1681.33278166451
 21
199.1532605905667
 31
0.0
  0
LINE
  5
9975
330
18
100
AcDbEntity
  8
HIDDEN
100
AcDbLine
 10
1682.692008546575
 20
187.3685105843168
 30
0.0
 11
1681.33278166451
 21
186.5837605780668
 31
0.0
  0
LINE
  5
9976
330
18
100
AcDbEntity
  8
HIDDEN
100
AcDbLine
 10
1682.692008546575
 20
198.3685105843168
 30
0.0
 11
1681.33278166451
 21
199.1532605905667
 31
0.0
  0
LINE
  5
9977
330
18
100
AcDbEntity
  8
HIDDEN
100
AcDbLine
 10
1742.094446639658
 20
172.9474144273344
 30
0.0
 11
1739.675534826357
 21
176.8502541937939
 31
0.0
  0
CIRCLE
  5
9978
330
18
100
AcDbEntity
  8
HIDDEN
100
AcDbCircle
 10
1732.43278166451
 20
176.8255706442929
 30
0.0
 40
4.0
  0
LINE
  5
9979
330
18
100
AcDbEntity
  8
HIDDEN
100
AcDbLine
 10
1729.845068424239
 20
181.3076214518618
 30
0.0
 11
1726.669641943696
 21
175.8076214518619
 31
0.0
  0
LINE
  5
997A
330
18
100
AcDbEntity
  8
HIDDEN
100
AcDbLine
 10
1736.195921385325
 20
181.3076214518618
 30
0.0
 11
1726.669641943696
 21
175.8076214518619
 31
0.0
  0
LINE
  5
997B
330
18
100
AcDbEntity
  8
HIDDEN
100
AcDbLine
 10
1728.790028502663
 20
170.5655041875438
 30
0.0
 11
1739.675534826357
 21
176.8502541937939
 31
0.0
  0
LINE
  5
997D
330
18
100
AcDbEntity
  8
HIDDEN
100
AcDbLine
 10
1740.135921285324
 20
174.4833414432457
 30
0.0
 11
1736.195921385325
 21
181.3076214518618
 31
0.0
  0
LINE
  5
997E
330
18
100
AcDbEntity
  8
HIDDEN
100
AcDbLine
 10
1730.609641843696
 20
168.9833414432455
 30
0.0
 11
1726.669641943696
 21
175.8076214518619
 31
0.0
  0
LINE
  5
997F
330
18
100
AcDbEntity
  8
HIDDEN
100
AcDbLine
 10
1730.960530980667
 20
166.5192452244812
 30
0.0
 11
1728.790028502663
 21
170.5655041875438
 31
0.0
  0
LINE
  5
9980
330
18
100
AcDbEntity
  8
HIDDEN
100
AcDbLine
 10
1728.790028502663
 20
172.135004200044
 30
0.0
 11
1728.790028502663
 21
170.5655041875438
 31
0.0
  0
LINE
  5
9981
330
18
100
AcDbEntity
  8
HIDDEN
100
AcDbLine
 10
1744.911498421918
 20
164.4117992072002
 30
0.0
 11
1743.161498421918
 21
167.4428881204457
 31
0.0
  0
LINE
  5
9983
330
18
100
AcDbEntity
  8
HIDDEN
100
AcDbLine
 10
1740.423048802616
 20
173.3673969950445
 30
0.0
 11
1742.094446639658
 21
172.9474144273343
 31
0.0
  0
LINE
  5
9984
330
18
100
AcDbEntity
  8
HIDDEN
100
AcDbLine
 10
1745.991594480201
 20
165.0353929572002
 30
0.0
 11
1740.902182849235
 21
173.2470019923009
 31
0.0
  0
LINE
  5
9985
330
18
100
AcDbEntity
  8
HIDDEN
100
AcDbLine
 10
1731.432514326404
 20
168.1767094950446
 30
0.0
 11
1730.960530980666
 21
166.519245224481
 31
0.0
  0
LINE
  5
9986
330
18
100
AcDbEntity
  8
HIDDEN
100
AcDbLine
 10
1735.863968648819
 20
159.1882054572001
 30
0.0
 11
1731.297212433959
 21
167.7015697374831
 31
0.0
  0
LINE
  5
9987
330
18
100
AcDbEntity
  8
HIDDEN
100
AcDbLine
 10
1735.12265090318
 20
158.7602054572001
 30
0.0
 11
1730.960530980667
 21
166.519245224481
 31
0.0
  0
ARC
  5
9988
330
18
100
AcDbEntity
  8
HIDDEN
100
AcDbCircle
 10
1746.578626110911
 20
152.3242493471594
 30
0.0
 40
15.49999999999998
100
AcDbArc
 50
102.7360436771828
 51
137.2639563228175
  0
LINE
  5
9989
330
18
100
AcDbEntity
  8
HIDDEN
100
AcDbLine
 10
1736.944064707102
 20
159.8117992072001
 30
0.0
 11
1735.194064707101
 21
162.8428881204457
 31
0.0
  0
ARC
  5
998A
330
18
100
AcDbEntity
  8
HIDDEN
100
AcDbCircle
 10
1733.189168776984
 20
175.5154697352971
 30
0.0
 40
6.5
100
AcDbArc
 50
267.4210296071959
 51
332.5789703928043
  0
LINE
  5
998B
330
18
100
AcDbEntity
  8
HIDDEN
100
AcDbLine
 10
1730.960530980667
 20
166.519245224481
 30
0.0
 11
1742.094446639658
 21
172.9474144273343
 31
0.0
  0
LINE
  5
998C
330
18
100
AcDbEntity
  8
HIDDEN
100
AcDbLine
 10
1731.432514326404
 20
168.1767094950446
 30
0.0
 11
1740.423048802616
 21
173.3673969950445
 31
0.0
  0
LINE
  5
998D
330
18
100
AcDbEntity
  8
HIDDEN
100
AcDbLine
 10
1740.902182849235
 20
173.2470019923011
 30
0.0
 11
1740.135921285324
 21
174.4833414432457
 31
0.0
  0
LINE
  5
998E
330
18
100
AcDbEntity
  8
HIDDEN
100
AcDbLine
 10
1744.103916171508
 20
168.9974353221596
 30
0.0
 11
1743.422892115801
 21
169.1799151679129
 31
0.0
  0
LINE
  5
998F
330
18
100
AcDbEntity
  8
HIDDEN
100
AcDbLine
 10
1733.376578464241
 20
162.8040040091807
 30
0.0
 11
1733.559058309994
 21
163.4850280648886
 31
0.0
  0
LINE
  5
9990
330
18
100
AcDbEntity
  8
HIDDEN
100
AcDbLine
 10
1731.297212433959
 20
167.7015697374831
 30
0.0
 11
1730.609641843696
 21
168.9833414432455
 31
0.0
  0
LINE
  5
9991
330
18
100
AcDbEntity
  8
HIDDEN
100
AcDbLine
 10
1729.845068424239
 20
181.3076214518618
 30
0.0
 11
1736.195921385325
 21
181.3076214518618
 31
0.0
  0
LINE
  5
9992
330
18
100
AcDbEntity
  8
HIDDEN
100
AcDbLine
 10
1738.316307944292
 20
177.635004200044
 30
0.0
 11
1739.675534826357
 21
176.8502541937939
 31
0.0
  0
CIRCLE
  5
9995
330
18
100
AcDbEntity
  8
DRAW2
100
AcDbCircle
 10
1793.93278166451
 20
208.868510584317
 30
0.0
 40
13.00000000000004
  0
CIRCLE
  5
9996
330
18
100
AcDbEntity
  8
DRAW2
100
AcDbCircle
 10
1793.93278166451
 20
208.868510584317
 30
0.0
 40
10.99999999999997
  0
LINE
  5
9998
102
{ACAD_REACTORS
330
99BB
102
}
330
18
100
AcDbEntity
  8
DRAW2
100
AcDbLine
 10
1743.93278166451
 20
352.8685105843172
 30
0.0
 11
1745.93278166451
 21
350.8685105843172
 31
0.0
  0
LINE
  5
9999
102
{ACAD_REACTORS
330
99BB
102
}
330
18
100
AcDbEntity
  8
DRAW2
100
AcDbLine
 10
1683.93278166451
 20
352.8685105843172
 30
0.0
 11
1681.93278166451
 21
350.8685105843172
 31
0.0
  0
CIRCLE
  5
999D
102
{ACAD_REACTORS
330
99BB
102
}
330
18
100
AcDbEntity
  8
DRAW2
100
AcDbCircle
 10
1690.951811275947
 20
288.8875401957545
 30
0.0
 40
7.500000000000004
  0
ARC
  5
99A0
330
18
100
AcDbEntity
  8
DRAW2
100
AcDbCircle
 10
1673.93278166451
 20
278.1505428870719
 30
0.0
 40
13.00000000000004
100
AcDbArc
 50
23.92098202457045
 51
40.57318727454208
  0
LINE
  5
99A1
102
{ACAD_REACTORS
330
99BB
102
}
330
18
100
AcDbEntity
  8
DRAW2
100
AcDbLine
 10
1686.426549602725
 20
294.8685105843172
 30
0.0
 11
1695.477072949169
 21
294.8685105843172
 31
0.0
  0
CIRCLE
  5
99A2
102
{ACAD_REACTORS
330
99BB
102
}
330
18
100
AcDbEntity
  8
DRAW2
100
AcDbCircle
 10
1736.913752053073
 20
288.8875401957544
 30
0.0
 40
7.500000000000004
  0
LINE
  5
99A5
102
{ACAD_REACTORS
330
99BB
102
}
330
18
100
AcDbEntity
  8
DRAW2
100
AcDbLine
 10
1732.388490379851
 20
294.8685105843172
 30
0.0
 11
1741.439013726295
 21
294.8685105843172
 31
0.0
  0
CIRCLE
  5
99A6
102
{ACAD_REACTORS
330
99BB
102
}
330
18
100
AcDbEntity
  8
DRAW2
100
AcDbCircle
 10
1713.93278166451
 20
311.8685105843172
 30
0.0
 40
8.0
  0
CIRCLE
  5
99A7
102
{ACAD_REACTORS
330
99BB
102
}
330
18
100
AcDbEntity
  8
DRAW2
100
AcDbCircle
 10
1713.93278166451
 20
311.8685105843172
 30
0.0
 40
7.0
  0
LINE
  5
99A9
102
{ACAD_REACTORS
330
99BB
102
}
330
18
100
AcDbEntity
  8
DRAW2
100
AcDbLine
 10
1698.387380998354
 20
333.8685105843172
 30
0.0
 11
1683.516241553541
 21
333.8685105843172
 31
0.0
  0
CIRCLE
  5
99AA
102
{ACAD_REACTORS
330
99BB
102
}
330
18
100
AcDbEntity
  8
DRAW2
100
AcDbCircle
 10
1690.951811275947
 20
334.84948097288
 30
0.0
 40
7.500000000000004
  0
LINE
  5
99AC
102
{ACAD_REACTORS
330
99BB
102
}
330
18
100
AcDbEntity
  8
DRAW2
100
AcDbLine
 10
1681.93278166451
 20
350.8685105843172
 30
0.0
 11
1691.482837343866
 21
350.8685105843172
 31
0.0
  0
LINE
  5
99AD
102
{ACAD_REACTORS
330
99BB
102
}
330
18
100
AcDbEntity
  8
DRAW2
100
AcDbLine
 10
1681.93278166451
 20
350.8685105843172
 30
0.0
 11
1681.93278166451
 21
343.5070946234299
 31
0.0
  0
LINE
  5
99AE
102
{ACAD_REACTORS
330
99BB
102
}
330
18
100
AcDbEntity
  8
DRAW2
100
AcDbLine
 10
1686.426549602725
 20
328.8685105843173
 30
0.0
 11
1695.477072949169
 21
328.8685105843172
 31
0.0
  0
LINE
  5
99AF
102
{ACAD_REACTORS
330
99BB
102
}
330
18
100
AcDbEntity
  8
DRAW2
100
AcDbLine
 10
1697.93278166451
 20
333.8685105843172
 30
0.0
 11
1697.93278166451
 21
337.5910229539572
 31
0.0
  0
LINE
  5
99B1
102
{ACAD_REACTORS
330
99BB
102
}
330
18
100
AcDbEntity
  8
DRAW2
100
AcDbLine
 10
1729.478182330667
 20
333.8685105843172
 30
0.0
 11
1744.349321775479
 21
333.8685105843172
 31
0.0
  0
CIRCLE
  5
99B2
102
{ACAD_REACTORS
330
99BB
102
}
330
18
100
AcDbEntity
  8
DRAW2
100
AcDbCircle
 10
1736.913752053073
 20
334.84948097288
 30
0.0
 40
7.500000000000004
  0
LINE
  5
99B4
102
{ACAD_REACTORS
330
99BB
102
}
330
18
100
AcDbEntity
  8
DRAW2
100
AcDbLine
 10
1729.93278166451
 20
333.8685105843172
 30
0.0
 11
1729.93278166451
 21
337.5910229539572
 31
0.0
  0
LINE
  5
99B5
102
{ACAD_REACTORS
330
99BB
102
}
330
18
100
AcDbEntity
  8
DRAW2
100
AcDbLine
 10
1745.93278166451
 20
350.8685105843172
 30
0.0
 11
1736.382725985154
 21
350.8685105843172
 31
0.0
  0
LINE
  5
99B6
102
{ACAD_REACTORS
330
99BB
102
}
330
18
100
AcDbEntity
  8
DRAW2
100
AcDbLine
 10
1745.93278166451
 20
350.8685105843172
 30
0.0
 11
1745.93278166451
 21
343.5070946234299
 31
0.0
  0
LINE
  5
99B7
102
{ACAD_REACTORS
330
99BB
102
}
330
18
100
AcDbEntity
  8
DRAW2
100
AcDbLine
 10
1732.388490379851
 20
328.8685105843172
 30
0.0
 11
1741.439013726295
 21
328.8685105843172
 31
0.0
  0
LINE
  5
99B8
102
{ACAD_REACTORS
330
99BB
102
}
330
18
100
AcDbEntity
  8
DRAW2
100
AcDbLine
 10
1695.385544673519
 20
352.8685105843172
 30
0.0
 11
1683.93278166451
 21
352.8685105843172
 31
0.0
  0
LINE
  5
99B9
102
{ACAD_REACTORS
330
99BB
102
}
330
18
100
AcDbEntity
  8
DRAW2
100
AcDbLine
 10
1732.480018655502
 20
352.8685105843172
 30
0.0
 11
1743.93278166451
 21
352.8685105843172
 31
0.0
  0
LINE
  5
9AA3
330
18
100
AcDbEntity
  8
DRAW2
100
AcDbLine
 10
1079.78278156451
 20
293.8685105843166
 30
0.0
 11
1079.78278156451
 21
123.8685105843162
 31
0.0
  0
LINE
  5
9AA4
330
18
100
AcDbEntity
  8
DRAW2
100
AcDbLine
 10
1074.78278156451
 20
293.8685105843166
 30
0.0
 11
1074.78278156451
 21
123.8685105843162
 31
0.0
  0
LINE
  5
9AA5
330
18
100
AcDbEntity
  8
DRAW2
100
AcDbLine
 10
1079.78278156451
 20
123.8685105843162
 30
0.0
 11
1074.78278156451
 21
123.8685105843162
 31
0.0
  0
LINE
  5
9AA8
330
18
100
AcDbEntity
  8
DRAW2
100
AcDbLine
 10
1074.78278156451
 20
293.8685105843166
 30
0.0
 11
1079.78278156451
 21
293.8685105843166
 31
0.0
  0
LINE
  5
9AA9
330
18
100
AcDbEntity
  8
DRAW2
100
AcDbLine
 10
1127.782781564509
 20
328.8685105843175
 30
0.0
 11
1079.782781564509
 21
328.8685105843175
 31
0.0
  0
LINE
  5
9AAA
330
18
100
AcDbEntity
  8
DRAW2
100
AcDbLine
 10
1127.782781564509
 20
333.8685105843175
 30
0.0
 11
1079.782781564509
 21
333.8685105843175
 31
0.0
  0
LINE
  5
9AAB
330
18
100
AcDbEntity
  8
DRAW2
100
AcDbLine
 10
1079.782781564509
 20
328.8685105843175
 30
0.0
 11
1079.782781564509
 21
333.8685105843175
 31
0.0
  0
LINE
  5
9AAE
330
18
100
AcDbEntity
  8
DRAW2
100
AcDbLine
 10
1127.782781564509
 20
328.8685105843175
 30
0.0
 11
1127.782781564509
 21
333.8685105843175
 31
0.0
  0
LINE
  5
9AAF
330
18
100
AcDbEntity
  8
DRAW2
100
AcDbLine
 10
1269.78278156451
 20
293.8685105843166
 30
0.0
 11
1269.78278156451
 21
123.8685105843162
 31
0.0
  0
LINE
  5
9AB0
330
18
100
AcDbEntity
  8
DRAW2
100
AcDbLine
 10
1274.78278156451
 20
293.8685105843166
 30
0.0
 11
1274.78278156451
 21
123.8685105843162
 31
0.0
  0
LINE
  5
9AB1
330
18
100
AcDbEntity
  8
DRAW2
100
AcDbLine
 10
1269.78278156451
 20
123.8685105843162
 30
0.0
 11
1274.78278156451
 21
123.8685105843162
 31
0.0
  0
LINE
  5
9AB4
330
18
100
AcDbEntity
  8
DRAW2
100
AcDbLine
 10
1274.78278156451
 20
293.8685105843166
 30
0.0
 11
1269.78278156451
 21
293.8685105843166
 31
0.0
  0
LINE
  5
9AB5
330
18
100
AcDbEntity
  8
DRAW2
100
AcDbLine
 10
1221.78278156451
 20
328.8685105843176
 30
0.0
 11
1269.78278156451
 21
328.8685105843176
 31
0.0
  0
LINE
  5
9AB6
330
18
100
AcDbEntity
  8
DRAW2
100
AcDbLine
 10
1221.78278156451
 20
333.8685105843176
 30
0.0
 11
1269.78278156451
 21
333.8685105843176
 31
0.0
  0
LINE
  5
9AB7
330
18
100
AcDbEntity
  8
DRAW2
100
AcDbLine
 10
1269.78278156451
 20
328.8685105843176
 30
0.0
 11
1269.78278156451
 21
333.8685105843176
 31
0.0
  0
LINE
  5
9ABA
330
18
100
AcDbEntity
  8
DRAW2
100
AcDbLine
 10
1221.78278156451
 20
328.8685105843176
 30
0.0
 11
1221.78278156451
 21
333.8685105843176
 31
0.0
  0
VIEWPORT
  5
37
330
15
100
AcDbEntity
 67
     1
  8
0
100
AcDbViewport
 10
296.9950122070312
 20
209.9950000476836
 30
0.0
 40
632.1056339387388
 41
423.1939163498098
 68
     1
 69
     1
 12
296.9950122070312
 22
209.9950000476836
 13
0.0
 23
0.0
 14
10.0
 24
10.0
 15
10.0
 25
10.0
 16
0.0
 26
0.0
 36
1.0
 17
0.0
 27
0.0
 37
0.0
 42
50.0
 43
0.0
 44
0.0
 45
423.1939163498098
 50
0.0
 51
0.0
 72
   100
 90
    32768
  1

281
     0
 71
     1
 74
     0
110
0.0
120
0.0
130
0.0
111
1.0
121
0.0
131
0.0
112
0.0
122
1.0
132
0.0
 79
     0
146
0.0
  0
ENDSEC
  0
SECTION
  2
OBJECTS
  0
DICTIONARY
  5
C
330
0
100
AcDbDictionary
281
     1
  3
ACAD_GROUP
350
D
  3
ACAD_IMAGE_VARS
350
7A9
  3
ACAD_LAYOUT
350
1AD
  3
ACAD_MLINESTYLE
350
1B
  3
ACAD_PLOTSETTINGS
350
1AE
  3
ACAD_PLOTSTYLENAME
350
1AB
  0
DICTIONARY
  5
D
102
{ACAD_REACTORS
330
C
102
}
330
C
100
AcDbDictionary
281
     1
  3
*A1
350
1485
  3
*A2
350
99BD
  3
*A3
350
99BE
  3
*A4
350
99BF
  3
*A5
350
99C0
  3
*A6
350
832D
  3
*A7
350
83E3
  3
*A8
350
83E4
  3
*A9
350
8429
  3
*A10
350
8436
  3
*A11
350
8442
  3
*A12
350
844E
  3
*A13
350
99BA
  3
*A14
350
99BB
  3
*A15
350
99BC
  0
RASTERVARIABLES
  5
7A9
102
{ACAD_REACTORS
330
C
102
}
330
C
100
AcDbRasterVariables
 90
        0
 70
     1
 71
     1
 72
     0
  0
DICTIONARY
  5
1AD
102
{ACAD_REACTORS
330
C
102
}
330
C
100
AcDbDictionary
281
     1
  3
Model
350
1AF
  3
ﾚｲｱｳﾄ1
350
1B0
  0
DICTIONARY
  5
1B
102
{ACAD_REACTORS
330
C
102
}
330
C
100
AcDbDictionary
281
     1
  3
STANDARD
350
1C
  0
DICTIONARY
  5
1AE
102
{ACAD_REACTORS
330
C
102
}
330
C
100
AcDbDictionary
281
     1
  3
AdobePDF_A2
350
84F8
  3
普通紙Ａ３_XL-5800_WinNT40
350
298B
  3
普通紙Ａ３からＡ４_XL-5800_WinNT40
350
298C
  0
ACDBDICTIONARYWDFLT
  5
1AB
102
{ACAD_REACTORS
330
C
102
}
330
C
100
AcDbDictionary
281
     1
  3
Normal
350
1AC
100
AcDbDictionaryWithDefault
340
1AC
  0
GROUP
  5
1485
102
{ACAD_REACTORS
330
D
102
}
330
D
100
AcDbGroup
300

 70
     1
 71
     1
  0
GROUP
  5
99BD
102
{ACAD_REACTORS
330
D
102
}
330
D
100
AcDbGroup
300

 70
     1
 71
     1
340
9610
340
9611
340
9624
340
9617
340
9612
340
9618
340
9619
340
961B
340
9622
340
9623
340
9625
  0
GROUP
  5
99BE
102
{ACAD_REACTORS
330
D
102
}
330
D
100
AcDbGroup
300

 70
     1
 71
     1
340
967E
340
967D
340
968A
340
9682
340
967F
340
9684
340
9683
340
9686
340
9688
340
9689
340
968D
  0
GROUP
  5
99BF
102
{ACAD_REACTORS
330
D
102
}
330
D
100
AcDbGroup
300

 70
     1
 71
     1
340
98D0
340
98CF
340
98DC
340
98D4
340
98D1
340
98D6
340
98D5
340
98D7
340
98DA
340
98DB
340
98DD
  0
GROUP
  5
99C0
102
{ACAD_REACTORS
330
D
102
}
330
D
100
AcDbGroup
300

 70
     1
 71
     1
340
994F
340
994E
340
9959
340
9953
340
9950
340
9955
340
9954
340
9956
340
9957
340
9958
340
995B
  0
GROUP
  5
832D
102
{ACAD_REACTORS
330
D
102
}
330
D
100
AcDbGroup
300

 70
     1
 71
     1
  0
GROUP
  5
83E3
102
{ACAD_REACTORS
330
D
102
}
330
D
100
AcDbGroup
300

 70
     1
 71
     1
  0
GROUP
  5
83E4
102
{ACAD_REACTORS
330
D
102
}
330
D
100
AcDbGroup
300

 70
     1
 71
     1
  0
GROUP
  5
8429
102
{ACAD_REACTORS
330
D
102
}
330
D
100
AcDbGroup
300

 70
     1
 71
     1
  0
GROUP
  5
8436
102
{ACAD_REACTORS
330
D
102
}
330
D
100
AcDbGroup
300

 70
     1
 71
     1
  0
GROUP
  5
8442
102
{ACAD_REACTORS
330
D
102
}
330
D
100
AcDbGroup
300

 70
     1
 71
     1
  0
GROUP
  5
844E
102
{ACAD_REACTORS
330
D
102
}
330
D
100
AcDbGroup
300

 70
     1
 71
     1
  0
GROUP
  5
99BA
102
{ACAD_REACTORS
330
D
102
}
330
D
100
AcDbGroup
300

 70
     1
 71
     1
340
966A
340
966B
340
96DD
340
96DE
340
96DA
340
96E0
340
96E1
340
96E5
340
967B
340
967C
340
9680
340
968B
340
9691
340
9694
340
96D9
340
96EA
340
96E6
340
96EC
340
96ED
340
9703
340
96FE
340
96FC
340
96FD
340
9702
340
9707
340
970A
340
970B
340
970C
340
970D
340
9713
340
9714
340
9716
340
9717
340
9718
  0
GROUP
  5
99BB
102
{ACAD_REACTORS
330
D
102
}
330
D
100
AcDbGroup
300

 70
     1
 71
     1
340
982D
340
99A6
340
99A7
340
99A1
340
999D
340
99AD
340
99AE
340
99A9
340
99AA
340
99AF
340
99B8
340
9999
340
99AC
340
99A2
340
99A5
340
99B5
340
99B9
340
99B1
340
99B2
340
99B7
340
99B4
340
99B6
340
9998
  0
GROUP
  5
99BC
102
{ACAD_REACTORS
330
D
102
}
330
D
100
AcDbGroup
300

 70
     1
 71
     1
340
982C
340
9930
340
9931
340
992E
340
992F
340
9936
340
9932
340
9933
340
9937
340
9939
340
993A
340
993C
340
993D
340
9941
340
9940
340
993B
340
9938
340
992A
340
992B
340
9946
340
9943
340
9948
340
994B
  0
LAYOUT
  5
1AF
102
{ACAD_REACTORS
330
1AD
102
}
330
1AD
100
AcDbPlotSettings
  1

  2
FUJITSU XL-5800
  4
A4
  6

 40
5.873749732971191
 41
5.704405784606933
 42
5.873748779296875
 43
5.873748779296875
 44
210.0579986572265
 45
296.9259948730469
 46
-934.06
 47
-482.3299999999999
 48
0.0
 49
0.0
140
0.0
141
0.0
142
1.0
143
1.0
 70
 11956
 72
     1
 73
     0
 74
     0
  7
LineScale_10.ctb
 75
    16
147
1.0
148
1033.210332103321
149
625.0
100
AcDbLayout
  1
Model
 70
     1
 71
     0
 10
0.0
 20
0.0
 11
12.0
 21
9.0
 12
0.0
 22
0.0
 32
0.0
 14
0.0
 24
0.0
 34
0.0
 15
0.0
 25
0.0
 35
0.0
146
0.0
 13
0.0
 23
0.0
 33
0.0
 16
1.0
 26
0.0
 36
0.0
 17
0.0
 27
1.0
 37
0.0
 76
     0
330
18
  0
LAYOUT
  5
1B0
102
{ACAD_REACTORS
330
1AD
102
}
330
1AD
100
AcDbPlotSettings
  1
AdobePDF_A2
  2
Adobe PDF
  4
User66
  6
A1
 40
3.174999952316284
 41
3.174999952316284
 42
3.17498779296875
 43
3.17498779296875
 44
420.0
 45
594.0
 46
-3.169999999999999
 47
-3.169999999999999
 48
0.0
 49
0.0
140
594.0
141
420.0
142
1.0
143
1.0
 70
   692
 72
     1
 73
     1
 74
     4
  7
LineScale_10.ctb
 75
    16
147
1.0
148
0.0
149
0.0
100
AcDbLayout
  1
ﾚｲｱｳﾄ1
 70
     1
 71
     1
 10
-0.0049877929687501
 20
-0.0049999523162843
 11
593.9950122070312
 21
419.9950000476837
 12
0.0
 22
0.0
 32
0.0
 14
1.000000000000000E+20
 24
1.000000000000000E+20
 34
1.000000000000000E+20
 15
-1.000000000000000E+20
 25
-1.000000000000000E+20
 35
-1.000000000000000E+20
146
0.0
 13
0.0
 23
0.0
 33
0.0
 16
1.0
 26
0.0
 36
0.0
 17
0.0
 27
1.0
 37
0.0
 76
     0
330
15
331
37
  0
MLINESTYLE
  5
1C
102
{ACAD_REACTORS
330
1B
102
}
330
1B
100
AcDbMlineStyle
  2
STANDARD
 70
     0
  3

 62
   256
 51
90.0
 52
90.0
 71
     2
 49
0.5
 62
   256
  6
BYLAYER
 49
-0.5
 62
   256
  6
BYLAYER
  0
PLOTSETTINGS
  5
84F8
102
{ACAD_REACTORS
330
1AE
102
}
330
1AE
100
AcDbPlotSettings
  1
AdobePDF_A2
  2
Adobe PDF
  4
User66
  6
A1
 40
3.174999952316284
 41
3.174999952316284
 42
3.17498779296875
 43
3.17498779296875
 44
420.0
 45
594.0
 46
-3.169999999999999
 47
-3.169999999999999
 48
0.0
 49
0.0
140
594.0
141
420.0
142
1.0
143
1.0
 70
   692
 72
     1
 73
     1
 74
     4
  7
LineScale_10.ctb
 75
    16
147
1.0
148
0.0
149
0.0
  0
PLOTSETTINGS
  5
298B
102
{ACAD_REACTORS
330
1AE
102
}
330
1AE
100
AcDbPlotSettings
  1
普通紙Ａ３_XL-5800_WinNT40
  2
FUJITSU XL-5800
  4
A3
  6
A1
 40
5.873749732971191
 41
5.873747825622558
 42
5.70440673828125
 43
5.873748779296875
 44
296.9259948730469
 45
420.1159973144531
 46
-5.009999999999999
 47
-6.7
 48
0.0
 49
0.0
140
420.0
141
297.0
142
1.0
143
1.0
 70
   688
 72
     1
 73
     1
 74
     4
  7
LineScale_10.ctb
 75
    16
147
1.0
148
0.0
149
0.0
  0
PLOTSETTINGS
  5
298C
102
{ACAD_REACTORS
330
1AE
102
}
330
1AE
100
AcDbPlotSettings
  1
普通紙Ａ３からＡ４_XL-5800_WinNT40
  2
FUJITSU XL-5800
  4
A4
  6
A1
 40
5.873749732971191
 41
5.704405784606933
 42
5.873748779296875
 43
5.873748779296875
 44
210.0579986572265
 45
296.9259948730469
 46
-6.4
 47
-5.459999999999999
 48
0.0
 49
0.0
140
420.0
141
297.0
142
0.7071066999999999
143
1.0
 70
   672
 72
     1
 73
     1
 74
     4
  7
LineScale_07.ctb
 75
     0
147
0.7071066999999999
148
0.0
149
0.0
  0
ACDBPLACEHOLDER
  5
1AC
102
{ACAD_REACTORS
330
1AB
102
}
330
1AB
  0
ENDSEC
  0
EOF
