  0
SECTION
  2
HEADER
  9
$ACADVER
  1
AC1015
  9
$ACADMAINTVER
 70
     6
  9
$DWGCODEPAGE
  3
ANSI_932
  9
$INSBASE
 10
0.0
 20
0.0
 30
0.0
  9
$EXTMIN
 10
963.0475642197835
 20
-168.3977128099634
 30
-0.0000000349181948
  9
$EXTMAX
 10
1716.140384889027
 20
474.2042851841159
 30
0.0000000814935747
  9
$LIMMIN
 10
0.0
 20
0.0
  9
$LIMMAX
 10
841.0
 20
594.0
  9
$ORTHOMODE
 70
     0
  9
$REGENMODE
 70
     1
  9
$FILLMODE
 70
     1
  9
$QTEXTMODE
 70
     0
  9
$MIRRTEXT
 70
     0
  9
$LTSCALE
 40
7.0
  9
$ATTMODE
 70
     1
  9
$TEXTSIZE
 40
4.799999999999998
  9
$TRACEWID
 40
0.05
  9
$TEXTSTYLE
  7
DIMFONT
  9
$CLAYER
  8
DRAW2
  9
$CELTYPE
  6
BYLAYER
  9
$CECOLOR
 62
   256
  9
$CELTSCALE
 40
1.0
  9
$DISPSILH
 70
     0
  9
$DIMSCALE
 40
4.0
  9
$DIMASZ
 40
3.0
  9
$DIMEXO
 40
0.0
  9
$DIMDLI
 40
10.0
  9
$DIMRND
 40
0.0
  9
$DIMDLE
 40
0.0
  9
$DIMEXE
 40
1.0
  9
$DIMTP
 40
0.5
  9
$DIMTM
 40
0.0
  9
$DIMTXT
 40
3.2
  9
$DIMCEN
 40
0.0
  9
$DIMTSZ
 40
0.0
  9
$DIMTOL
 70
     0
  9
$DIMLIM
 70
     0
  9
$DIMTIH
 70
     0
  9
$DIMTOH
 70
     0
  9
$DIMSE1
 70
     0
  9
$DIMSE2
 70
     0
  9
$DIMTAD
 70
     3
  9
$DIMZIN
 70
     8
  9
$DIMBLK
  1

  9
$DIMASO
 70
     1
  9
$DIMSHO
 70
     1
  9
$DIMPOST
  1

  9
$DIMAPOST
  1

  9
$DIMALT
 70
     0
  9
$DIMALTD
 70
     2
  9
$DIMALTF
 40
25.4
  9
$DIMLFAC
 40
1.0
  9
$DIMTOFL
 70
     1
  9
$DIMTVP
 40
0.0
  9
$DIMTIX
 70
     0
  9
$DIMSOXD
 70
     0
  9
$DIMSAH
 70
     1
  9
$DIMBLK1
  1
OPEN
  9
$DIMBLK2
  1
OPEN
  9
$DIMSTYLE
  2
1_RT2
  9
$DIMCLRD
 70
     0
  9
$DIMCLRE
 70
     0
  9
$DIMCLRT
 70
     0
  9
$DIMTFAC
 40
0.75
  9
$DIMGAP
 40
1.0
  9
$DIMJUST
 70
     0
  9
$DIMSD1
 70
     0
  9
$DIMSD2
 70
     0
  9
$DIMTOLJ
 70
     1
  9
$DIMTZIN
 70
     8
  9
$DIMALTZ
 70
     0
  9
$DIMALTTZ
 70
     0
  9
$DIMUPT
 70
     0
  9
$DIMDEC
 70
     3
  9
$DIMTDEC
 70
     3
  9
$DIMALTU
 70
     2
  9
$DIMALTTD
 70
     2
  9
$DIMTXSTY
  7
DIMFONT
  9
$DIMAUNIT
 70
     0
  9
$DIMADEC
 70
     0
  9
$DIMALTRND
 40
0.0
  9
$DIMAZIN
 70
     0
  9
$DIMDSEP
 70
    46
  9
$DIMATFIT
 70
     3
  9
$DIMFRAC
 70
     0
  9
$DIMLDRBLK
  1
OPEN
  9
$DIMLUNIT
 70
     2
  9
$DIMLWD
 70
    -2
  9
$DIMLWE
 70
    -2
  9
$DIMTMOVE
 70
     0
  9
$LUNITS
 70
     2
  9
$LUPREC
 70
     4
  9
$SKETCHINC
 40
0.1
  9
$FILLETRAD
 40
0.0
  9
$AUNITS
 70
     0
  9
$AUPREC
 70
     4
  9
$MENU
  1
acad
  9
$ELEVATION
 40
0.0
  9
$PELEVATION
 40
0.0
  9
$THICKNESS
 40
0.0
  9
$LIMCHECK
 70
     0
  9
$CHAMFERA
 40
10.0
  9
$CHAMFERB
 40
10.0
  9
$CHAMFERC
 40
0.0
  9
$CHAMFERD
 40
0.0
  9
$SKPOLY
 70
     0
  9
$TDCREATE
 40
2451059.629240902
  9
$TDUCREATE
 40
2451059.254240902
  9
$TDUPDATE
 40
2454973.604637766
  9
$TDUUPDATE
 40
2454973.229637766
  9
$TDINDWG
 40
0.8863188773
  9
$TDUSRTIMER
 40
0.8863186921
  9
$USRTIMER
 70
     1
  9
$ANGBASE
 50
0.0
  9
$ANGDIR
 70
     0
  9
$PDMODE
 70
    35
  9
$PDSIZE
 40
0.5
  9
$PLINEWID
 40
0.0
  9
$SPLFRAME
 70
     0
  9
$SPLINETYPE
 70
     6
  9
$SPLINESEGS
 70
     8
  9
$HANDSEED
  5
7B92
  9
$SURFTAB1
 70
     6
  9
$SURFTAB2
 70
     6
  9
$SURFTYPE
 70
     6
  9
$SURFU
 70
     6
  9
$SURFV
 70
     6
  9
$UCSBASE
  2

  9
$UCSNAME
  2

  9
$UCSORG
 10
0.0
 20
0.0
 30
0.0
  9
$UCSXDIR
 10
1.0
 20
0.0
 30
0.0
  9
$UCSYDIR
 10
0.0
 20
1.0
 30
0.0
  9
$UCSORTHOREF
  2

  9
$UCSORTHOVIEW
 70
     0
  9
$UCSORGTOP
 10
0.0
 20
0.0
 30
0.0
  9
$UCSORGBOTTOM
 10
0.0
 20
0.0
 30
0.0
  9
$UCSORGLEFT
 10
0.0
 20
0.0
 30
0.0
  9
$UCSORGRIGHT
 10
0.0
 20
0.0
 30
0.0
  9
$UCSORGFRONT
 10
0.0
 20
0.0
 30
0.0
  9
$UCSORGBACK
 10
0.0
 20
0.0
 30
0.0
  9
$PUCSBASE
  2

  9
$PUCSNAME
  2

  9
$PUCSORG
 10
0.0
 20
0.0
 30
0.0
  9
$PUCSXDIR
 10
1.0
 20
0.0
 30
0.0
  9
$PUCSYDIR
 10
0.0
 20
1.0
 30
0.0
  9
$PUCSORTHOREF
  2

  9
$PUCSORTHOVIEW
 70
     0
  9
$PUCSORGTOP
 10
0.0
 20
0.0
 30
0.0
  9
$PUCSORGBOTTOM
 10
0.0
 20
0.0
 30
0.0
  9
$PUCSORGLEFT
 10
0.0
 20
0.0
 30
0.0
  9
$PUCSORGRIGHT
 10
0.0
 20
0.0
 30
0.0
  9
$PUCSORGFRONT
 10
0.0
 20
0.0
 30
0.0
  9
$PUCSORGBACK
 10
0.0
 20
0.0
 30
0.0
  9
$USERI1
 70
     0
  9
$USERI2
 70
     0
  9
$USERI3
 70
     0
  9
$USERI4
 70
     0
  9
$USERI5
 70
     0
  9
$USERR1
 40
0.0
  9
$USERR2
 40
0.0
  9
$USERR3
 40
0.0
  9
$USERR4
 40
0.0
  9
$USERR5
 40
0.0
  9
$WORLDVIEW
 70
     1
  9
$SHADEDGE
 70
     3
  9
$SHADEDIF
 70
    70
  9
$TILEMODE
 70
     1
  9
$MAXACTVP
 70
    16
  9
$PINSBASE
 10
0.0
 20
0.0
 30
0.0
  9
$PLIMCHECK
 70
     0
  9
$PEXTMIN
 10
1.000000000000000E+20
 20
1.000000000000000E+20
 30
1.000000000000000E+20
  9
$PEXTMAX
 10
-1.000000000000000E+20
 20
-1.000000000000000E+20
 30
-1.000000000000000E+20
  9
$PLIMMIN
 10
-0.0049877929687501
 20
-0.0049999523162843
  9
$PLIMMAX
 10
840.9950122070311
 20
593.9950000476836
  9
$UNITMODE
 70
     0
  9
$VISRETAIN
 70
     0
  9
$PLINEGEN
 70
     1
  9
$PSLTSCALE
 70
     1
  9
$TREEDEPTH
 70
  3020
  9
$CMLSTYLE
  2
STANDARD
  9
$CMLJUST
 70
     0
  9
$CMLSCALE
 40
1.0
  9
$PROXYGRAPHICS
 70
     1
  9
$MEASUREMENT
 70
     1
  9
$CELWEIGHT
370
    -1
  9
$ENDCAPS
280
     0
  9
$JOINSTYLE
280
     0
  9
$LWDISPLAY
290
     0
  9
$INSUNITS
 70
     0
  9
$HYPERLINKBASE
  1

  9
$STYLESHEET
  1

  9
$XEDIT
290
     1
  9
$CEPSNTYPE
380
     0
  9
$PSTYLEMODE
290
     1
  9
$FINGERPRINTGUID
  2
{8F0BBD14-6B55-403F-A9B2-8D687B5F5296}
  9
$VERSIONGUID
  2
{CD18936E-8054-4B0D-B0D7-4F92EE3DFF26}
  9
$EXTNAMES
290
     1
  9
$PSVPSCALE
 40
0.0
  9
$OLESTARTUP
290
     0
  0
ENDSEC
  0
SECTION
  2
CLASSES
  0
CLASS
  1
ACDBDICTIONARYWDFLT
  2
AcDbDictionaryWithDefault
  3
AutoCAD 2000
 90
        0
280
     0
281
     0
  0
CLASS
  1
ACDBPLACEHOLDER
  2
AcDbPlaceHolder
  3
AutoCAD 2000
 90
        0
280
     0
281
     0
  0
CLASS
  1
LAYOUT
  2
AcDbLayout
  3
AutoCAD 2000
 90
        0
280
     0
281
     0
  0
CLASS
  1
PLOTSETTINGS
  2
AcDbPlotSettings
  3
AutoCAD 2000
 90
        0
280
     0
281
     0
  0
ENDSEC
  0
SECTION
  2
TABLES
  0
TABLE
  2
VPORT
  5
8
330
0
100
AcDbSymbolTable
 70
     2
  0
VPORT
  5
7B91
330
8
100
AcDbSymbolTableRecord
100
AcDbViewportTableRecord
  2
*Active
 70
     0
 10
0.0
 20
0.0
 11
1.0
 21
1.0
 12
1339.593974554405
 22
152.9032861870762
 13
0.0
 23
0.0
 14
16.0
 24
16.0
 15
10.0
 25
10.0
 16
0.0
 26
0.0
 36
1.0
 17
0.0
 27
0.0
 37
0.0
 40
647.4887052031597
 41
1.493654822335025
 42
50.0
 43
0.0
 44
0.0
 50
0.0
 51
0.0
 71
     0
 72
   100
 73
     1
 74
     0
 75
     0
 76
     0
 77
     0
 78
     0
281
     0
 65
     1
110
0.0
120
0.0
130
0.0
111
1.0
121
0.0
131
0.0
112
0.0
122
1.0
132
0.0
 79
     0
146
0.0
  0
ENDTAB
  0
TABLE
  2
LTYPE
  5
5
330
0
100
AcDbSymbolTable
 70
     2
  0
LTYPE
  5
12
330
5
100
AcDbSymbolTableRecord
100
AcDbLinetypeTableRecord
  2
BYBLOCK
 70
     0
  3

 72
    65
 73
     0
 40
0.0
  0
LTYPE
  5
13
330
5
100
AcDbSymbolTableRecord
100
AcDbLinetypeTableRecord
  2
BYLAYER
 70
     0
  3

 72
    65
 73
     0
 40
0.0
  0
LTYPE
  5
14
330
5
100
AcDbSymbolTableRecord
100
AcDbLinetypeTableRecord
  2
CONTINUOUS
 70
     0
  3
Solid line
 72
    65
 73
     0
 40
0.0
  0
LTYPE
  5
21
330
5
100
AcDbSymbolTableRecord
100
AcDbLinetypeTableRecord
  2
HIDDEN
 70
     0
  3
__ __ __ __ __ __ __ __ __ __ __ __ __ __ __ __
 72
    65
 73
     2
 40
0.375
 49
0.25
 74
     0
 49
-0.125
 74
     0
  0
ENDTAB
  0
TABLE
  2
LAYER
  5
2
330
0
100
AcDbSymbolTable
 70
     6
  0
LAYER
  5
F
330
2
100
AcDbSymbolTableRecord
100
AcDbLayerTableRecord
  2
0
 70
     0
 62
     7
  6
CONTINUOUS
370
    -3
390
62A7
  0
LAYER
  5
2B
330
2
100
AcDbSymbolTableRecord
100
AcDbLayerTableRecord
  2
HIDDEN
 70
     0
 62
     7
  6
HIDDEN
370
    -3
390
62A7
  0
LAYER
  5
30
330
2
100
AcDbSymbolTableRecord
100
AcDbLayerTableRecord
  2
DRAW2
 70
     0
 62
     4
  6
CONTINUOUS
370
    -3
390
62A7
  0
LAYER
  5
B93
330
2
100
AcDbSymbolTableRecord
100
AcDbLayerTableRecord
  2
DRAW3
 70
     0
 62
     1
  6
CONTINUOUS
370
    -3
390
62A7
  0
LAYER
  5
1115
330
2
100
AcDbSymbolTableRecord
100
AcDbLayerTableRecord
  2
DEFPOINTS
 70
     0
 62
     7
  6
CONTINUOUS
290
     0
370
    -3
390
62A7
  0
ENDTAB
  0
TABLE
  2
STYLE
  5
3
330
0
100
AcDbSymbolTable
 70
     2
  0
STYLE
  5
10
330
3
100
AcDbSymbolTableRecord
100
AcDbTextStyleTableRecord
  2
STANDARD
 70
     0
 40
0.0
 41
1.0
 50
0.0
 71
     0
 42
0.2
  3
ROMANS.SHX
  4

  0
STYLE
  5
20
330
3
100
AcDbSymbolTableRecord
100
AcDbTextStyleTableRecord
  2
DIMFONT
 70
     0
 40
0.0
 41
1.0
 50
10.0
 71
     0
 42
4.799999999999998
  3
romans.shx
  4
extfont.shx
  0
ENDTAB
  0
TABLE
  2
VIEW
  5
6
330
0
100
AcDbSymbolTable
 70
     4
  0
VIEW
  5
24
330
6
100
AcDbSymbolTableRecord
100
AcDbViewTableRecord
  2
OLE1
 70
     0
 40
300.0
 10
232.1482602118003
 20
150.0
 41
464.2965204236006
 11
0.0
 21
0.0
 31
1.0
 12
0.0
 22
0.0
 32
0.0
 42
50.0
 43
0.0
 44
0.0
 50
0.0
 71
     0
281
     0
 72
     0
  0
VIEW
  5
E0E
330
6
100
AcDbSymbolTableRecord
100
AcDbViewTableRecord
  2
A1
 70
     1
 40
660.0
 10
511.7119266055046
 20
297.0
 41
1137.137614678898
 11
0.0
 21
0.0
 31
1.0
 12
0.0
 22
0.0
 32
0.0
 42
50.0
 43
0.0
 44
0.0
 50
0.0
 71
     0
281
     0
 72
     0
  0
VIEW
  5
E0F
330
6
100
AcDbSymbolTableRecord
100
AcDbViewTableRecord
  2
A2
 70
     1
 40
466.6666666666666
 10
361.8165137614679
 20
210.0
 41
804.0366972477063
 11
0.0
 21
0.0
 31
1.0
 12
0.0
 22
0.0
 32
0.0
 42
50.0
 43
0.0
 44
0.0
 50
0.0
 71
     0
281
     0
 72
     0
  0
VIEW
  5
E10
330
6
100
AcDbSymbolTableRecord
100
AcDbViewTableRecord
  2
A3
 70
     1
 40
330.0
 10
255.8559633027523
 20
148.5
 41
568.5688073394494
 11
0.0
 21
0.0
 31
1.0
 12
0.0
 22
0.0
 32
0.0
 42
50.0
 43
0.0
 44
0.0
 50
0.0
 71
     0
281
     0
 72
     0
  0
ENDTAB
  0
TABLE
  2
UCS
  5
7
330
0
100
AcDbSymbolTable
 70
     0
  0
ENDTAB
  0
TABLE
  2
APPID
  5
9
330
0
100
AcDbSymbolTable
 70
     1
  0
APPID
  5
11
330
9
100
AcDbSymbolTableRecord
100
AcDbRegAppTableRecord
  2
ACAD
 70
     0
  0
ENDTAB
  0
TABLE
  2
DIMSTYLE
  5
A
330
0
100
AcDbSymbolTable
 70
     2
100
AcDbDimStyleTable
 71
     1
340
BA5
  0
DIMSTYLE
105
BA5
330
A
100
AcDbSymbolTableRecord
100
AcDbDimStyleTableRecord
  2
1_RT2
 70
     0
 40
1.414
 41
3.0
 42
0.0
 43
10.0
 44
1.0
 47
0.5
 73
     0
 74
     0
 77
     3
 78
     8
140
3.2
141
0.0
146
0.75
147
1.0
172
     1
173
     1
271
     3
272
     3
284
     8
340
20
341
F97
343
F97
344
F97
  0
DIMSTYLE
105
62B7
330
A
100
AcDbSymbolTableRecord
100
AcDbDimStyleTableRecord
  2
STANDARD
 70
     0
340
10
  0
ENDTAB
  0
TABLE
  2
BLOCK_RECORD
  5
1
330
0
100
AcDbSymbolTable
 70
     1
  0
BLOCK_RECORD
  5
18
330
1
100
AcDbSymbolTableRecord
100
AcDbBlockTableRecord
  2
*MODEL_SPACE
340
62AA
  0
BLOCK_RECORD
  5
15
330
1
100
AcDbSymbolTableRecord
100
AcDbBlockTableRecord
  2
*PAPER_SPACE
340
62AB
  0
BLOCK_RECORD
  5
F97
330
1
100
AcDbSymbolTableRecord
100
AcDbBlockTableRecord
  2
_OPEN
340
0
102
{BLKREFS
331
777B
331
777C
331
778D
331
778E
331
7802
331
7803
331
7814
331
7815
331
781D
331
781E
331
789B
331
789C
331
78A4
331
78A5
331
78AD
331
78AE
331
78B6
331
78B7
331
78BF
331
78C0
331
78C8
331
78C9
331
78D1
331
78D2
331
78DA
331
78DB
331
78E3
331
78E4
331
78EC
331
78ED
331
78F5
331
78F6
102
}
  0
ENDTAB
  0
ENDSEC
  0
SECTION
  2
BLOCKS
  0
BLOCK
  5
36
330
18
100
AcDbEntity
  8
0
100
AcDbBlockBegin
  2
*MODEL_SPACE
 70
     0
 10
0.0
 20
0.0
 30
0.0
  3
*MODEL_SPACE
  1

  0
ENDBLK
  5
37
330
18
100
AcDbEntity
  8
0
100
AcDbBlockEnd
  0
BLOCK
  5
34
330
15
100
AcDbEntity
 67
     1
  8
0
100
AcDbBlockBegin
  2
*PAPER_SPACE
 70
     0
 10
0.0
 20
0.0
 30
0.0
  3
*PAPER_SPACE
  1

  0
ENDBLK
  5
35
330
15
100
AcDbEntity
 67
     1
  8
0
100
AcDbBlockEnd
  0
BLOCK
  5
F9B
330
F97
100
AcDbEntity
  8
0
100
AcDbBlockBegin
  2
_OPEN
 70
     0
 10
0.0
 20
0.0
 30
0.0
  3
_OPEN
  1

  0
LINE
  5
F98
330
F97
100
AcDbEntity
  8
0
  6
ByBlock
 62
     0
100
AcDbLine
 10
-1.0
 20
0.1666666666666666
 30
0.0
 11
0.0
 21
0.0
 31
0.0
  0
LINE
  5
F99
330
F97
100
AcDbEntity
  8
0
  6
ByBlock
 62
     0
100
AcDbLine
 10
0.0
 20
0.0
 30
0.0
 11
-1.0
 21
-0.1666666666666666
 31
0.0
  0
LINE
  5
F9A
330
F97
100
AcDbEntity
  8
0
  6
ByBlock
 62
     0
100
AcDbLine
 10
0.0
 20
0.0
 30
0.0
 11
-1.0
 21
0.0
 31
0.0
  0
ENDBLK
  5
F9C
330
F97
100
AcDbEntity
  8
0
100
AcDbBlockEnd
  0
ENDSEC
  0
SECTION
  2
ENTITIES
  0
TEXT
  5
1870
330
18
100
AcDbEntity
  8
0
100
AcDbText
 10
-1223.364018180525
 20
572.0074490458658
 30
0.0
 40
4.479999999999998
  1

 51
10.0
  7
DIMFONT
100
AcDbText
  0
TEXT
  5
1871
330
18
100
AcDbEntity
  8
0
100
AcDbText
 10
-1201.041391071743
 20
537.1239996782228
 30
0.0
 40
4.479999999999998
  1

 51
10.0
  7
DIMFONT
100
AcDbText
  0
TEXT
  5
1A4A
330
18
100
AcDbEntity
  8
0
100
AcDbText
 10
-1167.329334417902
 20
512.6338986489407
 30
0.0
 40
4.479999999999998
  1

 51
10.0
  7
DIMFONT
100
AcDbText
  0
TEXT
  5
1A4B
330
18
100
AcDbEntity
  8
0
100
AcDbText
 10
-1145.006707309119
 20
477.7504492812973
 30
0.0
 40
4.479999999999998
  1

 51
10.0
  7
DIMFONT
100
AcDbText
  0
TEXT
  5
1C1F
330
18
100
AcDbEntity
  8
0
100
AcDbText
 10
-1305.629912637455
 20
275.1396985818771
 30
0.0
 40
4.479999999999998
  1

 51
10.0
  7
DIMFONT
100
AcDbText
  0
TEXT
  5
1C20
330
18
100
AcDbEntity
  8
0
100
AcDbText
 10
-1283.307285528674
 20
240.2562492142338
 30
0.0
 40
4.479999999999998
  1

 51
10.0
  7
DIMFONT
100
AcDbText
  0
TEXT
  5
3EEA
330
18
100
AcDbEntity
  8
0
100
AcDbText
 10
235.954798102189
 20
87.64520189781077
 30
0.0
 40
4.524799999999999
  1

 51
10.0
  7
DIMFONT
100
AcDbText
  0
TEXT
  5
4C01
330
18
100
AcDbEntity
  8
0
100
AcDbText
 10
1395.296876896412
 20
91.92236867201618
 30
0.0
 40
3.2
  1

 51
10.0
  7
DIMFONT
100
AcDbText
  0
TEXT
  5
4C02
330
18
100
AcDbEntity
  8
0
100
AcDbText
 10
1611.739048143872
 20
91.92236867201618
 30
0.0
 40
3.2
  1

 51
10.0
  7
DIMFONT
100
AcDbText
  0
TEXT
  5
4C1E
330
18
100
AcDbEntity
  8
0
100
AcDbText
 10
-2118.010733268499
 20
356.6884089637612
 30
0.0
 40
4.479999999999998
  1

 51
10.0
  7
DIMFONT
100
AcDbText
  0
TEXT
  5
4C1F
330
18
100
AcDbEntity
  8
0
100
AcDbText
 10
-2095.688106159717
 20
321.804959596118
 30
0.0
 40
4.479999999999998
  1

 51
10.0
  7
DIMFONT
100
AcDbText
  0
TEXT
  5
4C20
330
18
100
AcDbEntity
  8
0
100
AcDbText
 10
-1656.354924878338
 20
570.3681571944339
 30
0.0
 40
4.479999999999998
  1

 51
10.0
  7
DIMFONT
100
AcDbText
  0
TEXT
  5
4C21
330
18
100
AcDbEntity
  8
0
100
AcDbText
 10
-1634.032297769556
 20
535.4847078267908
 30
0.0
 40
4.479999999999998
  1

 51
10.0
  7
DIMFONT
100
AcDbText
  0
TEXT
  5
4C2F
330
18
100
AcDbEntity
  8
0
100
AcDbText
 10
-2581.623079150864
 20
729.8206240173751
 30
0.0
 40
4.479999999999998
  1

 51
10.0
  7
DIMFONT
100
AcDbText
  0
TEXT
  5
4C30
330
18
100
AcDbEntity
  8
0
100
AcDbText
 10
-2559.300452042083
 20
694.937174649732
 30
0.0
 40
4.479999999999998
  1

 51
10.0
  7
DIMFONT
100
AcDbText
  0
TEXT
  5
4C31
330
18
100
AcDbEntity
  8
0
100
AcDbText
 10
-2525.588395388242
 20
670.4470736204497
 30
0.0
 40
4.479999999999998
  1

 51
10.0
  7
DIMFONT
100
AcDbText
  0
TEXT
  5
4C32
330
18
100
AcDbEntity
  8
0
100
AcDbText
 10
-2503.26576827946
 20
635.5636242528066
 30
0.0
 40
4.479999999999998
  1

 51
10.0
  7
DIMFONT
100
AcDbText
  0
TEXT
  5
4C33
330
18
100
AcDbEntity
  8
0
100
AcDbText
 10
-2663.888973607795
 20
432.9528735533862
 30
0.0
 40
4.479999999999998
  1

 51
10.0
  7
DIMFONT
100
AcDbText
  0
TEXT
  5
4C34
330
18
100
AcDbEntity
  8
0
100
AcDbText
 10
-2641.566346499013
 20
398.0694241857431
 30
0.0
 40
4.479999999999998
  1

 51
10.0
  7
DIMFONT
100
AcDbText
  0
TEXT
  5
4C35
330
18
100
AcDbEntity
  8
0
100
AcDbText
 10
-1222.336210605627
 20
505.6987108356103
 30
0.0
 40
3.2
  1

 51
10.0
  7
DIMFONT
100
AcDbText
  0
TEXT
  5
4C36
330
18
100
AcDbEntity
  8
0
100
AcDbText
 10
-1005.894039358165
 20
505.6987108356103
 30
0.0
 40
3.2
  1

 51
10.0
  7
DIMFONT
100
AcDbText
  0
TEXT
  5
4C37
330
18
100
AcDbEntity
  8
0
100
AcDbText
 10
-976.1430449312676
 20
-52.8627078586124
 30
0.0
 40
4.479999999999998
  1

 51
10.0
  7
DIMFONT
100
AcDbText
  0
TEXT
  5
4C38
330
18
100
AcDbEntity
  8
0
100
AcDbText
 10
-953.8204178224859
 20
-87.74615722625554
 30
0.0
 40
4.479999999999998
  1

 51
10.0
  7
DIMFONT
100
AcDbText
  0
TEXT
  5
4C3E
330
18
100
AcDbEntity
  8
0
100
AcDbText
 10
-1979.121855769536
 20
789.1110793367926
 30
0.0
 40
3.2
  1

 51
10.0
  7
DIMFONT
100
AcDbText
  0
TEXT
  5
4C3F
330
18
100
AcDbEntity
  8
0
100
AcDbText
 10
-1762.679684522074
 20
789.1110793367926
 30
0.0
 40
3.2
  1

 51
10.0
  7
DIMFONT
100
AcDbText
  0
TEXT
  5
4C40
330
18
100
AcDbEntity
  8
0
100
AcDbText
 10
-1235.527975970339
 20
255.1585170850426
 30
0.0
 40
3.2
  1

 51
10.0
  7
DIMFONT
100
AcDbText
  0
TEXT
  5
4C43
330
18
100
AcDbEntity
  8
0
100
AcDbText
 10
-1235.941975970338
 20
255.5725170850426
 30
0.0
 40
3.2
  1

 51
10.0
  7
DIMFONT
100
AcDbText
  0
TEXT
  5
4CAB
330
18
100
AcDbEntity
  8
0
100
AcDbText
 10
381.2349228527372
 20
594.6155401153647
 30
0.0
 40
3.2
  1

 51
10.0
  7
DIMFONT
100
AcDbText
  0
TEXT
  5
4CAC
330
18
100
AcDbEntity
  8
0
100
AcDbText
 10
597.6770941001989
 20
594.6155401153647
 30
0.0
 40
3.2
  1

 51
10.0
  7
DIMFONT
100
AcDbText
  0
TEXT
  5
4CBB
330
18
100
AcDbEntity
  8
0
100
AcDbText
 10
1025.308941982227
 20
757.5327884832733
 30
0.0
 40
3.2
  1

 51
10.0
  7
DIMFONT
100
AcDbText
  0
TEXT
  5
4CBC
330
18
100
AcDbEntity
  8
0
100
AcDbText
 10
1241.751113229691
 20
757.5327884832733
 30
0.0
 40
3.2
  1

 51
10.0
  7
DIMFONT
100
AcDbText
  0
TEXT
  5
5826
330
18
100
AcDbEntity
  8
0
100
AcDbText
 10
904.0938279181936
 20
765.674651244663
 30
0.0
 40
3.2
  1

 51
10.0
  7
DIMFONT
100
AcDbText
  0
TEXT
  5
5827
330
18
100
AcDbEntity
  8
0
100
AcDbText
 10
1120.535999165655
 20
765.674651244663
 30
0.0
 40
3.2
  1

 51
10.0
  7
DIMFONT
100
AcDbText
  0
LINE
  5
7903
330
18
100
AcDbEntity
  8
DRAW2
100
AcDbLine
 10
1142.584119774894
 20
-89.00000000000027
 30
0.0
 11
1142.584119774894
 21
88.99999999999973
 31
0.0
  0
LWPOLYLINE
  5
7904
330
18
100
AcDbEntity
  8
DRAW2
100
AcDbPolyline
 90
       17
 70
     1
 43
0.0
 10
1087.078260774894
 20
-69.29646300000029
 42
0.1441297
 10
1086.081698774895
 20
-65.99771300000025
 42
0.093479346
 10
1083.709332774895
 20
-63.46020500000023
 42
0.074892287
 10
1080.618189774894
 20
-61.86119600000028
 42
0.061762915
 10
1077.211418774895
 20
-61.12539900000029
 42
0.067117896
 10
1073.731621774895
 20
-61.28910800000028
 42
0.062797663
 10
1070.402260774895
 20
-62.32327300000024
 42
0.084705941
 10
1067.512010774895
 20
-64.25753300000024
 42
0.10446627
 10
1065.521903774895
 20
-67.09882100000026
 42
0.15690399
 10
1065.237038774894
 20
-70.5242590000003
 42
0.14388159
 10
1066.966027774895
 20
-73.50548800000026
 42
0.08665179
 10
1069.878314774894
 20
-75.40321500000024
 42
0.063751762
 10
1073.219535774895
 20
-76.39096500000026
 42
0.048923639
 10
1076.701288774895
 20
-76.60991600000027
 42
0.053363503
 10
1080.157274774895
 20
-76.1389470000003
 42
0.067552254
 10
1083.391850774894
 20
-74.84534400000028
 42
0.10899238
 10
1086.005749774895
 20
-72.56807400000029
 42
0.15291726
  0
LINE
  5
7905
330
18
100
AcDbEntity
  8
DRAW2
100
AcDbLine
 10
1059.584119774895
 20
-89.00000000000027
 30
0.0
 11
1059.584119774895
 21
88.99999999999973
 31
0.0
  0
LWPOLYLINE
  5
7906
330
18
100
AcDbEntity
  8
DRAW2
100
AcDbPolyline
 90
       17
 70
     1
 43
0.0
 10
1137.078260774895
 20
-69.29646300000029
 42
0.1441297
 10
1136.081698774895
 20
-65.99771300000025
 42
0.093479346
 10
1133.709332774895
 20
-63.46020500000023
 42
0.074892287
 10
1130.618189774895
 20
-61.86119600000028
 42
0.061762915
 10
1127.211418774895
 20
-61.12539900000029
 42
0.067117896
 10
1123.731621774895
 20
-61.28910800000028
 42
0.062797663
 10
1120.402260774895
 20
-62.32327300000024
 42
0.084705941
 10
1117.512010774895
 20
-64.25753300000024
 42
0.10446627
 10
1115.521903774894
 20
-67.09882100000026
 42
0.15690399
 10
1115.237038774894
 20
-70.5242590000003
 42
0.14388159
 10
1116.966027774895
 20
-73.50548800000026
 42
0.08665179
 10
1119.878314774894
 20
-75.40321500000024
 42
0.063751762
 10
1123.219535774895
 20
-76.39096500000026
 42
0.048923639
 10
1126.701288774895
 20
-76.60991600000027
 42
0.053363503
 10
1130.157274774895
 20
-76.1389470000003
 42
0.067552254
 10
1133.391850774895
 20
-74.84534400000028
 42
0.10899238
 10
1136.005749774895
 20
-72.56807400000029
 42
0.15291726
  0
LINE
  5
7907
330
18
100
AcDbEntity
  8
DRAW2
100
AcDbLine
 10
1259.084119774895
 20
-160.0000010000002
 30
0.0
 11
1259.084119774895
 21
-62.00000100000035
 31
0.0
  0
LINE
  5
7908
330
18
100
AcDbEntity
  8
DRAW2
100
AcDbLine
 10
1257.084119774895
 20
-160.0000010000002
 30
0.0
 11
1257.084119774895
 21
-62.00000100000035
 31
0.0
  0
LINE
  5
7909
330
18
100
AcDbEntity
  8
DRAW2
100
AcDbLine
 10
1276.084119774895
 20
-61.00000100000029
 30
0.0
 11
1276.084119774895
 21
-161.0000010000002
 31
0.0
  0
LINE
  5
790A
330
18
100
AcDbEntity
  8
DRAW2
100
AcDbLine
 10
1261.084119774895
 20
-61.00000100000029
 30
0.0
 11
1261.084119774895
 21
-161.0000010000002
 31
0.0
  0
LINE
  5
790B
330
18
100
AcDbEntity
  8
DRAW2
100
AcDbLine
 10
1207.084119774894
 20
-90.00000000000026
 30
0.0
 11
1207.084119774894
 21
90.0000009999997
 31
0.0
  0
LINE
  5
790C
330
18
100
AcDbEntity
  8
DRAW2
100
AcDbLine
 10
1144.084119774894
 20
90.0000009999997
 30
0.0
 11
1144.084119774894
 21
-90.00000000000026
 31
0.0
  0
LINE
  5
790D
330
18
100
AcDbEntity
  8
DRAW2
100
AcDbLine
 10
995.0841197748959
 20
-90.00000000000026
 30
0.0
 11
995.0841197748959
 21
90.0000009999997
 31
0.0
  0
LINE
  5
790E
330
18
100
AcDbEntity
  8
DRAW2
100
AcDbLine
 10
1058.084119774896
 20
90.0000009999997
 30
0.0
 11
1058.084119774896
 21
-90.00000000000026
 31
0.0
  0
LINE
  5
7912
330
18
100
AcDbEntity
  8
DRAW2
100
AcDbLine
 10
965.084119774896
 20
-58.78203347706651
 30
0.0
 11
965.084119774896
 21
-79.78203347706649
 31
0.0
  0
LINE
  5
7913
330
18
100
AcDbEntity
  8
DRAW2
100
AcDbLine
 10
963.084119774896
 20
-77.78203347706649
 30
0.0
 11
963.084119774896
 21
-60.78203347706651
 31
0.0
  0
LINE
  5
7914
330
18
100
AcDbEntity
  8
DRAW2
100
AcDbLine
 10
1239.084119774894
 20
-77.78203347706649
 30
0.0
 11
1239.084119774894
 21
-60.78203347706651
 31
0.0
  0
LINE
  5
7915
330
18
100
AcDbEntity
  8
DRAW2
100
AcDbLine
 10
1237.084119774894
 20
-58.78203347706651
 30
0.0
 11
1237.084119774894
 21
-79.78203347706649
 31
0.0
  0
LINE
  5
7916
330
18
100
AcDbEntity
  8
DRAW2
100
AcDbLine
 10
985.0841197748959
 20
-89.00000000000027
 30
0.0
 11
985.0841197748959
 21
88.9999999999997
 31
0.0
  0
LINE
  5
7917
330
18
100
AcDbEntity
  8
DRAW2
100
AcDbLine
 10
1207.084119774894
 20
-89.00000000000027
 30
0.0
 11
1207.084119774894
 21
88.9999999999997
 31
0.0
  0
LINE
  5
7918
330
18
100
AcDbEntity
  8
DRAW2
100
AcDbLine
 10
1217.084119774894
 20
88.9999999999997
 30
0.0
 11
1217.084119774894
 21
-89.00000000000027
 31
0.0
  0
LINE
  5
7919
330
18
100
AcDbEntity
  8
DRAW2
100
AcDbLine
 10
1030.584119774895
 20
-112.0000000000002
 30
0.0
 11
1009.584119774895
 21
-112.0000000000002
 31
0.0
  0
LINE
  5
791A
330
18
100
AcDbEntity
  8
DRAW2
100
AcDbLine
 10
1011.584119774895
 20
-110.0000000000002
 30
0.0
 11
1028.584119774895
 21
-110.0000000000002
 31
0.0
  0
LINE
  5
791B
330
18
100
AcDbEntity
  8
DRAW2
100
AcDbLine
 10
995.0841197748953
 20
-132.0000010000001
 30
0.0
 11
1058.084119774895
 21
-132.0000010000001
 31
0.0
  0
LINE
  5
791C
330
18
100
AcDbEntity
  8
DRAW2
100
AcDbLine
 10
995.0841197748953
 20
-90.00000100000027
 30
0.0
 11
1058.084119774895
 21
-90.00000100000027
 31
0.0
  0
LINE
  5
791D
330
18
100
AcDbEntity
  8
DRAW2
100
AcDbLine
 10
1058.084119774896
 20
-90.00000000000026
 30
0.0
 11
995.0841197748959
 21
-90.00000000000026
 31
0.0
  0
LINE
  5
791F
330
18
100
AcDbEntity
  8
DRAW2
100
AcDbLine
 10
1033.361745812493
 20
-168.0
 30
0.0
 11
1006.806508996086
 21
-168.0
 31
0.0
  0
LINE
  5
7920
330
18
100
AcDbEntity
  8
DRAW2
100
AcDbLine
 10
995.0841197748953
 20
-148.0000000000002
 30
0.0
 11
1207.084119774895
 21
-148.0000000000002
 31
0.0
  0
LINE
  5
7921
330
18
100
AcDbEntity
  8
DRAW2
100
AcDbLine
 10
995.0841197748953
 20
-132.0000000000002
 30
0.0
 11
1207.084119774895
 21
-132.0000000000002
 31
0.0
  0
LINE
  5
7922
330
18
100
AcDbEntity
  8
DRAW2
100
AcDbLine
 10
995.0841197748953
 20
-132.0000000000002
 30
0.0
 11
995.0841197748953
 21
-148.0000000000002
 31
0.0
  0
LINE
  5
7923
330
18
100
AcDbEntity
  8
DRAW2
100
AcDbLine
 10
1002.0841121455
 20
-148.0
 30
0.0
 11
1004.828618981438
 21
-166.2966842651368
 31
0.0
  0
ARC
  5
7924
330
18
100
AcDbEntity
  8
DRAW2
100
AcDbCircle
 10
1006.806508996086
 20
-166.0
 30
0.0
 40
1.999999999999999
100
AcDbArc
 50
188.5307671650844
 51
269.9999974955223
  0
LINE
  5
7925
330
18
100
AcDbEntity
  8
DRAW2
100
AcDbLine
 10
995.0841197748953
 20
-90.00000100000027
 30
0.0
 11
995.0841197748953
 21
-132.0000010000001
 31
0.0
  0
LINE
  5
7926
330
18
100
AcDbEntity
  8
DRAW2
100
AcDbLine
 10
1009.584119774895
 20
-112.0000000000002
 30
0.0
 11
1009.584119774895
 21
-132.0000000000002
 31
0.0
  0
LINE
  5
7927
330
18
100
AcDbEntity
  8
DRAW2
100
AcDbLine
 10
1009.584119774895
 20
-112.0000000000002
 30
0.0
 11
1011.584119774895
 21
-110.0000000000002
 31
0.0
  0
LINE
  5
7928
330
18
100
AcDbEntity
  8
DRAW2
100
AcDbLine
 10
965.084119774896
 20
-79.78203347706649
 30
0.0
 11
985.0841197748959
 21
-79.78203347706649
 31
0.0
  0
LINE
  5
7929
330
18
100
AcDbEntity
  8
DRAW2
100
AcDbLine
 10
965.084119774896
 20
-79.78203347706649
 30
0.0
 11
963.084119774896
 21
-77.78203347706649
 31
0.0
  0
LINE
  5
792B
330
18
100
AcDbEntity
  8
DRAW2
100
AcDbLine
 10
995.0841197748959
 20
-89.00000000000027
 30
0.0
 11
985.0841197748959
 21
-89.00000000000027
 31
0.0
  0
LINE
  5
792C
330
18
100
AcDbEntity
  8
DRAW2
100
AcDbLine
 10
1173.584119774893
 20
-110.0000000000002
 30
0.0
 11
1190.584119774894
 21
-110.0000000000002
 31
0.0
  0
LINE
  5
792D
330
18
100
AcDbEntity
  8
DRAW2
100
AcDbLine
 10
1192.584119774893
 20
-112.0000000000002
 30
0.0
 11
1171.584119774893
 21
-112.0000000000002
 31
0.0
  0
LINE
  5
792E
330
18
100
AcDbEntity
  8
DRAW2
100
AcDbLine
 10
1144.084119774894
 20
-132.0000010000001
 30
0.0
 11
1207.084119774895
 21
-132.0000010000001
 31
0.0
  0
LINE
  5
792F
330
18
100
AcDbEntity
  8
DRAW2
100
AcDbLine
 10
1144.084119774894
 20
-90.00000100000027
 30
0.0
 11
1207.084119774895
 21
-90.00000100000027
 31
0.0
  0
LINE
  5
7930
330
18
100
AcDbEntity
  8
DRAW2
100
AcDbLine
 10
1144.084119774894
 20
-90.00000000000026
 30
0.0
 11
1207.084119774894
 21
-90.00000000000026
 31
0.0
  0
LINE
  5
7931
330
18
100
AcDbEntity
  8
DRAW2
100
AcDbLine
 10
1195.361745812492
 20
-168.0
 30
0.0
 11
1168.806508996085
 21
-168.0
 31
0.0
  0
LINE
  5
7932
330
18
100
AcDbEntity
  8
DRAW2
100
AcDbLine
 10
1038.08412740429
 20
-147.9999923706055
 30
0.0
 11
1035.339620568352
 21
-166.2966842651368
 31
0.0
  0
ARC
  5
7933
330
18
100
AcDbEntity
  8
DRAW2
100
AcDbCircle
 10
1033.361745812493
 20
-166.0
 30
0.0
 40
2.000000000000002
100
AcDbArc
 50
269.9999974955223
 51
351.4692328349155
  0
LINE
  5
7934
330
18
100
AcDbEntity
  8
DRAW2
100
AcDbLine
 10
1164.0841121455
 20
-148.0
 30
0.0
 11
1166.828618981437
 21
-166.2966842651368
 31
0.0
  0
ARC
  5
7935
330
18
100
AcDbEntity
  8
DRAW2
100
AcDbCircle
 10
1168.806508996085
 20
-166.0
 30
0.0
 40
1.999999999999999
100
AcDbArc
 50
188.5307671650844
 51
269.9999974955223
  0
LINE
  5
7936
330
18
100
AcDbEntity
  8
DRAW2
100
AcDbLine
 10
1059.584119774895
 20
-89.00000000000027
 30
0.0
 11
1142.584119774894
 21
-89.00000000000027
 31
0.0
  0
LINE
  5
7937
330
18
100
AcDbEntity
  8
DRAW2
100
AcDbLine
 10
1058.084119774895
 20
-95.00000100000027
 30
0.0
 11
1144.084119774894
 21
-95.00000100000027
 31
0.0
  0
LINE
  5
7938
330
18
100
AcDbEntity
  8
DRAW2
100
AcDbLine
 10
1058.084119774895
 20
-127.0000010000002
 30
0.0
 11
1144.084119774894
 21
-127.0000010000002
 31
0.0
  0
LINE
  5
7939
330
18
100
AcDbEntity
  8
DRAW2
100
AcDbLine
 10
1058.084119774895
 20
-90.00000100000027
 30
0.0
 11
1058.084119774895
 21
-132.0000010000001
 31
0.0
  0
LINE
  5
793A
330
18
100
AcDbEntity
  8
DRAW2
100
AcDbLine
 10
1030.584119774895
 20
-112.0000000000002
 30
0.0
 11
1030.584119774895
 21
-132.0000000000002
 31
0.0
  0
LINE
  5
793B
330
18
100
AcDbEntity
  8
DRAW2
100
AcDbLine
 10
1028.584119774895
 20
-110.0000000000002
 30
0.0
 11
1030.584119774895
 21
-112.0000000000002
 31
0.0
  0
LINE
  5
793D
330
18
100
AcDbEntity
  8
DRAW2
100
AcDbLine
 10
1144.084119774894
 20
-90.00000100000027
 30
0.0
 11
1144.084119774894
 21
-132.0000010000001
 31
0.0
  0
LINE
  5
793E
330
18
100
AcDbEntity
  8
DRAW2
100
AcDbLine
 10
1171.584119774893
 20
-112.0000000000002
 30
0.0
 11
1171.584119774893
 21
-132.0000000000002
 31
0.0
  0
LINE
  5
793F
330
18
100
AcDbEntity
  8
DRAW2
100
AcDbLine
 10
1171.584119774893
 20
-112.0000000000002
 30
0.0
 11
1173.584119774893
 21
-110.0000000000002
 31
0.0
  0
LINE
  5
7941
330
18
100
AcDbEntity
  8
DRAW2
100
AcDbLine
 10
1207.084119774895
 20
-148.0000000000002
 30
0.0
 11
1207.084119774895
 21
-132.0000000000002
 31
0.0
  0
LINE
  5
7942
330
18
100
AcDbEntity
  8
DRAW2
100
AcDbLine
 10
1261.084119774895
 20
-161.0000010000002
 30
0.0
 11
1276.084119774895
 21
-161.0000010000002
 31
0.0
  0
LINE
  5
7943
330
18
100
AcDbEntity
  8
DRAW2
100
AcDbLine
 10
1200.084127404289
 20
-147.9999923706055
 30
0.0
 11
1197.339620568351
 21
-166.2966842651368
 31
0.0
  0
ARC
  5
7944
330
18
100
AcDbEntity
  8
DRAW2
100
AcDbCircle
 10
1195.361745812492
 20
-166.0
 30
0.0
 40
2.000000000000002
100
AcDbArc
 50
269.9999974955223
 51
351.4692328349155
  0
LINE
  5
7945
330
18
100
AcDbEntity
  8
DRAW2
100
AcDbLine
 10
1257.084119774895
 20
-160.0000010000002
 30
0.0
 11
1261.084119774895
 21
-160.0000010000002
 31
0.0
  0
LINE
  5
7946
330
18
100
AcDbEntity
  8
DRAW2
100
AcDbLine
 10
1207.084119774895
 20
-90.00000100000027
 30
0.0
 11
1207.084119774895
 21
-132.0000010000001
 31
0.0
  0
LINE
  5
7947
330
18
100
AcDbEntity
  8
DRAW2
100
AcDbLine
 10
1207.084119774895
 20
-131.5000010000001
 30
0.0
 11
1257.084119774895
 21
-131.5000010000001
 31
0.0
  0
LINE
  5
7948
330
18
100
AcDbEntity
  8
DRAW2
100
AcDbLine
 10
1192.584119774893
 20
-112.0000000000002
 30
0.0
 11
1192.584119774893
 21
-132.0000000000002
 31
0.0
  0
LINE
  5
7949
330
18
100
AcDbEntity
  8
DRAW2
100
AcDbLine
 10
1190.584119774894
 20
-110.0000000000002
 30
0.0
 11
1192.584119774893
 21
-112.0000000000002
 31
0.0
  0
LINE
  5
794A
330
18
100
AcDbEntity
  8
DRAW2
100
AcDbLine
 10
1207.084119774895
 20
-90.50000100000028
 30
0.0
 11
1257.084119774895
 21
-90.50000100000023
 31
0.0
  0
LINE
  5
794B
330
18
100
AcDbEntity
  8
DRAW2
100
AcDbLine
 10
1237.084119774894
 20
-79.78203347706649
 30
0.0
 11
1217.084119774894
 21
-79.78203347706649
 31
0.0
  0
LINE
  5
794C
330
18
100
AcDbEntity
  8
DRAW2
100
AcDbLine
 10
1217.084119774894
 20
-89.00000000000027
 30
0.0
 11
1207.084119774894
 21
-89.00000000000027
 31
0.0
  0
LINE
  5
794D
330
18
100
AcDbEntity
  8
DRAW2
100
AcDbLine
 10
1237.084119774894
 20
-79.78203347706649
 30
0.0
 11
1239.084119774894
 21
-77.78203347706649
 31
0.0
  0
LINE
  5
794E
330
18
100
AcDbEntity
  8
DRAW2
100
AcDbLine
 10
995.0841197748953
 20
132.0000009999996
 30
0.0
 11
1058.084119774895
 21
132.0000009999996
 31
0.0
  0
LINE
  5
794F
330
18
100
AcDbEntity
  8
DRAW2
100
AcDbLine
 10
995.0841197748953
 20
90.0000009999997
 30
0.0
 11
1058.084119774895
 21
90.0000009999997
 31
0.0
  0
LINE
  5
7950
330
18
100
AcDbEntity
  8
DRAW2
100
AcDbLine
 10
995.0841197748959
 20
90.0000009999997
 30
0.0
 11
1058.084119774896
 21
90.0000009999997
 31
0.0
  0
LINE
  5
7952
330
18
100
AcDbEntity
  8
DRAW2
100
AcDbLine
 10
1012.084119774895
 20
158.9999989999997
 30
0.0
 11
1028.084119774895
 21
158.9999989999997
 31
0.0
  0
LINE
  5
7953
330
18
100
AcDbEntity
  8
DRAW2
100
AcDbLine
 10
1026.084119774895
 20
160.9999989999996
 30
0.0
 11
1014.084119774895
 21
160.9999989999996
 31
0.0
  0
LINE
  5
7954
330
18
100
AcDbEntity
  8
DRAW2
100
AcDbLine
 10
995.0841197748953
 20
141.9999999999996
 30
0.0
 11
1058.084119774895
 21
141.9999999999996
 31
0.0
  0
LINE
  5
7956
330
18
100
AcDbEntity
  8
DRAW2
100
AcDbLine
 10
965.084119774896
 20
-10.50000000000027
 30
0.0
 11
963.084119774896
 21
-8.50000000000027
 31
0.0
  0
LINE
  5
7957
330
18
100
AcDbEntity
  8
DRAW2
100
AcDbLine
 10
965.084119774896
 20
10.49999999999972
 30
0.0
 11
965.084119774896
 21
-10.50000000000027
 31
0.0
  0
LINE
  5
7959
330
18
100
AcDbEntity
  8
DRAW2
100
AcDbLine
 10
965.084119774896
 20
-58.78203347706651
 30
0.0
 11
985.0841197748959
 21
-58.78203347706651
 31
0.0
  0
LINE
  5
795A
330
18
100
AcDbEntity
  8
DRAW2
100
AcDbLine
 10
963.084119774896
 20
-60.78203347706651
 30
0.0
 11
965.084119774896
 21
-58.78203347706651
 31
0.0
  0
LINE
  5
795B
330
18
100
AcDbEntity
  8
DRAW2
100
AcDbLine
 10
965.084119774896
 20
-10.50000000000027
 30
0.0
 11
985.0841197748959
 21
-10.50000000000027
 31
0.0
  0
LINE
  5
795C
330
18
100
AcDbEntity
  8
DRAW2
100
AcDbLine
 10
965.084119774896
 20
10.49999999999972
 30
0.0
 11
985.0841197748959
 21
10.49999999999972
 31
0.0
  0
LINE
  5
795D
330
18
100
AcDbEntity
  8
DRAW2
100
AcDbLine
 10
963.084119774896
 20
-8.50000000000027
 30
0.0
 11
963.084119774896
 21
8.499999999999728
 31
0.0
  0
LINE
  5
795E
330
18
100
AcDbEntity
  8
DRAW2
100
AcDbLine
 10
963.084119774896
 20
8.499999999999728
 30
0.0
 11
965.084119774896
 21
10.49999999999972
 31
0.0
  0
LINE
  5
795F
330
18
100
AcDbEntity
  8
DRAW2
100
AcDbLine
 10
995.0841197748953
 20
90.0000009999997
 30
0.0
 11
995.0841197748953
 21
132.0000009999996
 31
0.0
  0
LINE
  5
7961
330
18
100
AcDbEntity
  8
DRAW2
100
AcDbLine
 10
965.084119774896
 20
79.78203347706595
 30
0.0
 11
985.0841197748959
 21
79.78203347706595
 31
0.0
  0
LINE
  5
7962
330
18
100
AcDbEntity
  8
DRAW2
100
AcDbLine
 10
965.084119774896
 20
58.78203347706596
 30
0.0
 11
985.0841197748959
 21
58.78203347706596
 31
0.0
  0
LINE
  5
7963
330
18
100
AcDbEntity
  8
DRAW2
100
AcDbLine
 10
963.084119774896
 20
77.78203347706598
 30
0.0
 11
963.084119774896
 21
60.78203347706597
 31
0.0
  0
LINE
  5
7964
330
18
100
AcDbEntity
  8
DRAW2
100
AcDbLine
 10
965.084119774896
 20
58.78203347706596
 30
0.0
 11
965.084119774896
 21
79.78203347706595
 31
0.0
  0
LINE
  5
7965
330
18
100
AcDbEntity
  8
DRAW2
100
AcDbLine
 10
963.084119774896
 20
60.78203347706597
 30
0.0
 11
965.084119774896
 21
58.78203347706596
 31
0.0
  0
LINE
  5
7966
330
18
100
AcDbEntity
  8
DRAW2
100
AcDbLine
 10
965.084119774896
 20
79.78203347706595
 30
0.0
 11
963.084119774896
 21
77.78203347706598
 31
0.0
  0
LINE
  5
7967
330
18
100
AcDbEntity
  8
DRAW2
100
AcDbLine
 10
985.0841197748959
 20
88.9999999999997
 30
0.0
 11
995.0841197748959
 21
88.9999999999997
 31
0.0
  0
LINE
  5
7969
330
18
100
AcDbEntity
  8
DRAW2
100
AcDbLine
 10
1012.084119774895
 20
158.9999989999997
 30
0.0
 11
1012.084119774895
 21
141.9999999999996
 31
0.0
  0
LINE
  5
796A
330
18
100
AcDbEntity
  8
DRAW2
100
AcDbLine
 10
995.0841197748953
 20
131.9999999999996
 30
0.0
 11
995.0841197748953
 21
141.9999999999996
 31
0.0
  0
LINE
  5
796B
330
18
100
AcDbEntity
  8
DRAW2
100
AcDbLine
 10
1014.084119774895
 20
160.9999989999996
 30
0.0
 11
1012.084119774895
 21
158.9999989999997
 31
0.0
  0
CIRCLE
  5
796C
330
18
100
AcDbEntity
  8
DRAW2
100
AcDbCircle
 10
1076.084119774895
 20
-20.00000000000027
 30
0.0
 40
11.0
  0
CIRCLE
  5
796D
330
18
100
AcDbEntity
  8
DRAW2
100
AcDbCircle
 10
1076.084119774895
 20
-20.00000000000027
 30
0.0
 40
10.5
  0
CIRCLE
  5
796E
330
18
100
AcDbEntity
  8
DRAW2
100
AcDbCircle
 10
1126.084119774895
 20
-20.00000000000027
 30
0.0
 40
11.0
  0
CIRCLE
  5
796F
330
18
100
AcDbEntity
  8
DRAW2
100
AcDbCircle
 10
1126.084119774895
 20
-20.00000000000027
 30
0.0
 40
10.5
  0
LINE
  5
7973
330
18
100
AcDbEntity
  8
DRAW2
100
AcDbLine
 10
1059.584119774895
 20
-73.28220941904493
 30
0.0
 11
1058.084119774896
 21
-73.28220941904493
 31
0.0
  0
LWPOLYLINE
  5
7974
330
18
100
AcDbEntity
  8
DRAW2
100
AcDbPolyline
 90
        7
 70
     0
 43
0.0
 10
1066.263364775333
 20
-65.7280028054593
 42
0.1029892916802199
 10
1068.976004774895
 20
-68.16150100000026
 42
0.073140364
 10
1072.404900774895
 20
-69.55558500000027
 42
0.061315596
 10
1076.084119774895
 20
-70.00357100000023
 42
0.061290711
 10
1079.761954774894
 20
-69.55593200000025
 42
0.073126891
 10
1083.190775774894
 20
-68.16237400000026
 42
0.1030010788368079
 10
1085.904423169241
 20
-65.72863341630697
 42
0.15584046
  0
LWPOLYLINE
  5
7975
330
18
100
AcDbEntity
  8
DRAW2
100
AcDbPolyline
 90
        9
 70
     0
 43
0.0
 10
1070.475195054608
 20
-62.29037567171882
 42
0.0988728266790478
 10
1070.986254774895
 20
-63.39554400000023
 42
0.10417678
 10
1072.402990774895
 20
-64.67315300000028
 42
0.073152481
 10
1074.178005774894
 20
-65.39524200000028
 42
0.061361847
 10
1076.084119774895
 20
-65.62750200000026
 42
0.061290779
 10
1077.988201774895
 20
-65.39575200000029
 42
0.073168429
 10
1079.764150774894
 20
-64.67381100000027
 42
0.10426978
 10
1081.182297774895
 20
-63.39509900000027
 42
0.0990731076800199
 10
1081.693730220186
 20
-62.2875575598366
 42
0.15581115
  0
LWPOLYLINE
  5
7976
330
18
100
AcDbEntity
  8
DRAW3
100
AcDbPolyline
 90
        9
 70
     0
 43
0.0
 10
1069.550889704335
 20
-62.75242548154549
 42
0.118257230954469
 10
1070.195288774895
 20
-64.29883900000024
 42
0.10417681
 10
1071.831839774895
 20
-65.77467600000026
 42
0.07315245
 10
1073.882259774894
 20
-66.60880100000024
 42
0.06130704
 10
1076.082097774895
 20
-66.87709800000026
 42
0.061285872
 10
1078.281670774895
 20
-66.60988200000024
 42
0.073109043
 10
1080.332487774895
 20
-65.77701700000027
 42
0.10420815
 10
1081.971538774894
 20
-64.30084300000024
 42
0.1180246542087425
 10
1082.616470851562
 20
-62.757775046761
 42
0.1558112
  0
CIRCLE
  5
7977
330
18
100
AcDbEntity
  8
DRAW2
100
AcDbCircle
 10
1076.084119774895
 20
-20.00000000000033
 30
0.0
 40
6.578500006250047
  0
CIRCLE
  5
7978
330
18
100
AcDbEntity
  8
DRAW2
100
AcDbCircle
 10
1076.084119774895
 20
-20.00000000000027
 30
0.0
 40
7.0
  0
LINE
  5
7979
330
18
100
AcDbEntity
  8
DRAW2
100
AcDbLine
 10
1082.792323707393
 20
-22.00000000000027
 30
0.0
 11
1086.584119774895
 21
-22.00000000000027
 31
0.0
  0
LINE
  5
797A
330
18
100
AcDbEntity
  8
DRAW2
100
AcDbLine
 10
1082.792323707393
 20
-18.00000000000027
 30
0.0
 11
1086.584119774895
 21
-18.00000000000027
 31
0.0
  0
LINE
  5
797B
330
18
100
AcDbEntity
  8
DRAW2
100
AcDbLine
 10
1065.584119774894
 20
-22.00000000000027
 30
0.0
 11
1069.375915842394
 21
-22.00000000000027
 31
0.0
  0
LINE
  5
797C
330
18
100
AcDbEntity
  8
DRAW2
100
AcDbLine
 10
1065.584119774894
 20
-18.00000000000027
 30
0.0
 11
1069.375915842394
 21
-18.00000000000027
 31
0.0
  0
CIRCLE
  5
797D
330
18
100
AcDbEntity
  8
DRAW2
100
AcDbCircle
 10
1076.084119774895
 20
-20.00000000000027
 30
0.0
 40
5.694887103024259
  0
CIRCLE
  5
797E
330
18
100
AcDbEntity
  8
DRAW2
100
AcDbCircle
 10
1076.084119774895
 20
-20.00000000000027
 30
0.0
 40
2.5
  0
LWPOLYLINE
  5
797F
330
18
100
AcDbEntity
  8
DRAW2
100
AcDbPolyline
 90
        9
 70
     0
 43
0.0
 10
1120.475195054608
 20
-62.29037567171888
 42
0.0988728266790455
 10
1120.986254774895
 20
-63.39554400000023
 42
0.10417678
 10
1122.402990774894
 20
-64.67315300000028
 42
0.073152481
 10
1124.178005774894
 20
-65.39524200000028
 42
0.061361847
 10
1126.084119774895
 20
-65.62750200000026
 42
0.061290779
 10
1127.988201774895
 20
-65.39575200000029
 42
0.073168429
 10
1129.764150774895
 20
-64.67381100000027
 42
0.10426978
 10
1131.182297774895
 20
-63.39509900000027
 42
0.0990731076800199
 10
1131.693730220187
 20
-62.2875575598366
 42
0.15581115
  0
LWPOLYLINE
  5
7980
330
18
100
AcDbEntity
  8
DRAW3
100
AcDbPolyline
 90
        9
 70
     0
 43
0.0
 10
1119.550889704335
 20
-62.75242548154549
 42
0.1182572309544668
 10
1120.195288774895
 20
-64.29883900000024
 42
0.10417681
 10
1121.831839774895
 20
-65.77467600000026
 42
0.07315245
 10
1123.882259774894
 20
-66.60880100000024
 42
0.06130704
 10
1126.082097774894
 20
-66.87709800000026
 42
0.061285872
 10
1128.281670774895
 20
-66.60988200000024
 42
0.073109043
 10
1130.332487774895
 20
-65.77701700000027
 42
0.10420815
 10
1131.971538774894
 20
-64.30084300000024
 42
0.1180246542087433
 10
1132.616470851562
 20
-62.757775046761
 42
0.1558112
  0
LWPOLYLINE
  5
7981
330
18
100
AcDbEntity
  8
DRAW2
100
AcDbPolyline
 90
        7
 70
     0
 43
0.0
 10
1116.263364775333
 20
-65.7280028054593
 42
0.1029892916802202
 10
1118.976004774895
 20
-68.16150100000026
 42
0.073140364
 10
1122.404900774894
 20
-69.55558500000027
 42
0.061315596
 10
1126.084119774895
 20
-70.00357100000023
 42
0.061290711
 10
1129.761954774894
 20
-69.55593200000025
 42
0.073126891
 10
1133.190775774894
 20
-68.16237400000026
 42
0.1030010788368072
 10
1135.904423169241
 20
-65.72863341630697
 42
0.15584046
  0
LINE
  5
7982
330
18
100
AcDbEntity
  8
DRAW2
100
AcDbLine
 10
1142.584119774894
 20
-73.28220941904493
 30
0.0
 11
1144.084119774894
 21
-73.28220941904493
 31
0.0
  0
CIRCLE
  5
7983
330
18
100
AcDbEntity
  8
DRAW2
100
AcDbCircle
 10
1126.084119774895
 20
-20.00000000000033
 30
0.0
 40
6.578500006250047
  0
CIRCLE
  5
7984
330
18
100
AcDbEntity
  8
DRAW2
100
AcDbCircle
 10
1126.084119774895
 20
-20.00000000000027
 30
0.0
 40
7.0
  0
CIRCLE
  5
7985
330
18
100
AcDbEntity
  8
DRAW2
100
AcDbCircle
 10
1126.084119774895
 20
-20.00000000000027
 30
0.0
 40
2.5
  0
CIRCLE
  5
7986
330
18
100
AcDbEntity
  8
DRAW2
100
AcDbCircle
 10
1126.084119774895
 20
-20.00000000000027
 30
0.0
 40
5.694887103024259
  0
LINE
  5
7987
330
18
100
AcDbEntity
  8
DRAW2
100
AcDbLine
 10
1115.584119774895
 20
-22.00000000000027
 30
0.0
 11
1119.375915842395
 21
-22.00000000000027
 31
0.0
  0
LINE
  5
7988
330
18
100
AcDbEntity
  8
DRAW2
100
AcDbLine
 10
1115.584119774895
 20
-18.00000000000027
 30
0.0
 11
1119.375915842395
 21
-18.00000000000027
 31
0.0
  0
LINE
  5
7989
330
18
100
AcDbEntity
  8
DRAW2
100
AcDbLine
 10
1132.792323707394
 20
-22.00000000000027
 30
0.0
 11
1136.584119774895
 21
-22.00000000000027
 31
0.0
  0
LINE
  5
798A
330
18
100
AcDbEntity
  8
DRAW2
100
AcDbLine
 10
1132.792323707394
 20
-18.00000000000027
 30
0.0
 11
1136.584119774895
 21
-18.00000000000027
 31
0.0
  0
LINE
  5
7990
330
18
100
AcDbEntity
  8
DRAW2
100
AcDbLine
 10
1237.084119774894
 20
10.49999999999972
 30
0.0
 11
1237.084119774894
 21
-10.50000000000027
 31
0.0
  0
LINE
  5
7991
330
18
100
AcDbEntity
  8
DRAW2
100
AcDbLine
 10
1237.084119774894
 20
-10.50000000000027
 30
0.0
 11
1239.084119774894
 21
-8.50000000000027
 31
0.0
  0
LINE
  5
7992
330
18
100
AcDbEntity
  8
DRAW2
100
AcDbLine
 10
1261.084119774895
 20
-61.00000100000029
 30
0.0
 11
1276.084119774895
 21
-61.00000100000029
 31
0.0
  0
LINE
  5
7994
330
18
100
AcDbEntity
  8
DRAW2
100
AcDbLine
 10
1237.084119774894
 20
-58.78203347706651
 30
0.0
 11
1217.084119774894
 21
-58.78203347706651
 31
0.0
  0
LINE
  5
7995
330
18
100
AcDbEntity
  8
DRAW2
100
AcDbLine
 10
1239.084119774894
 20
-60.78203347706651
 30
0.0
 11
1237.084119774894
 21
-58.78203347706651
 31
0.0
  0
LINE
  5
7996
330
18
100
AcDbEntity
  8
DRAW2
100
AcDbLine
 10
1257.084119774895
 20
-62.00000100000035
 30
0.0
 11
1261.084119774895
 21
-62.00000100000035
 31
0.0
  0
LINE
  5
7997
330
18
100
AcDbEntity
  8
DRAW2
100
AcDbLine
 10
1237.084119774894
 20
-10.50000000000027
 30
0.0
 11
1217.084119774894
 21
-10.50000000000027
 31
0.0
  0
LINE
  5
7998
330
18
100
AcDbEntity
  8
DRAW2
100
AcDbLine
 10
1237.084119774894
 20
10.49999999999972
 30
0.0
 11
1217.084119774894
 21
10.49999999999972
 31
0.0
  0
LINE
  5
7999
330
18
100
AcDbEntity
  8
DRAW2
100
AcDbLine
 10
1239.084119774894
 20
-8.50000000000027
 30
0.0
 11
1239.084119774894
 21
8.499999999999728
 31
0.0
  0
LINE
  5
799A
330
18
100
AcDbEntity
  8
DRAW2
100
AcDbLine
 10
1239.084119774894
 20
8.499999999999728
 30
0.0
 11
1237.084119774894
 21
10.49999999999972
 31
0.0
  0
LINE
  5
799B
330
18
100
AcDbEntity
  8
DRAW2
100
AcDbLine
 10
1144.084119774894
 20
132.0000009999996
 30
0.0
 11
1207.084119774895
 21
132.0000009999996
 31
0.0
  0
LINE
  5
799C
330
18
100
AcDbEntity
  8
DRAW2
100
AcDbLine
 10
1144.084119774894
 20
90.0000009999997
 30
0.0
 11
1207.084119774895
 21
90.0000009999997
 31
0.0
  0
LINE
  5
799D
330
18
100
AcDbEntity
  8
DRAW2
100
AcDbLine
 10
1207.084119774894
 20
90.0000009999997
 30
0.0
 11
1144.084119774894
 21
90.0000009999997
 31
0.0
  0
LINE
  5
799E
330
18
100
AcDbEntity
  8
DRAW2
100
AcDbLine
 10
1174.084119774895
 20
158.9999989999997
 30
0.0
 11
1190.084119774895
 21
158.9999989999997
 31
0.0
  0
LINE
  5
799F
330
18
100
AcDbEntity
  8
DRAW2
100
AcDbLine
 10
1188.084119774895
 20
160.9999989999996
 30
0.0
 11
1176.084119774895
 21
160.9999989999996
 31
0.0
  0
LINE
  5
79A0
330
18
100
AcDbEntity
  8
DRAW2
100
AcDbLine
 10
1144.084119774894
 20
141.9999999999996
 30
0.0
 11
1207.084119774895
 21
141.9999999999996
 31
0.0
  0
LINE
  5
79A1
330
18
100
AcDbEntity
  8
DRAW2
100
AcDbLine
 10
1144.084119774894
 20
90.0000009999997
 30
0.0
 11
1144.084119774894
 21
132.0000009999996
 31
0.0
  0
LINE
  5
79A2
330
18
100
AcDbEntity
  8
DRAW2
100
AcDbLine
 10
1058.084119774895
 20
90.0000009999997
 30
0.0
 11
1058.084119774895
 21
132.0000009999996
 31
0.0
  0
LINE
  5
79A3
330
18
100
AcDbEntity
  8
DRAW2
100
AcDbLine
 10
1059.584119774895
 20
88.99999999999973
 30
0.0
 11
1142.584119774894
 21
88.99999999999973
 31
0.0
  0
LINE
  5
79A4
330
18
100
AcDbEntity
  8
DRAW2
100
AcDbLine
 10
1058.084119774895
 20
95.0000009999997
 30
0.0
 11
1144.084119774894
 21
95.0000009999997
 31
0.0
  0
LINE
  5
79A5
330
18
100
AcDbEntity
  8
DRAW2
100
AcDbLine
 10
1059.584119774895
 20
73.2822094190444
 30
0.0
 11
1058.084119774896
 21
73.2822094190444
 31
0.0
  0
LINE
  5
79A7
330
18
100
AcDbEntity
  8
DRAW2
100
AcDbLine
 10
1142.584119774894
 20
73.2822094190444
 30
0.0
 11
1144.084119774894
 21
73.2822094190444
 31
0.0
  0
LINE
  5
79A9
330
18
100
AcDbEntity
  8
DRAW2
100
AcDbLine
 10
1058.084119774895
 20
127.0000009999997
 30
0.0
 11
1144.084119774894
 21
127.0000009999997
 31
0.0
  0
LINE
  5
79AA
330
18
100
AcDbEntity
  8
DRAW2
100
AcDbLine
 10
1028.084119774895
 20
158.9999989999997
 30
0.0
 11
1028.084119774895
 21
141.9999999999996
 31
0.0
  0
LINE
  5
79AB
330
18
100
AcDbEntity
  8
DRAW2
100
AcDbLine
 10
1058.084119774895
 20
141.9999999999996
 30
0.0
 11
1058.084119774895
 21
131.9999999999996
 31
0.0
  0
LINE
  5
79AC
330
18
100
AcDbEntity
  8
DRAW2
100
AcDbLine
 10
1028.084119774895
 20
158.9999989999997
 30
0.0
 11
1026.084119774895
 21
160.9999989999996
 31
0.0
  0
LINE
  5
79AD
330
18
100
AcDbEntity
  8
DRAW2
100
AcDbLine
 10
1174.084119774895
 20
158.9999989999997
 30
0.0
 11
1174.084119774895
 21
141.9999999999996
 31
0.0
  0
LINE
  5
79AE
330
18
100
AcDbEntity
  8
DRAW2
100
AcDbLine
 10
1144.084119774894
 20
131.9999999999996
 30
0.0
 11
1144.084119774894
 21
141.9999999999996
 31
0.0
  0
POINT
  5
79AF
330
18
100
AcDbEntity
  8
DEFPOINTS
  6
ByBlock
100
AcDbPoint
 10
1184.584119774895
 20
158.9999989999997
 30
0.0
  0
LINE
  5
79B0
330
18
100
AcDbEntity
  8
DRAW2
100
AcDbLine
 10
1176.084119774895
 20
160.9999989999996
 30
0.0
 11
1174.084119774895
 21
158.9999989999997
 31
0.0
  0
LINE
  5
79B1
330
18
100
AcDbEntity
  8
DRAW2
100
AcDbLine
 10
1259.084119774895
 20
160.0000009999996
 30
0.0
 11
1259.084119774895
 21
62.00000099999979
 31
0.0
  0
LINE
  5
79B2
330
18
100
AcDbEntity
  8
DRAW2
100
AcDbLine
 10
1257.084119774895
 20
160.0000009999996
 30
0.0
 11
1257.084119774895
 21
62.00000099999979
 31
0.0
  0
LINE
  5
79B3
330
18
100
AcDbEntity
  8
DRAW2
100
AcDbLine
 10
1207.084119774895
 20
90.0000009999997
 30
0.0
 11
1207.084119774895
 21
132.0000009999996
 31
0.0
  0
LINE
  5
79B4
330
18
100
AcDbEntity
  8
DRAW2
100
AcDbLine
 10
1276.084119774895
 20
61.00000099999972
 30
0.0
 11
1276.084119774895
 21
161.0000009999996
 31
0.0
  0
LINE
  5
79B5
330
18
100
AcDbEntity
  8
DRAW2
100
AcDbLine
 10
1261.084119774895
 20
61.00000099999972
 30
0.0
 11
1261.084119774895
 21
161.0000009999996
 31
0.0
  0
LINE
  5
79B6
330
18
100
AcDbEntity
  8
DRAW2
100
AcDbLine
 10
1261.084119774895
 20
61.00000099999972
 30
0.0
 11
1276.084119774895
 21
61.00000099999972
 31
0.0
  0
LINE
  5
79B8
330
18
100
AcDbEntity
  8
DRAW2
100
AcDbLine
 10
1237.084119774894
 20
58.78204
 30
0.0
 11
1217.084119774894
 21
58.78204
 31
0.0
  0
LINE
  5
79B9
330
18
100
AcDbEntity
  8
DRAW2
100
AcDbLine
 10
1237.084119774894
 20
79.78203999999998
 30
0.0
 11
1217.084119774894
 21
79.78203999999998
 31
0.0
  0
LINE
  5
79BA
330
18
100
AcDbEntity
  8
DRAW2
100
AcDbLine
 10
1237.084119774894
 20
79.78203999999998
 30
0.0
 11
1237.084119774894
 21
58.78204
 31
0.0
  0
LINE
  5
79BB
330
18
100
AcDbEntity
  8
DRAW2
100
AcDbLine
 10
1239.084119774894
 20
60.78203999999999
 30
0.0
 11
1239.084119774894
 21
77.78203999999998
 31
0.0
  0
LINE
  5
79BC
330
18
100
AcDbEntity
  8
DRAW2
100
AcDbLine
 10
1237.084119774894
 20
58.78204
 30
0.0
 11
1239.084119774894
 21
60.78203999999999
 31
0.0
  0
LINE
  5
79BD
330
18
100
AcDbEntity
  8
DRAW2
100
AcDbLine
 10
1257.084119774895
 20
62.00000099999979
 30
0.0
 11
1261.084119774895
 21
62.00000099999979
 31
0.0
  0
LINE
  5
79BE
330
18
100
AcDbEntity
  8
DRAW2
100
AcDbLine
 10
1239.084119774894
 20
77.78203999999998
 30
0.0
 11
1237.084119774894
 21
79.78203999999998
 31
0.0
  0
LINE
  5
79BF
330
18
100
AcDbEntity
  8
DRAW2
100
AcDbLine
 10
1207.084119774895
 20
90.50000099999971
 30
0.0
 11
1257.084119774895
 21
90.50000099999969
 31
0.0
  0
LINE
  5
79C0
330
18
100
AcDbEntity
  8
DRAW2
100
AcDbLine
 10
1207.084119774894
 20
88.9999999999997
 30
0.0
 11
1217.084119774894
 21
88.9999999999997
 31
0.0
  0
LINE
  5
79C1
330
18
100
AcDbEntity
  8
DRAW2
100
AcDbLine
 10
1261.084119774895
 20
161.0000009999996
 30
0.0
 11
1276.084119774895
 21
161.0000009999996
 31
0.0
  0
LINE
  5
79C2
330
18
100
AcDbEntity
  8
DRAW2
100
AcDbLine
 10
1190.084119774895
 20
158.9999989999997
 30
0.0
 11
1190.084119774895
 21
141.9999999999996
 31
0.0
  0
LINE
  5
79C3
330
18
100
AcDbEntity
  8
DRAW2
100
AcDbLine
 10
1207.084119774895
 20
131.5000009999996
 30
0.0
 11
1257.084119774895
 21
131.5000009999996
 31
0.0
  0
LINE
  5
79C4
330
18
100
AcDbEntity
  8
DRAW2
100
AcDbLine
 10
1207.084119774895
 20
141.9999999999996
 30
0.0
 11
1207.084119774895
 21
131.9999999999996
 31
0.0
  0
LINE
  5
79C5
330
18
100
AcDbEntity
  8
DRAW2
100
AcDbLine
 10
1190.084119774895
 20
158.9999989999997
 30
0.0
 11
1188.084119774895
 21
160.9999989999996
 31
0.0
  0
LINE
  5
79C6
330
18
100
AcDbEntity
  8
DRAW2
100
AcDbLine
 10
1257.084119774895
 20
160.0000009999996
 30
0.0
 11
1261.084119774895
 21
160.0000009999996
 31
0.0
  0
ARC
  5
79CB
330
18
100
AcDbEntity
  8
DRAW2
100
AcDbCircle
 10
1589.080989116696
 20
0.0
 30
0.0
 40
98.0
100
AcDbArc
 50
296.7655005767559
 51
63.2344994232439
  0
ARC
  5
79CE
330
18
100
AcDbEntity
  8
DRAW2
100
AcDbCircle
 10
1549.080991150663
 20
-69.28203347706653
 30
0.0
 40
8.5
100
AcDbArc
 50
335.5374609063968
 51
292.0538190370131
  0
ARC
  5
79CF
330
18
100
AcDbEntity
  8
DRAW2
100
AcDbCircle
 10
1549.080991150663
 20
-69.28203347706653
 30
0.0
 40
10.5
100
AcDbArc
 50
352.2369860423957
 51
275.3542939010125
  0
ARC
  5
79D0
330
18
100
AcDbEntity
  8
DRAW2
100
AcDbCircle
 10
1629.081000930801
 20
-69.28202548187721
 30
0.0
 40
8.5
100
AcDbArc
 50
247.9459352890546
 51
204.4627759201136
  0
ARC
  5
79D1
330
18
100
AcDbEntity
  8
DRAW2
100
AcDbCircle
 10
1629.081000930801
 20
-69.28202548187721
 30
0.0
 40
10.5
100
AcDbArc
 50
264.6455860813284
 51
187.7631251278423
  0
LINE
  5
79D2
330
18
100
AcDbEntity
  8
HIDDEN
100
AcDbLine
 10
1534.633766965331
 20
-70.0035713374682
 30
0.0
 11
1528.000613042456
 21
-76.63672526034389
 31
0.0
  0
ARC
  5
79D3
330
18
100
AcDbEntity
  8
DRAW2
100
AcDbCircle
 10
1589.080989116696
 20
0.0
 30
0.0
 40
98.0
100
AcDbArc
 50
116.765500576756
 51
243.2344994232438
  0
LINE
  5
79D4
330
18
100
AcDbEntity
  8
DRAW2
100
AcDbLine
 10
1667.008263140962
 20
-59.4250785708096
 30
0.0
 11
1703.165122680569
 21
-80.30024878912501
 31
0.0
  0
LINE
  5
79D5
330
18
100
AcDbEntity
  8
DRAW2
100
AcDbLine
 10
1697.638023071195
 20
-76.87352149420338
 30
0.0
 11
1702.660911254787
 21
-68.17357032232838
 31
0.0
  0
LINE
  5
79D6
330
18
100
AcDbEntity
  8
DRAW2
100
AcDbLine
 10
1694.174018554593
 20
-74.87358252935951
 30
0.0
 11
1699.196921996976
 21
-66.17363135748457
 31
0.0
  0
LINE
  5
79D7
330
18
100
AcDbEntity
  8
DRAW2
100
AcDbLine
 10
1715.665229492093
 20
-58.64973609381252
 30
0.0
 11
1703.165214233304
 21
-80.30037085943764
 31
0.0
  0
LINE
  5
79D8
330
18
100
AcDbEntity
  8
DRAW2
100
AcDbLine
 10
1716.031211547757
 20
-60.01570289068775
 30
0.0
 11
1704.531226806546
 21
-79.93425147467188
 31
0.0
  0
LINE
  5
79D9
330
18
100
AcDbEntity
  8
DRAW2
100
AcDbLine
 10
1695.450126342679
 20
-72.66322486334388
 30
0.0
 11
1698.914268188381
 21
-74.66322486334388
 31
0.0
  0
CIRCLE
  5
79DA
330
18
100
AcDbEntity
  8
DRAW2
100
AcDbCircle
 10
1589.080989116696
 20
-111.0
 30
0.0
 40
50.0
  0
LINE
  5
79DB
330
18
100
AcDbEntity
  8
DRAW2
100
AcDbLine
 10
1679.080989116696
 20
-132.0
 30
0.0
 11
1634.457194334849
 21
-132.0
 31
0.0
  0
LINE
  5
79DC
330
18
100
AcDbEntity
  8
DRAW2
100
AcDbLine
 10
1622.711332558297
 20
-148.0
 30
0.0
 11
1679.080989116696
 21
-148.0
 31
0.0
  0
LINE
  5
79DD
330
18
100
AcDbEntity
  8
DRAW2
100
AcDbLine
 10
1510.580989116696
 20
-110.0
 30
0.0
 11
1527.580989116696
 21
-110.0
 31
0.0
  0
LINE
  5
79DE
330
18
100
AcDbEntity
  8
DRAW2
100
AcDbLine
 10
1529.580989116696
 20
-112.0
 30
0.0
 11
1508.580989116696
 21
-112.0
 31
0.0
  0
LINE
  5
79DF
330
18
100
AcDbEntity
  8
DRAW2
100
AcDbLine
 10
1543.704783898541
 20
-132.0
 30
0.0
 11
1499.080989116696
 21
-132.0
 31
0.0
  0
LINE
  5
79E0
330
18
100
AcDbEntity
  8
DRAW2
100
AcDbLine
 10
1505.803370708493
 20
-168.0
 30
0.0
 11
1532.358607524899
 21
-168.0
 31
0.0
  0
LINE
  5
79E1
330
18
100
AcDbEntity
  8
DRAW2
100
AcDbLine
 10
1499.080989116696
 20
-148.0
 30
0.0
 11
1555.450645675096
 21
-148.0
 31
0.0
  0
LINE
  5
79E2
330
18
100
AcDbEntity
  8
DRAW2
100
AcDbLine
 10
1499.080989116696
 20
-132.0
 30
0.0
 11
1499.080989116696
 21
-148.0
 31
0.0
  0
LINE
  5
79E3
330
18
100
AcDbEntity
  8
DRAW2
100
AcDbLine
 10
1509.080989116696
 20
-132.0
 30
0.0
 11
1509.080989116696
 21
-148.0
 31
0.0
  0
LINE
  5
79E7
330
18
100
AcDbEntity
  8
DRAW2
100
AcDbLine
 10
1501.080989116696
 20
-147.9999923706054
 30
0.0
 11
1503.825495952634
 21
-166.2966842651366
 31
0.0
  0
ARC
  5
79E8
330
18
100
AcDbEntity
  8
DRAW2
100
AcDbCircle
 10
1505.803370708493
 20
-166.0
 30
0.0
 40
2.000000000000002
100
AcDbArc
 50
188.5307671650844
 51
270.0000025044775
  0
LINE
  5
79E9
330
18
100
AcDbEntity
  8
DRAW2
100
AcDbLine
 10
1508.580989116696
 20
-112.0
 30
0.0
 11
1508.580989116696
 21
-132.0
 31
0.0
  0
LINE
  5
79EA
330
18
100
AcDbEntity
  8
DRAW2
100
AcDbLine
 10
1508.580989116696
 20
-112.0
 30
0.0
 11
1510.580989116696
 21
-110.0
 31
0.0
  0
LINE
  5
79ED
330
18
100
AcDbEntity
  8
DRAW2
100
AcDbLine
 10
1669.080989116696
 20
-132.0
 30
0.0
 11
1669.080989116696
 21
-148.0
 31
0.0
  0
CIRCLE
  5
79F0
330
18
100
AcDbEntity
  8
DRAW2
100
AcDbCircle
 10
1562.564484822201
 20
-137.5165042944954
 30
0.0
 40
7.5
  0
CIRCLE
  5
79F3
330
18
100
AcDbEntity
  8
DRAW2
100
AcDbCircle
 10
1615.597493411191
 20
-137.5165042944954
 30
0.0
 40
7.5
  0
LINE
  5
79F6
330
18
100
AcDbEntity
  8
DRAW2
100
AcDbLine
 10
1570.080989116696
 20
-164.9999989999999
 30
0.0
 11
1554.080989116696
 21
-164.9999989999999
 31
0.0
  0
LINE
  5
79F7
330
18
100
AcDbEntity
  8
DRAW2
100
AcDbLine
 10
1554.080989116696
 20
-164.9999989999999
 30
0.0
 11
1556.080989116695
 21
-166.9999989999999
 31
0.0
  0
LINE
  5
79F8
330
18
100
AcDbEntity
  8
DRAW2
100
AcDbLine
 10
1537.081004375485
 20
-148.0
 30
0.0
 11
1534.336497539547
 21
-166.2966842651366
 31
0.0
  0
LINE
  5
79F9
330
18
100
AcDbEntity
  8
DRAW2
100
AcDbLine
 10
1554.080989116696
 20
-164.9999989999999
 30
0.0
 11
1554.080989116696
 21
-148.0
 31
0.0
  0
ARC
  5
79FA
330
18
100
AcDbEntity
  8
DRAW2
100
AcDbCircle
 10
1532.358607524899
 20
-166.0
 30
0.0
 40
1.999999999999999
100
AcDbArc
 50
270.0000025044775
 51
351.4692328349155
  0
LINE
  5
79FB
330
18
100
AcDbEntity
  8
DRAW2
100
AcDbLine
 10
1570.080989116696
 20
-164.9999989999999
 30
0.0
 11
1570.080989116696
 21
-157.2493243193887
 31
0.0
  0
LINE
  5
79FC
330
18
100
AcDbEntity
  8
DRAW2
100
AcDbLine
 10
1556.080989116695
 20
-166.9999989999999
 30
0.0
 11
1568.080989116696
 21
-166.9999989999999
 31
0.0
  0
LINE
  5
79FD
330
18
100
AcDbEntity
  8
DRAW2
100
AcDbLine
 10
1568.080989116696
 20
-166.9999989999999
 30
0.0
 11
1570.080989116696
 21
-164.9999989999999
 31
0.0
  0
LINE
  5
79FE
330
18
100
AcDbEntity
  8
DRAW2
100
AcDbLine
 10
1624.080989116696
 20
-164.9999989999999
 30
0.0
 11
1624.080989116696
 21
-148.0
 31
0.0
  0
LINE
  5
79FF
330
18
100
AcDbEntity
  8
DRAW2
100
AcDbLine
 10
1610.080989116696
 20
-166.9999989999999
 30
0.0
 11
1622.080989116695
 21
-166.9999989999999
 31
0.0
  0
LINE
  5
7A00
330
18
100
AcDbEntity
  8
DRAW2
100
AcDbLine
 10
1624.080989116696
 20
-164.9999989999999
 30
0.0
 11
1608.080989116696
 21
-164.9999989999999
 31
0.0
  0
LINE
  5
7A01
330
18
100
AcDbEntity
  8
DRAW2
100
AcDbLine
 10
1608.080989116696
 20
-164.9999989999999
 30
0.0
 11
1608.080989116696
 21
-157.2493243193886
 31
0.0
  0
LINE
  5
7A02
330
18
100
AcDbEntity
  8
DRAW2
100
AcDbLine
 10
1608.080989116696
 20
-164.9999989999999
 30
0.0
 11
1610.080989116696
 21
-166.9999989999999
 31
0.0
  0
LINE
  5
7A03
330
18
100
AcDbEntity
  8
DRAW2
100
AcDbLine
 10
1622.080989116695
 20
-166.9999989999999
 30
0.0
 11
1624.080989116696
 21
-164.9999989999999
 31
0.0
  0
LINE
  5
7A04
330
18
100
AcDbEntity
  8
DRAW2
100
AcDbLine
 10
1677.081004375485
 20
-148.0
 30
0.0
 11
1674.336497539548
 21
-166.2966842651366
 31
0.0
  0
LINE
  5
7A05
330
18
100
AcDbEntity
  8
DRAW2
100
AcDbLine
 10
1641.080989116695
 20
-147.9999923706054
 30
0.0
 11
1643.825495952634
 21
-166.2966842651366
 31
0.0
  0
LINE
  5
7A06
330
18
100
AcDbEntity
  8
DRAW2
100
AcDbLine
 10
1645.803370708493
 20
-168.0
 30
0.0
 11
1672.358607524899
 21
-168.0
 31
0.0
  0
ARC
  5
7A07
330
18
100
AcDbEntity
  8
DRAW2
100
AcDbCircle
 10
1645.803370708493
 20
-166.0
 30
0.0
 40
2.000000000000002
100
AcDbArc
 50
188.5307671650844
 51
270.0000025044775
  0
ARC
  5
7A08
330
18
100
AcDbEntity
  8
DRAW2
100
AcDbCircle
 10
1672.358607524899
 20
-166.0
 30
0.0
 40
1.999999999999999
100
AcDbArc
 50
270.0000025044775
 51
351.4692328349155
  0
CIRCLE
  5
7A09
330
18
100
AcDbEntity
  8
DRAW2
100
AcDbCircle
 10
1589.080989116696
 20
-111.0
 30
0.0
 40
11.0
  0
CIRCLE
  5
7A0A
330
18
100
AcDbEntity
  8
DRAW2
100
AcDbCircle
 10
1589.080989116696
 20
-111.0
 30
0.0
 40
12.0
  0
LINE
  5
7A0C
330
18
100
AcDbEntity
  8
DRAW2
100
AcDbLine
 10
1529.580989116696
 20
-112.0
 30
0.0
 11
1529.580989116696
 21
-132.0
 31
0.0
  0
LINE
  5
7A0D
330
18
100
AcDbEntity
  8
DRAW2
100
AcDbLine
 10
1527.580989116696
 20
-110.0
 30
0.0
 11
1529.580989116696
 21
-112.0
 31
0.0
  0
LINE
  5
7A0E
330
18
100
AcDbEntity
  8
DRAW2
100
AcDbLine
 10
1567.645644175026
 20
-132.0
 30
0.0
 11
1557.483325469374
 21
-132.0
 31
0.0
  0
CIRCLE
  5
7A11
330
18
100
AcDbEntity
  8
DRAW2
100
AcDbCircle
 10
1562.5644848222
 20
-84.48349570550442
 30
0.0
 40
7.5
  0
LINE
  5
7A12
330
18
100
AcDbEntity
  8
DRAW2
100
AcDbLine
 10
1567.645644175025
 20
-90.0
 30
0.0
 11
1557.483325469374
 21
-90.0
 31
0.0
  0
LINE
  5
7A13
330
18
100
AcDbEntity
  8
DRAW2
100
AcDbLine
 10
1568.552071060227
 20
-89.00000000000003
 30
0.0
 11
1556.576898584173
 21
-89.00000000000003
 31
0.0
  0
LINE
  5
7A14
330
18
100
AcDbEntity
  8
DRAW2
100
AcDbLine
 10
1620.678652764017
 20
-132.0
 30
0.0
 11
1610.516334058365
 21
-132.0
 31
0.0
  0
LINE
  5
7A15
330
18
100
AcDbEntity
  8
DRAW2
100
AcDbLine
 10
1669.580989116695
 20
-112.0
 30
0.0
 11
1669.580989116695
 21
-132.0
 31
0.0
  0
LINE
  5
7A16
330
18
100
AcDbEntity
  8
DRAW2
100
AcDbLine
 10
1648.580989116696
 20
-112.0
 30
0.0
 11
1648.580989116696
 21
-132.0
 31
0.0
  0
LINE
  5
7A17
330
18
100
AcDbEntity
  8
DRAW2
100
AcDbLine
 10
1650.580989116695
 20
-110.0
 30
0.0
 11
1667.580989116696
 21
-110.0
 31
0.0
  0
LINE
  5
7A18
330
18
100
AcDbEntity
  8
DRAW2
100
AcDbLine
 10
1669.580989116695
 20
-112.0
 30
0.0
 11
1648.580989116696
 21
-112.0
 31
0.0
  0
LINE
  5
7A19
330
18
100
AcDbEntity
  8
DRAW2
100
AcDbLine
 10
1648.580989116696
 20
-112.0
 30
0.0
 11
1650.580989116695
 21
-110.0
 31
0.0
  0
LINE
  5
7A1A
330
18
100
AcDbEntity
  8
DRAW2
100
AcDbLine
 10
1667.580989116696
 20
-110.0
 30
0.0
 11
1669.580989116695
 21
-112.0
 31
0.0
  0
CIRCLE
  5
7A1C
330
18
100
AcDbEntity
  8
DRAW2
100
AcDbCircle
 10
1615.597493411191
 20
-84.48349570550442
 30
0.0
 40
7.5
  0
LINE
  5
7A1E
330
18
100
AcDbEntity
  8
DRAW2
100
AcDbLine
 10
1620.678652764016
 20
-90.0
 30
0.0
 11
1610.516334058365
 21
-90.0
 31
0.0
  0
LINE
  5
7A1F
330
18
100
AcDbEntity
  8
DRAW2
100
AcDbLine
 10
1621.585079649218
 20
-89.0
 30
0.0
 11
1609.609907173165
 21
-89.0
 31
0.0
  0
LINE
  5
7A20
330
18
100
AcDbEntity
  8
DRAW2
100
AcDbLine
 10
1679.080989116696
 20
-148.0
 30
0.0
 11
1679.080989116696
 21
-132.0
 31
0.0
  0
LINE
  5
7A21
330
18
100
AcDbEntity
  8
DRAW2
100
AcDbLine
 10
1694.174003295804
 20
-74.87346045904707
 30
0.0
 11
1697.63809936514
 21
-76.87346045904701
 31
0.0
  0
LINE
  5
7A22
330
18
100
AcDbEntity
  8
DRAW2
100
AcDbLine
 10
1703.165137939359
 20
-80.30024878912501
 30
0.0
 11
1704.531196288968
 21
-79.93422095709394
 31
0.0
  0
LINE
  5
7A23
330
18
100
AcDbEntity
  8
DRAW2
100
AcDbLine
 10
1677.19815795889
 20
-48.27638404303144
 30
0.0
 11
1680.662254028225
 21
-50.2763840430315
 31
0.0
  0
LINE
  5
7A24
330
18
100
AcDbEntity
  8
DRAW2
100
AcDbLine
 10
1674.948188476468
 20
-52.17357032232832
 30
0.0
 11
1678.412299804593
 21
-54.17357032232836
 31
0.0
  0
LINE
  5
7A25
330
18
100
AcDbEntity
  8
DRAW2
100
AcDbLine
 10
1677.263663940335
 20
-62.16322486334393
 30
0.0
 11
1680.727729492093
 21
-64.16322486334388
 31
0.0
  0
LINE
  5
7A26
330
18
100
AcDbEntity
  8
DRAW2
100
AcDbLine
 10
1675.987510375882
 20
-64.37361304693758
 30
0.0
 11
1679.451621704006
 21
-66.37361304693763
 31
0.0
  0
LINE
  5
7A27
330
18
100
AcDbEntity
  8
DRAW2
100
AcDbLine
 10
1673.389350585843
 20
-62.87352149420326
 30
0.0
 11
1678.412238769437
 21
-54.17363135748463
 31
0.0
  0
LINE
  5
7A28
330
18
100
AcDbEntity
  8
DRAW2
100
AcDbLine
 10
1675.987449340726
 20
-64.37358252935957
 30
0.0
 11
1681.010352783109
 21
-55.6736313574845
 31
0.0
  0
LINE
  5
7A29
330
18
100
AcDbEntity
  8
DRAW2
100
AcDbLine
 10
1682.22110717764
 20
-39.57655494146882
 30
0.0
 11
1677.198188476468
 21
-48.27653663092206
 31
0.0
  0
CIRCLE
  5
7A2B
330
18
100
AcDbEntity
  8
DRAW2
100
AcDbCircle
 10
1669.080989116696
 20
0.0
 30
0.0
 40
10.5
  0
CIRCLE
  5
7A2D
330
18
100
AcDbEntity
  8
DRAW2
100
AcDbCircle
 10
1509.080989116696
 20
0.0
 30
0.0
 40
8.5
  0
LINE
  5
7A2E
330
18
100
AcDbEntity
  8
HIDDEN
100
AcDbLine
 10
1519.077417779227
 20
-54.44722215136414
 30
0.0
 11
1512.299191430359
 21
-61.22544850023199
 31
0.0
  0
CIRCLE
  5
7A2F
330
18
100
AcDbEntity
  8
DRAW2
100
AcDbCircle
 10
1509.080989116696
 20
0.0
 30
0.0
 40
10.5
  0
LINE
  5
7A31
330
18
100
AcDbEntity
  8
DRAW2
100
AcDbLine
 10
1474.090989316695
 20
-18.0
 30
0.0
 11
1474.090989316695
 21
-9.5
 31
0.0
  0
LINE
  5
7A39
330
18
100
AcDbEntity
  8
DRAW2
100
AcDbLine
 10
1494.090989316695
 20
-30.5
 30
0.0
 11
1494.090989316695
 21
-24.10186586129526
 31
0.0
  0
LINE
  5
7A3A
330
18
100
AcDbEntity
  8
DRAW2
100
AcDbLine
 10
1474.090989316695
 20
-30.5
 30
0.0
 11
1474.090989316695
 21
-22.0
 31
0.0
  0
LINE
  5
7A3B
330
18
100
AcDbEntity
  8
DRAW2
100
AcDbLine
 10
1494.090989316695
 20
-30.5
 30
0.0
 11
1474.090989316695
 21
-30.5
 31
0.0
  0
LINE
  5
7A3C
330
18
100
AcDbEntity
  8
DRAW2
100
AcDbLine
 10
1494.090989316695
 20
-26.79693750000001
 30
0.0
 11
1494.80942984807
 21
-26.77448623339449
 31
0.0
  0
LINE
  5
7A3D
330
18
100
AcDbEntity
  8
DRAW2
100
AcDbLine
 10
1476.590989316695
 20
-18.0
 30
0.0
 11
1474.090989316695
 21
-18.0
 31
0.0
  0
LINE
  5
7A3E
330
18
100
AcDbEntity
  8
DRAW2
100
AcDbLine
 10
1476.590989316695
 20
-22.0
 30
0.0
 11
1474.090989316695
 21
-22.0
 31
0.0
  0
LINE
  5
7A3F
330
18
100
AcDbEntity
  8
DRAW2
100
AcDbLine
 10
1476.590989316695
 20
-22.0
 30
0.0
 11
1476.590989316695
 21
-18.0
 31
0.0
  0
LINE
  5
7A41
330
18
100
AcDbEntity
  8
DRAW2
100
AcDbLine
 10
1491.542535161346
 20
-9.5
 30
0.0
 11
1474.090989316695
 21
-9.5
 31
0.0
  0
LINE
  5
7A43
330
18
100
AcDbEntity
  8
HIDDEN
100
AcDbLine
 10
1555.139863619741
 20
-39.59797974644664
 30
0.0
 11
1540.802462511543
 21
-53.93538085464353
 31
0.0
  0
LINE
  5
7A44
330
18
100
AcDbEntity
  8
HIDDEN
100
AcDbLine
 10
1549.483009370248
 20
-33.94112549695427
 30
0.0
 11
1535.145608262052
 21
-48.27852660515111
 31
0.0
  0
LINE
  5
7A46
330
18
100
AcDbEntity
  8
HIDDEN
100
AcDbLine
 10
1534.802592041048
 20
-62.11958380103691
 30
0.0
 11
1541.177156346155
 21
-55.33375728269618
 31
0.0
  0
ARC
  5
7A47
330
18
100
AcDbEntity
  8
HIDDEN
100
AcDbCircle
 10
1534.978287473418
 20
-54.10270164327773
 30
0.0
 40
6.5
100
AcDbArc
 50
192.421029607196
 51
257.5789703928041
  0
LINE
  5
7A48
330
18
100
AcDbEntity
  8
HIDDEN
100
AcDbLine
 10
1519.899650383226
 20
-60.91216686923132
 30
0.0
 11
1526.940965327412
 21
-54.29759828529904
 31
0.0
  0
LINE
  5
7A49
330
18
100
AcDbEntity
  8
HIDDEN
100
AcDbLine
 10
1519.29436697853
 20
-60.30688346453564
 30
0.0
 11
1525.711787973002
 21
-54.27839707578778
 31
0.0
  0
LINE
  5
7A4A
330
18
100
AcDbEntity
  8
HIDDEN
100
AcDbLine
 10
1527.434933796939
 20
-54.30531465921483
 30
0.0
 11
1534.77567445748
 21
-61.64605531975531
 31
0.0
  0
LINE
  5
7A4B
330
18
100
AcDbEntity
  8
HIDDEN
100
AcDbLine
 10
1537.946385462914
 20
-60.02258234874421
 30
0.0
 11
1529.058406767951
 21
-51.13460365378102
 31
0.0
  0
LINE
  5
7A4C
330
18
100
AcDbEntity
  8
HIDDEN
100
AcDbLine
 10
1528.77410565216
 20
-69.78662213816545
 30
0.0
 11
1534.802592040907
 21
-63.36920114369201
 31
0.0
  0
LINE
  5
7A4D
330
18
100
AcDbEntity
  8
HIDDEN
100
AcDbLine
 10
1528.168822247464
 20
-69.18133873346977
 30
0.0
 11
1534.783390831395
 21
-62.1400237892838
 31
0.0
  0
LINE
  5
7A4E
330
18
100
AcDbEntity
  8
HIDDEN
100
AcDbLine
 10
1534.633766965331
 20
-70.0035713374682
 30
0.0
 11
1531.507294336734
 21
-66.87709870887147
 31
0.0
  0
ARC
  5
7A50
330
18
100
AcDbEntity
  8
HIDDEN
100
AcDbCircle
 10
1516.042735318962
 20
-73.03825379773354
 30
0.0
 40
15.5
100
AcDbArc
 50
27.7360436771824
 51
62.26395632281756
  0
LINE
  5
7A51
330
18
100
AcDbEntity
  8
HIDDEN
100
AcDbLine
 10
1519.29436697853
 20
-60.30688346453564
 30
0.0
 11
1528.77410565216
 21
-69.78662213816545
 31
0.0
  0
LINE
  5
7A52
330
18
100
AcDbEntity
  8
HIDDEN
100
AcDbLine
 10
1531.507294336734
 20
-66.8770987088713
 30
0.0
 11
1531.507294336734
 21
-65.62748135724149
 31
0.0
  0
LINE
  5
7A53
330
18
100
AcDbEntity
  8
HIDDEN
100
AcDbLine
 10
1527.286927508803
 20
-68.29944399480871
 30
0.0
 11
1529.761801242956
 21
-65.82457026065577
 31
0.0
  0
LINE
  5
7A54
330
18
100
AcDbEntity
  8
HIDDEN
100
AcDbLine
 10
1520.781545121886
 20
-61.79406160789246
 30
0.0
 11
1523.25641885604
 21
-59.31918787373956
 31
0.0
  0
LINE
  5
7A55
330
18
100
AcDbEntity
  8
HIDDEN
100
AcDbLine
 10
1534.802592040907
 20
-63.36920114369201
 30
0.0
 11
1534.77567445748
 21
-61.64605531975531
 31
0.0
  0
LINE
  5
7A56
330
18
100
AcDbEntity
  8
HIDDEN
100
AcDbLine
 10
1534.802592041048
 20
-63.36920115266668
 30
0.0
 11
1537.946385462914
 21
-60.02258234874421
 31
0.0
  0
LINE
  5
7A57
330
18
100
AcDbEntity
  8
HIDDEN
100
AcDbLine
 10
1538.414839485906
 20
-58.27428813392987
 30
0.0
 11
1537.946385462914
 21
-60.02258234874421
 31
0.0
  0
LINE
  5
7A58
330
18
100
AcDbEntity
  8
HIDDEN
100
AcDbLine
 10
1541.177156346155
 20
-55.33375728269618
 30
0.0
 11
1533.747231833999
 21
-47.90383277053972
 31
0.0
  0
LINE
  5
7A59
330
18
100
AcDbEntity
  8
HIDDEN
100
AcDbLine
 10
1535.145608262052
 20
-48.27852660515111
 30
0.0
 11
1533.747231833999
 21
-47.90383277053972
 31
0.0
  0
LINE
  5
7A5A
330
18
100
AcDbEntity
  8
HIDDEN
100
AcDbLine
 10
1526.961405315657
 20
-54.27839707564761
 30
0.0
 11
1533.747231833999
 21
-47.90383277053972
 31
0.0
  0
LINE
  5
7A5B
330
18
100
AcDbEntity
  8
HIDDEN
100
AcDbLine
 10
1522.203890407824
 20
-57.57369477996104
 30
0.0
 11
1519.077417779227
 21
-54.44722215136414
 31
0.0
  0
LINE
  5
7A5C
330
18
100
AcDbEntity
  8
HIDDEN
100
AcDbLine
 10
1525.711787973002
 20
-54.27839707578778
 30
0.0
 11
1527.434933796939
 21
-54.30531465921483
 31
0.0
  0
LINE
  5
7A5D
330
18
100
AcDbEntity
  8
HIDDEN
100
AcDbLine
 10
1525.711787964028
 20
-54.27839707564761
 30
0.0
 11
1529.058406767951
 21
-51.13460365378102
 31
0.0
  0
LINE
  5
7A5E
330
18
100
AcDbEntity
  8
HIDDEN
100
AcDbLine
 10
1522.203890407824
 20
-57.57369477996104
 30
0.0
 11
1523.453507759453
 21
-57.57369477996104
 31
0.0
  0
LINE
  5
7A5F
330
18
100
AcDbEntity
  8
HIDDEN
100
AcDbLine
 10
1530.806700982765
 20
-50.66614963078957
 30
0.0
 11
1529.058406767951
 21
-51.13460365378102
 31
0.0
  0
LINE
  5
7A60
330
18
100
AcDbEntity
  8
HIDDEN
100
AcDbLine
 10
1535.145608262052
 20
-48.27852660515118
 30
0.0
 11
1540.802462511543
 21
-53.93538085464353
 31
0.0
  0
LINE
  5
7A61
330
18
100
AcDbEntity
  8
HIDDEN
100
AcDbLine
 10
1541.177156346155
 20
-55.33375728269618
 30
0.0
 11
1540.802462511543
 21
-53.93538085464353
 31
0.0
  0
CIRCLE
  5
7A63
330
18
100
AcDbEntity
  8
HIDDEN
100
AcDbCircle
 10
1552.311436494995
 20
-36.76955262170047
 30
0.0
 40
4.0
  0
LINE
  5
7A64
330
18
100
AcDbEntity
  8
DRAW2
100
AcDbLine
 10
1669.92536132803
 20
-60.87355201178143
 30
0.0
 11
1674.948310546781
 21
-52.17363135748451
 31
0.0
  0
LINE
  5
7A65
330
18
100
AcDbEntity
  8
DRAW2
100
AcDbLine
 10
1667.32721679678
 20
-59.37361304693768
 30
0.0
 11
1668.291222458247
 21
-57.70389011129987
 31
0.0
  0
LINE
  5
7A66
330
18
100
AcDbEntity
  8
DRAW2
100
AcDbLine
 10
1671.201331787015
 20
-58.66325538092207
 30
0.0
 11
1674.665458373929
 21
-60.66331641607831
 31
0.0
  0
LINE
  5
7A67
330
18
100
AcDbEntity
  8
DRAW2
100
AcDbLine
 10
1667.132919252625
 20
-59.26125380091059
 30
0.0
 11
1667.327369384671
 21
-59.37352149420326
 31
0.0
  0
LINE
  5
7A68
330
18
100
AcDbEntity
  8
DRAW2
100
AcDbLine
 10
1669.925285034085
 20
-60.87342994146888
 30
0.0
 11
1673.389335327054
 21
-62.87342994146893
 31
0.0
  0
CIRCLE
  5
7A69
330
18
100
AcDbEntity
  8
DRAW2
100
AcDbCircle
 10
1669.080989116696
 20
0.0
 30
0.0
 40
8.5
  0
CIRCLE
  5
7A6A
330
18
100
AcDbEntity
  8
DRAW2
100
AcDbCircle
 10
1589.080989116696
 20
111.0
 30
0.0
 40
12.0
  0
CIRCLE
  5
7A6B
330
18
100
AcDbEntity
  8
DRAW2
100
AcDbCircle
 10
1589.080989116696
 20
111.0
 30
0.0
 40
11.0
  0
CIRCLE
  5
7A6C
330
18
100
AcDbEntity
  8
DRAW2
100
AcDbCircle
 10
1589.080989116696
 20
111.0
 30
0.0
 40
50.0
  0
CIRCLE
  5
7A70
330
18
100
AcDbEntity
  8
DRAW2
100
AcDbCircle
 10
1562.564484822201
 20
84.48349570550442
 30
0.0
 40
7.5
  0
ARC
  5
7A73
330
18
100
AcDbEntity
  8
DRAW2
100
AcDbCircle
 10
1549.080989116696
 20
69.28204
 30
0.0
 40
10.5
100
AcDbArc
 50
84.64572501559585
 51
7.762983179393954
  0
ARC
  5
7A74
330
18
100
AcDbEntity
  8
DRAW2
100
AcDbCircle
 10
1549.080989116696
 20
69.28204
 30
0.0
 40
8.5
100
AcDbArc
 50
67.94622688969115
 51
24.46248130529687
  0
LINE
  5
7A75
330
18
100
AcDbEntity
  8
DRAW2
100
AcDbLine
 10
1556.576898584173
 20
89.0
 30
0.0
 11
1568.552071060227
 21
89.0
 31
0.0
  0
LINE
  5
7A76
330
18
100
AcDbEntity
  8
DRAW2
100
AcDbLine
 10
1557.483325469374
 20
90.0
 30
0.0
 11
1567.645644175026
 21
90.0
 31
0.0
  0
CIRCLE
  5
7A79
330
18
100
AcDbEntity
  8
DRAW2
100
AcDbCircle
 10
1615.597493411191
 20
84.48349570550442
 30
0.0
 40
7.5
  0
ARC
  5
7A7B
330
18
100
AcDbEntity
  8
DRAW2
100
AcDbCircle
 10
1629.080987948754
 20
69.28203297706653
 30
0.0
 40
8.5
100
AcDbArc
 50
155.5374460959066
 51
112.0538344008
  0
ARC
  5
7A7C
330
18
100
AcDbEntity
  8
DRAW2
100
AcDbCircle
 10
1629.080987948754
 20
69.28203297706653
 30
0.0
 40
10.5
100
AcDbArc
 50
172.2369790900829
 51
95.35430140662233
  0
LINE
  5
7A7E
330
18
100
AcDbEntity
  8
DRAW2
100
AcDbLine
 10
1610.516334058365
 20
90.0
 30
0.0
 11
1620.678652764016
 21
90.0
 31
0.0
  0
LINE
  5
7A7F
330
18
100
AcDbEntity
  8
DRAW2
100
AcDbLine
 10
1609.609907173165
 20
89.00000000000003
 30
0.0
 11
1621.585079649218
 21
89.00000000000003
 31
0.0
  0
LINE
  5
7A81
330
18
100
AcDbEntity
  8
DRAW2
100
AcDbLine
 10
1554.080989116696
 20
158.999999
 30
0.0
 11
1554.080989116696
 21
146.7071421427141
 31
0.0
  0
CIRCLE
  5
7A84
330
18
100
AcDbEntity
  8
DRAW2
100
AcDbCircle
 10
1562.5644848222
 20
137.5165042944954
 30
0.0
 40
7.5
  0
LINE
  5
7A85
330
18
100
AcDbEntity
  8
DRAW2
100
AcDbLine
 10
1557.483325469374
 20
132.0
 30
0.0
 11
1567.645644175026
 21
132.0
 31
0.0
  0
LINE
  5
7A86
330
18
100
AcDbEntity
  8
DRAW2
100
AcDbLine
 10
1568.576827648313
 20
142.0
 30
0.0
 11
1556.552141996087
 21
142.0
 31
0.0
  0
LINE
  5
7A87
330
18
100
AcDbEntity
  8
DRAW2
100
AcDbLine
 10
1554.080989116696
 20
158.999999
 30
0.0
 11
1570.080989116696
 21
158.999999
 31
0.0
  0
LINE
  5
7A88
330
18
100
AcDbEntity
  8
DRAW2
100
AcDbLine
 10
1556.080989116695
 20
160.999999
 30
0.0
 11
1554.080989116696
 21
158.999999
 31
0.0
  0
LINE
  5
7A89
330
18
100
AcDbEntity
  8
DRAW2
100
AcDbLine
 10
1570.080989116696
 20
158.999999
 30
0.0
 11
1570.080989116696
 21
157.2493243193887
 31
0.0
  0
LINE
  5
7A8A
330
18
100
AcDbEntity
  8
DRAW2
100
AcDbLine
 10
1568.080989116696
 20
160.999999
 30
0.0
 11
1556.080989116695
 21
160.999999
 31
0.0
  0
LINE
  5
7A8B
330
18
100
AcDbEntity
  8
DRAW2
100
AcDbLine
 10
1570.080989116696
 20
158.999999
 30
0.0
 11
1568.080989116696
 21
160.999999
 31
0.0
  0
LINE
  5
7A8D
330
18
100
AcDbEntity
  8
DRAW2
100
AcDbLine
 10
1624.080989116696
 20
158.999999
 30
0.0
 11
1624.080989116696
 21
146.707142142714
 31
0.0
  0
CIRCLE
  5
7A90
330
18
100
AcDbEntity
  8
DRAW2
100
AcDbCircle
 10
1615.597493411191
 20
137.5165042944954
 30
0.0
 40
7.5
  0
LINE
  5
7A91
330
18
100
AcDbEntity
  8
DRAW2
100
AcDbLine
 10
1610.516334058365
 20
132.0
 30
0.0
 11
1620.678652764017
 21
132.0
 31
0.0
  0
LINE
  5
7A92
330
18
100
AcDbEntity
  8
DRAW2
100
AcDbLine
 10
1621.609836237305
 20
142.0
 30
0.0
 11
1609.585150585078
 21
142.0
 31
0.0
  0
LINE
  5
7A93
330
18
100
AcDbEntity
  8
DRAW2
100
AcDbLine
 10
1608.080989116696
 20
158.999999
 30
0.0
 11
1624.080989116696
 21
158.999999
 31
0.0
  0
LINE
  5
7A94
330
18
100
AcDbEntity
  8
DRAW2
100
AcDbLine
 10
1622.080989116695
 20
160.999999
 30
0.0
 11
1610.080989116696
 21
160.999999
 31
0.0
  0
LINE
  5
7A95
330
18
100
AcDbEntity
  8
DRAW2
100
AcDbLine
 10
1608.080989116696
 20
158.999999
 30
0.0
 11
1608.080989116696
 21
157.2493243193886
 31
0.0
  0
LINE
  5
7A96
330
18
100
AcDbEntity
  8
DRAW2
100
AcDbLine
 10
1610.080989116696
 20
160.999999
 30
0.0
 11
1608.080989116696
 21
158.999999
 31
0.0
  0
LINE
  5
7A97
330
18
100
AcDbEntity
  8
DRAW2
100
AcDbLine
 10
1624.080989116696
 20
158.999999
 30
0.0
 11
1622.080989116695
 21
160.999999
 31
0.0
  0
LINE
  5
7A98
330
18
100
AcDbEntity
  8
DRAW2
100
AcDbLine
 10
1685.685203246976
 20
-41.57652442389086
 30
0.0
 11
1680.662299804593
 21
-50.27644507818768
 31
0.0
  0
LINE
  5
7A99
330
18
100
AcDbEntity
  8
DRAW2
100
AcDbLine
 10
1679.508248677817
 20
-37.7744719124656
 30
0.0
 11
1715.665183715725
 21
-58.64967505865632
 31
0.0
  0
LINE
  5
7A9A
330
18
100
AcDbEntity
  8
DRAW2
100
AcDbLine
 10
1706.469886474515
 20
-53.57652442389094
 30
0.0
 11
1701.446983032132
 21
-62.27644507818763
 31
0.0
  0
LINE
  5
7A9B
330
18
100
AcDbEntity
  8
DRAW2
100
AcDbLine
 10
1703.871741943265
 20
-52.07649390631264
 30
0.0
 11
1698.848823242093
 21
-60.77644507818764
 31
0.0
  0
LINE
  5
7A9C
330
18
100
AcDbEntity
  8
DRAW2
100
AcDbLine
 10
1709.933921508695
 20
-55.57655494146889
 30
0.0
 11
1704.911002807523
 21
-64.27650611334389
 31
0.0
  0
LINE
  5
7A9D
330
18
100
AcDbEntity
  8
DRAW2
100
AcDbLine
 10
1679.451560668851
 20
-66.37355201178138
 30
0.0
 11
1684.474433593656
 21
-57.67360083990638
 31
0.0
  0
LINE
  5
7A9E
330
18
100
AcDbEntity
  8
DRAW2
100
AcDbLine
 10
1700.407645873929
 20
-50.07649390631264
 30
0.0
 11
1695.384727172757
 21
-58.77644507818764
 31
0.0
  0
LINE
  5
7A9F
330
18
100
AcDbEntity
  8
DRAW2
100
AcDbLine
 10
1695.384666137601
 20
-58.77638404303138
 30
0.0
 11
1698.848762206937
 21
-60.77638404303133
 31
0.0
  0
LINE
  5
7AA0
330
18
100
AcDbEntity
  8
DRAW2
100
AcDbLine
 10
1685.513786010647
 20
-69.87355201178139
 30
0.0
 11
1690.536735229398
 21
-61.17366187506263
 31
0.0
  0
LINE
  5
7AA1
330
18
100
AcDbEntity
  8
DRAW2
100
AcDbLine
 10
1687.072547607328
 20
-59.17357032232832
 30
0.0
 11
1690.536643676662
 21
-61.17357032232844
 31
0.0
  0
LINE
  5
7AA2
330
18
100
AcDbEntity
  8
DRAW2
100
AcDbLine
 10
1688.111869506741
 20
-71.37361304693769
 30
0.0
 11
1693.134742431546
 21
-62.67363135748451
 31
0.0
  0
LINE
  5
7AA3
330
18
100
AcDbEntity
  8
DRAW2
100
AcDbLine
 10
1688.111793212796
 20
-71.37339942389075
 30
0.0
 11
1691.575996093655
 21
-73.37346045904688
 31
0.0
  0
LINE
  5
7AA4
330
18
100
AcDbEntity
  8
DRAW2
100
AcDbLine
 10
1689.387901000882
 20
-69.16319434576587
 30
0.0
 11
1692.85196655264
 21
-71.1631333106095
 31
0.0
  0
LINE
  5
7AA5
330
18
100
AcDbEntity
  8
DRAW2
100
AcDbLine
 10
1682.049537353421
 20
-67.87355201178138
 30
0.0
 11
1687.072425537015
 21
-59.17357032232832
 31
0.0
  0
LINE
  5
7AA6
330
18
100
AcDbEntity
  8
DRAW2
100
AcDbLine
 10
1683.325797729398
 20
-65.66334693365639
 30
0.0
 11
1686.78978698721
 21
-67.66328589850019
 31
0.0
  0
LINE
  5
7AA7
330
18
100
AcDbEntity
  8
DRAW2
100
AcDbLine
 10
1682.049628906155
 20
-67.87346045904707
 30
0.0
 11
1685.513709716702
 21
-69.87342994146889
 31
0.0
  0
LINE
  5
7AA8
330
18
100
AcDbEntity
  8
DRAW2
100
AcDbLine
 10
1691.575889282131
 20
-73.37355201178126
 30
0.0
 11
1696.598823242092
 21
-64.67366187506252
 31
0.0
  0
LINE
  5
7AA9
330
18
100
AcDbEntity
  8
DRAW2
100
AcDbLine
 10
1693.134727172757
 20
-62.67357032232837
 30
0.0
 11
1696.598853759671
 21
-64.67357032232825
 31
0.0
  0
LINE
  5
7AAA
330
18
100
AcDbEntity
  8
DRAW2
100
AcDbLine
 10
1701.446845703031
 20
-62.27638404303143
 30
0.0
 11
1704.910941772367
 21
-64.27638404303138
 31
0.0
  0
LINE
  5
7AAB
330
18
100
AcDbEntity
  8
DRAW2
100
AcDbLine
 10
1699.196906738187
 20
-66.17357032232837
 30
0.0
 11
1702.661033325101
 21
-68.17357032232838
 31
0.0
  0
LINE
  5
7AAC
330
18
100
AcDbEntity
  8
DRAW2
100
AcDbLine
 10
1715.665229492093
 20
-58.64973609381252
 30
0.0
 11
1716.031272582912
 21
-60.01576392584389
 31
0.0
  0
LINE
  5
7AAD
330
18
100
AcDbEntity
  8
DRAW2
100
AcDbLine
 10
1691.747398071195
 20
-45.07655494146893
 30
0.0
 11
1686.724479370023
 21
-53.77650611334388
 31
0.0
  0
LINE
  5
7AAE
330
18
100
AcDbEntity
  8
DRAW2
100
AcDbLine
 10
1694.345496826077
 20
-46.57652442389093
 30
0.0
 11
1689.322547607328
 21
-55.27650611334388
 31
0.0
  0
LINE
  5
7AAF
330
18
100
AcDbEntity
  8
DRAW2
100
AcDbLine
 10
1689.322517089749
 20
-55.27638404303132
 30
0.0
 11
1692.786613159085
 21
-57.27638404303143
 31
0.0
  0
LINE
  5
7AB0
330
18
100
AcDbEntity
  8
DRAW2
100
AcDbLine
 10
1687.007148437405
 20
-45.28672950201579
 30
0.0
 11
1690.47125976553
 21
-47.28672950201576
 31
0.0
  0
LINE
  5
7AB1
330
18
100
AcDbEntity
  8
DRAW2
100
AcDbLine
 10
1688.283256225491
 20
-43.07649390631268
 30
0.0
 11
1691.747337036038
 21
-45.07646338873454
 31
0.0
  0
LINE
  5
7AB2
330
18
100
AcDbEntity
  8
DRAW2
100
AcDbLine
 10
1681.010368041897
 20
-55.6735703223283
 30
0.0
 11
1684.474479370023
 21
-57.67357032232826
 31
0.0
  0
LINE
  5
7AB3
330
18
100
AcDbEntity
  8
DRAW2
100
AcDbLine
 10
1680.944968871975
 20
-41.78672950201593
 30
0.0
 11
1684.409080200101
 21
-43.78672950201586
 31
0.0
  0
LINE
  5
7AB4
330
18
100
AcDbEntity
  8
DRAW2
100
AcDbLine
 10
1688.283332519437
 20
-43.07655494146893
 30
0.0
 11
1683.260413818265
 21
-51.77650611334377
 31
0.0
  0
LINE
  5
7AB5
330
18
100
AcDbEntity
  8
DRAW2
100
AcDbLine
 10
1683.26033752432
 20
-51.77638404303143
 30
0.0
 11
1686.724433593655
 21
-53.77638404303138
 31
0.0
  0
LINE
  5
7AB6
330
18
100
AcDbEntity
  8
DRAW2
100
AcDbLine
 10
1693.069328002835
 20
-48.78672950201586
 30
0.0
 11
1696.53342407217
 21
-50.78672950201586
 31
0.0
  0
LINE
  5
7AB7
330
18
100
AcDbEntity
  8
DRAW2
100
AcDbLine
 10
1697.809577636624
 20
-48.57655494146893
 30
0.0
 11
1692.786674194242
 21
-57.27647559576581
 31
0.0
  0
LINE
  5
7AB8
330
18
100
AcDbEntity
  8
DRAW2
100
AcDbLine
 10
1694.345435790921
 20
-46.57649390631258
 30
0.0
 11
1697.809547119046
 21
-48.57649390631263
 31
0.0
  0
LINE
  5
7AB9
330
18
100
AcDbEntity
  8
DRAW2
100
AcDbLine
 10
1706.469764404202
 20
-53.5764633887344
 30
0.0
 11
1709.933875732327
 21
-55.57646338873451
 31
0.0
  0
LINE
  5
7ABA
330
18
100
AcDbEntity
  8
DRAW2
100
AcDbLine
 10
1705.193656616116
 20
-55.78669898443763
 30
0.0
 11
1708.657767944242
 21
-57.78669898443768
 31
0.0
  0
LINE
  5
7ABB
330
18
100
AcDbEntity
  8
DRAW2
100
AcDbLine
 10
1700.407569579984
 20
-50.07646338873456
 30
0.0
 11
1703.871696166897
 21
-52.07646338873451
 31
0.0
  0
LINE
  5
7ABC
330
18
100
AcDbEntity
  8
DRAW2
100
AcDbLine
 10
1699.131477050686
 20
-52.28669898443763
 30
0.0
 11
1702.595588378812
 21
-54.28669898443764
 31
0.0
  0
LINE
  5
7ABD
330
18
100
AcDbEntity
  8
DRAW2
100
AcDbLine
 10
1679.622993163968
 20
-38.07652442389081
 30
0.0
 11
1678.659454322995
 21
-39.74542201667903
 31
0.0
  0
LINE
  5
7ABE
330
18
100
AcDbEntity
  8
DRAW2
100
AcDbLine
 10
1682.221091918851
 20
-39.5764939063126
 30
0.0
 11
1685.685157470609
 21
-41.57646338873445
 31
0.0
  0
LINE
  5
7ABF
330
18
100
AcDbEntity
  8
DRAW2
100
AcDbLine
 10
1679.428714723887
 20
-37.9643053091649
 30
0.0
 11
1679.622977905179
 21
-38.07646338873459
 31
0.0
  0
LINE
  5
7AC1
330
18
100
AcDbEntity
  8
DRAW2
100
AcDbLine
 10
1142.584119774894
 20
445.1588103270324
 30
0.0
 11
1142.584119774894
 21
363.1588103270324
 31
0.0
  0
LINE
  5
7AC2
330
18
100
AcDbEntity
  8
DRAW2
100
AcDbLine
 10
1059.584119774895
 20
445.1588103270324
 30
0.0
 11
1059.584119774895
 21
363.1588103270324
 31
0.0
  0
LINE
  5
7AC3
330
18
100
AcDbEntity
  8
DRAW2
100
AcDbLine
 10
1207.084119774895
 20
390.1588103270325
 30
0.0
 11
1207.084119774895
 21
304.1588103270326
 31
0.0
  0
LINE
  5
7AC4
330
18
100
AcDbEntity
  8
DRAW2
100
AcDbLine
 10
1144.084119774894
 20
390.1588103270325
 30
0.0
 11
1144.084119774894
 21
304.1588103270326
 31
0.0
  0
LINE
  5
7AC5
330
18
100
AcDbEntity
  8
DRAW2
100
AcDbLine
 10
995.0841197748953
 20
390.1588103270325
 30
0.0
 11
995.0841197748959
 21
304.1588103270326
 31
0.0
  0
LINE
  5
7AC6
330
18
100
AcDbEntity
  8
DRAW2
100
AcDbLine
 10
1058.084119774895
 20
390.1588103270325
 30
0.0
 11
1058.084119774895
 21
304.1588103270326
 31
0.0
  0
LINE
  5
7AC7
330
18
100
AcDbEntity
  8
DRAW2
100
AcDbLine
 10
1259.084119774895
 20
396.1588103270326
 30
0.0
 11
1259.084119774895
 21
298.1588103270325
 31
0.0
  0
LINE
  5
7AC8
330
18
100
AcDbEntity
  8
DRAW2
100
AcDbLine
 10
1257.084119774895
 20
396.1588103270326
 30
0.0
 11
1257.084119774895
 21
298.1588103270325
 31
0.0
  0
LINE
  5
7AC9
330
18
100
AcDbEntity
  8
DRAW2
100
AcDbLine
 10
1261.084119774895
 20
397.1588103270326
 30
0.0
 11
1261.084119774895
 21
297.1588103270326
 31
0.0
  0
LINE
  5
7ACA
330
18
100
AcDbEntity
  8
DRAW2
100
AcDbLine
 10
1276.084119774895
 20
397.1588103270326
 30
0.0
 11
1276.084119774895
 21
297.1588103270326
 31
0.0
  0
LINE
  5
7ACB
330
18
100
AcDbEntity
  8
DRAW2
100
AcDbLine
 10
1217.084119774894
 20
445.1588103270324
 30
0.0
 11
1217.084119774894
 21
367.6588103270327
 31
0.0
  0
LINE
  5
7ACC
330
18
100
AcDbEntity
  8
DRAW2
100
AcDbLine
 10
1207.084119774894
 20
445.1588103270324
 30
0.0
 11
1207.084119774894
 21
249.1588103270326
 31
0.0
  0
LINE
  5
7ACD
330
18
100
AcDbEntity
  8
DRAW2
100
AcDbLine
 10
1237.084119774894
 20
376.6588103270331
 30
0.0
 11
1237.084119774894
 21
397.6588103270331
 31
0.0
  0
LINE
  5
7ACE
330
18
100
AcDbEntity
  8
DRAW2
100
AcDbLine
 10
1239.084119774894
 20
395.6588103270331
 30
0.0
 11
1239.084119774894
 21
378.6588103270331
 31
0.0
  0
LINE
  5
7ACF
330
18
100
AcDbEntity
  8
DRAW2
100
AcDbLine
 10
1207.084119774895
 20
445.1588103270324
 30
0.0
 11
1207.084119774895
 21
249.1588103270326
 31
0.0
  0
LINE
  5
7AD0
330
18
100
AcDbEntity
  8
DRAW2
100
AcDbLine
 10
1144.084119774894
 20
445.1588103270324
 30
0.0
 11
1144.084119774894
 21
249.1588103270326
 31
0.0
  0
LINE
  5
7AD1
330
18
100
AcDbEntity
  8
DRAW2
100
AcDbLine
 10
1058.084119774895
 20
445.1588103270324
 30
0.0
 11
1058.084119774895
 21
249.1588103270326
 31
0.0
  0
LINE
  5
7AD2
330
18
100
AcDbEntity
  8
DRAW2
100
AcDbLine
 10
995.0841197748953
 20
445.1588103270324
 30
0.0
 11
995.0841197748953
 21
249.1588103270326
 31
0.0
  0
LINE
  5
7AD3
330
18
100
AcDbEntity
  8
DRAW2
100
AcDbLine
 10
963.084119774896
 20
395.6588103270331
 30
0.0
 11
963.084119774896
 21
378.6588103270331
 31
0.0
  0
LINE
  5
7AD4
330
18
100
AcDbEntity
  8
DRAW2
100
AcDbLine
 10
965.084119774896
 20
376.6588103270331
 30
0.0
 11
965.084119774896
 21
397.6588103270331
 31
0.0
  0
LINE
  5
7AD5
330
18
100
AcDbEntity
  8
DRAW2
100
AcDbLine
 10
995.0841197748959
 20
445.1588103270324
 30
0.0
 11
995.0841197748959
 21
249.1588103270326
 31
0.0
  0
LINE
  5
7AD6
330
18
100
AcDbEntity
  8
DRAW2
100
AcDbLine
 10
985.0841197748959
 20
445.1588103270324
 30
0.0
 11
985.0841197748959
 21
249.1588103270326
 31
0.0
  0
LINE
  5
7AD7
330
18
100
AcDbEntity
  8
DRAW2
100
AcDbLine
 10
1058.084119774895
 20
304.1588103270326
 30
0.0
 11
995.0841197748959
 21
304.1588103270324
 31
0.0
  0
LINE
  5
7AD8
330
18
100
AcDbEntity
  8
DRAW2
100
AcDbLine
 10
1058.084119774896
 20
384.6588103270326
 30
0.0
 11
995.0841197748959
 21
384.6588103270326
 31
0.0
  0
LINE
  5
7AD9
330
18
100
AcDbEntity
  8
DRAW2
100
AcDbLine
 10
995.0841197748959
 20
309.6588103270326
 30
0.0
 11
1058.084119774896
 21
309.6588103270326
 31
0.0
  0
CIRCLE
  5
7ADB
330
18
100
AcDbEntity
  8
DRAW2
100
AcDbCircle
 10
1020.084119774895
 20
320.1588103270326
 30
0.0
 40
6.0
  0
CIRCLE
  5
7ADC
330
18
100
AcDbEntity
  8
DRAW2
100
AcDbCircle
 10
1020.084119774895
 20
320.1588103270326
 30
0.0
 40
8.0
  0
CIRCLE
  5
7ADD
330
18
100
AcDbEntity
  8
DRAW2
100
AcDbCircle
 10
1020.084119774895
 20
374.1588103270326
 30
0.0
 40
8.0
  0
CIRCLE
  5
7ADE
330
18
100
AcDbEntity
  8
DRAW2
100
AcDbCircle
 10
1020.084119774895
 20
374.1588103270326
 30
0.0
 40
6.0
  0
LINE
  5
7ADF
330
18
100
AcDbEntity
  8
DRAW2
100
AcDbLine
 10
995.0841197748953
 20
249.1588103270326
 30
0.0
 11
1058.084119774895
 21
249.1588103270326
 31
0.0
  0
LINE
  5
7AE0
330
18
100
AcDbEntity
  8
DRAW2
100
AcDbLine
 10
963.084119774896
 20
258.6588103270325
 30
0.0
 11
965.084119774896
 21
256.6588103270325
 31
0.0
  0
LINE
  5
7AE1
330
18
100
AcDbEntity
  8
DRAW2
100
AcDbLine
 10
965.084119774896
 20
256.6588103270325
 30
0.0
 11
965.084119774896
 21
277.6588103270325
 31
0.0
  0
LINE
  5
7AE2
330
18
100
AcDbEntity
  8
DRAW2
100
AcDbLine
 10
965.084119774896
 20
256.6588103270325
 30
0.0
 11
985.0841197748959
 21
256.6588103270325
 31
0.0
  0
LINE
  5
7AE3
330
18
100
AcDbEntity
  8
DRAW2
100
AcDbLine
 10
985.0841197748959
 20
249.1588103270326
 30
0.0
 11
995.0841197748959
 21
249.1588103270326
 31
0.0
  0
LINE
  5
7AE4
330
18
100
AcDbEntity
  8
DRAW2
100
AcDbLine
 10
995.0841197748959
 20
384.6588103270326
 30
0.0
 11
995.0841197748959
 21
309.6588103270326
 31
0.0
  0
LINE
  5
7AE5
330
18
100
AcDbEntity
  8
DRAW2
100
AcDbLine
 10
965.084119774896
 20
277.6588103270325
 30
0.0
 11
985.0841197748959
 21
277.6588103270325
 31
0.0
  0
LINE
  5
7AE7
330
18
100
AcDbEntity
  8
DRAW2
100
AcDbLine
 10
963.084119774896
 20
275.6588103270324
 30
0.0
 11
963.084119774896
 21
258.6588103270325
 31
0.0
  0
LINE
  5
7AE8
330
18
100
AcDbEntity
  8
DRAW2
100
AcDbLine
 10
965.084119774896
 20
277.6588103270325
 30
0.0
 11
963.084119774896
 21
275.6588103270324
 31
0.0
  0
LINE
  5
7AE9
330
18
100
AcDbEntity
  8
DRAW2
100
AcDbLine
 10
965.084119774896
 20
317.6588103270318
 30
0.0
 11
985.0841197748959
 21
317.6588103270318
 31
0.0
  0
LINE
  5
7AEA
330
18
100
AcDbEntity
  8
DRAW2
100
AcDbLine
 10
965.084119774896
 20
296.6588103270318
 30
0.0
 11
985.0841197748959
 21
296.6588103270318
 31
0.0
  0
LINE
  5
7AEC
330
18
100
AcDbEntity
  8
DRAW2
100
AcDbLine
 10
963.084119774896
 20
315.6588103270318
 30
0.0
 11
963.084119774896
 21
298.6588103270318
 31
0.0
  0
LINE
  5
7AED
330
18
100
AcDbEntity
  8
DRAW2
100
AcDbLine
 10
965.084119774896
 20
296.6588103270318
 30
0.0
 11
965.084119774896
 21
317.6588103270318
 31
0.0
  0
LINE
  5
7AEE
330
18
100
AcDbEntity
  8
DRAW2
100
AcDbLine
 10
963.084119774896
 20
298.6588103270318
 30
0.0
 11
965.084119774896
 21
296.6588103270318
 31
0.0
  0
LINE
  5
7AEF
330
18
100
AcDbEntity
  8
DRAW2
100
AcDbLine
 10
965.084119774896
 20
317.6588103270318
 30
0.0
 11
963.084119774896
 21
315.6588103270318
 31
0.0
  0
LINE
  5
7AF0
330
18
100
AcDbEntity
  8
DRAW2
100
AcDbLine
 10
995.0841197748959
 20
306.1344273335005
 30
0.0
 11
985.0841197748959
 21
306.1344273335005
 31
0.0
  0
LINE
  5
7AF1
330
18
100
AcDbEntity
  8
DRAW2
100
AcDbLine
 10
965.084119774896
 20
376.6588103270331
 30
0.0
 11
985.0841197748959
 21
376.6588103270331
 31
0.0
  0
LINE
  5
7AF2
330
18
100
AcDbEntity
  8
DRAW2
100
AcDbLine
 10
963.084119774896
 20
378.6588103270331
 30
0.0
 11
965.084119774896
 21
376.6588103270331
 31
0.0
  0
LINE
  5
7AF3
330
18
100
AcDbEntity
  8
DRAW2
100
AcDbLine
 10
1142.584119774894
 20
331.1588103270326
 30
0.0
 11
1142.584119774894
 21
249.1588103270326
 31
0.0
  0
LINE
  5
7AF4
330
18
100
AcDbEntity
  8
DRAW2
100
AcDbLine
 10
1059.584119774895
 20
331.1588103270326
 30
0.0
 11
1059.584119774895
 21
249.1588103270326
 31
0.0
  0
LINE
  5
7AF5
330
18
100
AcDbEntity
  8
DRAW2
100
AcDbLine
 10
1217.084119774894
 20
326.6588103270326
 30
0.0
 11
1217.084119774894
 21
249.1588103270326
 31
0.0
  0
LINE
  5
7AF6
330
18
100
AcDbEntity
  8
DRAW2
100
AcDbLine
 10
1237.084119774894
 20
256.6588103270325
 30
0.0
 11
1237.084119774894
 21
277.6588103270325
 31
0.0
  0
LINE
  5
7AF7
330
18
100
AcDbEntity
  8
DRAW2
100
AcDbLine
 10
1239.084119774894
 20
258.6588103270325
 30
0.0
 11
1237.084119774894
 21
256.6588103270325
 31
0.0
  0
LINE
  5
7AF8
330
18
100
AcDbEntity
  8
DRAW2
100
AcDbLine
 10
1207.084119774895
 20
249.1588103270326
 30
0.0
 11
1144.084119774894
 21
249.1588103270326
 31
0.0
  0
LINE
  5
7AF9
330
18
100
AcDbEntity
  8
DRAW2
100
AcDbLine
 10
1059.584119774895
 20
249.1588103270326
 30
0.0
 11
1142.584119774894
 21
249.1588103270326
 31
0.0
  0
LINE
  5
7AFA
330
18
100
AcDbEntity
  8
DRAW2
100
AcDbLine
 10
1086.584119774895
 20
249.1588103270326
 30
0.0
 11
1086.584119774895
 21
232.1688103270326
 31
0.0
  0
LINE
  5
7AFB
330
18
100
AcDbEntity
  8
DRAW2
100
AcDbLine
 10
1065.584119774894
 20
249.1588103270326
 30
0.0
 11
1065.584119774894
 21
232.1688103270326
 31
0.0
  0
LINE
  5
7AFC
330
18
100
AcDbEntity
  8
DRAW2
100
AcDbLine
 10
1065.584119774894
 20
232.1688103270326
 30
0.0
 11
1086.584119774895
 21
232.1688103270326
 31
0.0
  0
LINE
  5
7AFD
330
18
100
AcDbEntity
  8
DRAW2
100
AcDbLine
 10
1136.584119774895
 20
249.1588103270326
 30
0.0
 11
1136.584119774895
 21
232.1688103270326
 31
0.0
  0
LINE
  5
7AFE
330
18
100
AcDbEntity
  8
DRAW2
100
AcDbLine
 10
1115.584119774895
 20
249.1588103270326
 30
0.0
 11
1115.584119774895
 21
232.1688103270326
 31
0.0
  0
LINE
  5
7AFF
330
18
100
AcDbEntity
  8
DRAW2
100
AcDbLine
 10
1115.584119774895
 20
232.1688103270326
 30
0.0
 11
1136.584119774895
 21
232.1688103270326
 31
0.0
  0
LINE
  5
7B00
330
18
100
AcDbEntity
  8
DRAW2
100
AcDbLine
 10
1237.084119774894
 20
256.6588103270325
 30
0.0
 11
1217.084119774894
 21
256.6588103270325
 31
0.0
  0
LINE
  5
7B01
330
18
100
AcDbEntity
  8
DRAW2
100
AcDbLine
 10
1217.084119774894
 20
249.1588103270326
 30
0.0
 11
1207.084119774894
 21
249.1588103270326
 31
0.0
  0
LINE
  5
7B02
330
18
100
AcDbEntity
  8
DRAW2
100
AcDbLine
 10
1144.084119774894
 20
309.6588103270326
 30
0.0
 11
1207.084119774895
 21
309.6588103270326
 31
0.0
  0
LINE
  5
7B03
330
18
100
AcDbEntity
  8
DRAW2
100
AcDbLine
 10
1207.084119774895
 20
384.6588103270326
 30
0.0
 11
1144.084119774894
 21
384.6588103270326
 31
0.0
  0
LINE
  5
7B04
330
18
100
AcDbEntity
  8
DRAW2
100
AcDbLine
 10
1207.084119774895
 20
304.1588103270326
 30
0.0
 11
1144.084119774894
 21
304.1588103270326
 31
0.0
  0
CIRCLE
  5
7B05
330
18
100
AcDbEntity
  8
DRAW2
100
AcDbCircle
 10
1182.084119774893
 20
374.1588103270326
 30
0.0
 40
6.0
  0
CIRCLE
  5
7B06
330
18
100
AcDbEntity
  8
DRAW2
100
AcDbCircle
 10
1182.084119774893
 20
374.1588103270326
 30
0.0
 40
8.0
  0
CIRCLE
  5
7B07
330
18
100
AcDbEntity
  8
DRAW2
100
AcDbCircle
 10
1182.084119774893
 20
320.1588103270326
 30
0.0
 40
8.0
  0
CIRCLE
  5
7B08
330
18
100
AcDbEntity
  8
DRAW2
100
AcDbCircle
 10
1182.084119774893
 20
320.1588103270326
 30
0.0
 40
6.0
  0
LINE
  5
7B09
330
18
100
AcDbEntity
  8
DRAW2
100
AcDbLine
 10
1144.084119774894
 20
384.6588103270326
 30
0.0
 11
1144.084119774894
 21
309.6588103270326
 31
0.0
  0
LINE
  5
7B0A
330
18
100
AcDbEntity
  8
DRAW2
100
AcDbLine
 10
1058.084119774896
 20
309.6588103270326
 30
0.0
 11
1058.084119774896
 21
384.6588103270326
 31
0.0
  0
LINE
  5
7B0B
330
18
100
AcDbEntity
  8
DRAW2
100
AcDbLine
 10
1142.584119774894
 20
306.1344273335005
 30
0.0
 11
1059.584119774895
 21
306.1344273335005
 31
0.0
  0
LINE
  5
7B0C
330
18
100
AcDbEntity
  8
DRAW2
100
AcDbLine
 10
1059.584119774895
 20
274.6588103270326
 30
0.0
 11
1058.084119774895
 21
274.6588103270326
 31
0.0
  0
LINE
  5
7B0F
330
18
100
AcDbEntity
  8
DRAW2
100
AcDbLine
 10
1144.084119774894
 20
274.6588103270326
 30
0.0
 11
1142.584119774894
 21
274.6588103270326
 31
0.0
  0
LINE
  5
7B10
330
18
100
AcDbEntity
  8
DRAW2
100
AcDbLine
 10
1144.084119774894
 20
331.1588103270326
 30
0.0
 11
1058.084119774895
 21
331.1588103270326
 31
0.0
  0
LINE
  5
7B11
330
18
100
AcDbEntity
  8
DRAW2
100
AcDbLine
 10
1144.084119774894
 20
363.1588103270324
 30
0.0
 11
1058.084119774895
 21
363.1588103270324
 31
0.0
  0
LINE
  5
7B12
330
18
100
AcDbEntity
  8
DRAW2
100
AcDbLine
 10
1207.084119774895
 20
309.6588103270326
 30
0.0
 11
1207.084119774895
 21
384.6588103270326
 31
0.0
  0
LINE
  5
7B13
330
18
100
AcDbEntity
  8
DRAW2
100
AcDbLine
 10
1276.084119774895
 20
297.1588103270326
 30
0.0
 11
1261.084119774895
 21
297.1588103270324
 31
0.0
  0
LINE
  5
7B14
330
18
100
AcDbEntity
  8
DRAW2
100
AcDbLine
 10
1237.084119774894
 20
277.6588103270325
 30
0.0
 11
1217.084119774894
 21
277.6588103270325
 31
0.0
  0
LINE
  5
7B16
330
18
100
AcDbEntity
  8
DRAW2
100
AcDbLine
 10
1239.084119774894
 20
275.6588103270324
 30
0.0
 11
1239.084119774894
 21
258.6588103270325
 31
0.0
  0
LINE
  5
7B17
330
18
100
AcDbEntity
  8
DRAW2
100
AcDbLine
 10
1237.084119774894
 20
277.6588103270325
 30
0.0
 11
1239.084119774894
 21
275.6588103270324
 31
0.0
  0
LINE
  5
7B18
330
18
100
AcDbEntity
  8
DRAW2
100
AcDbLine
 10
1237.084119774894
 20
296.6588103270318
 30
0.0
 11
1217.084119774894
 21
296.6588103270318
 31
0.0
  0
LINE
  5
7B19
330
18
100
AcDbEntity
  8
DRAW2
100
AcDbLine
 10
1237.084119774894
 20
317.6588103270318
 30
0.0
 11
1217.084119774894
 21
317.6588103270318
 31
0.0
  0
LINE
  5
7B1B
330
18
100
AcDbEntity
  8
DRAW2
100
AcDbLine
 10
1207.084119774894
 20
306.1344273335005
 30
0.0
 11
1217.084119774894
 21
306.1344273335005
 31
0.0
  0
LINE
  5
7B1C
330
18
100
AcDbEntity
  8
DRAW2
100
AcDbLine
 10
1237.084119774894
 20
296.6588103270318
 30
0.0
 11
1237.084119774894
 21
317.6588103270318
 31
0.0
  0
LINE
  5
7B1D
330
18
100
AcDbEntity
  8
DRAW2
100
AcDbLine
 10
1239.084119774894
 20
315.6588103270318
 30
0.0
 11
1239.084119774894
 21
298.6588103270318
 31
0.0
  0
LINE
  5
7B1E
330
18
100
AcDbEntity
  8
DRAW2
100
AcDbLine
 10
1239.084119774894
 20
298.6588103270318
 30
0.0
 11
1237.084119774894
 21
296.6588103270318
 31
0.0
  0
LINE
  5
7B1F
330
18
100
AcDbEntity
  8
DRAW2
100
AcDbLine
 10
1257.084119774895
 20
298.1588103270325
 30
0.0
 11
1261.084119774895
 21
298.1588103270325
 31
0.0
  0
LINE
  5
7B20
330
18
100
AcDbEntity
  8
DRAW2
100
AcDbLine
 10
1237.084119774894
 20
317.6588103270318
 30
0.0
 11
1239.084119774894
 21
315.6588103270318
 31
0.0
  0
LINE
  5
7B21
330
18
100
AcDbEntity
  8
DRAW2
100
AcDbLine
 10
1207.084119774894
 20
326.6588103270326
 30
0.0
 11
1257.084119774895
 21
326.6588103270326
 31
0.0
  0
LINE
  5
7B22
330
18
100
AcDbEntity
  8
DRAW2
100
AcDbLine
 10
1207.084119774894
 20
367.6588103270326
 30
0.0
 11
1257.084119774895
 21
367.6588103270326
 31
0.0
  0
LINE
  5
7B23
330
18
100
AcDbEntity
  8
DRAW2
100
AcDbLine
 10
1237.084119774894
 20
376.6588103270331
 30
0.0
 11
1217.084119774894
 21
376.6588103270331
 31
0.0
  0
LINE
  5
7B24
330
18
100
AcDbEntity
  8
DRAW2
100
AcDbLine
 10
1239.084119774894
 20
378.6588103270331
 30
0.0
 11
1237.084119774894
 21
376.6588103270331
 31
0.0
  0
LINE
  5
7B25
330
18
100
AcDbEntity
  8
DRAW2
100
AcDbLine
 10
1058.084119774895
 20
390.1588103270325
 30
0.0
 11
995.0841197748959
 21
390.1588103270325
 31
0.0
  0
LINE
  5
7B26
330
18
100
AcDbEntity
  8
DRAW2
100
AcDbLine
 10
995.0841197748953
 20
445.1588103270324
 30
0.0
 11
1058.084119774895
 21
445.1588103270324
 31
0.0
  0
LINE
  5
7B27
330
18
100
AcDbEntity
  8
DRAW2
100
AcDbLine
 10
965.084119774896
 20
416.6588103270324
 30
0.0
 11
965.084119774896
 21
437.6588103270324
 31
0.0
  0
LINE
  5
7B28
330
18
100
AcDbEntity
  8
DRAW2
100
AcDbLine
 10
963.084119774896
 20
418.6588103270325
 30
0.0
 11
965.084119774896
 21
416.6588103270324
 31
0.0
  0
LINE
  5
7B29
330
18
100
AcDbEntity
  8
DRAW2
100
AcDbLine
 10
965.084119774896
 20
416.6588103270324
 30
0.0
 11
985.0841197748959
 21
416.6588103270324
 31
0.0
  0
LINE
  5
7B2A
330
18
100
AcDbEntity
  8
DRAW2
100
AcDbLine
 10
965.084119774896
 20
397.6588103270331
 30
0.0
 11
985.0841197748959
 21
397.6588103270331
 31
0.0
  0
LINE
  5
7B2C
330
18
100
AcDbEntity
  8
DRAW2
100
AcDbLine
 10
965.084119774896
 20
397.6588103270331
 30
0.0
 11
963.084119774896
 21
395.6588103270331
 31
0.0
  0
LINE
  5
7B2D
330
18
100
AcDbEntity
  8
DRAW2
100
AcDbLine
 10
995.0841197748959
 20
388.1831933205646
 30
0.0
 11
985.0841197748959
 21
388.1831933205646
 31
0.0
  0
LINE
  5
7B2E
330
18
100
AcDbEntity
  8
DRAW2
100
AcDbLine
 10
965.084119774896
 20
437.6588103270324
 30
0.0
 11
985.0841197748959
 21
437.6588103270324
 31
0.0
  0
LINE
  5
7B30
330
18
100
AcDbEntity
  8
DRAW2
100
AcDbLine
 10
963.084119774896
 20
435.6588103270325
 30
0.0
 11
963.084119774896
 21
418.6588103270325
 31
0.0
  0
LINE
  5
7B31
330
18
100
AcDbEntity
  8
DRAW2
100
AcDbLine
 10
965.084119774896
 20
437.6588103270324
 30
0.0
 11
963.084119774896
 21
435.6588103270325
 31
0.0
  0
LINE
  5
7B32
330
18
100
AcDbEntity
  8
DRAW2
100
AcDbLine
 10
995.0841197748959
 20
445.1588103270324
 30
0.0
 11
985.0841197748959
 21
445.1588103270324
 31
0.0
  0
LINE
  5
7B33
330
18
100
AcDbEntity
  8
DRAW2
100
AcDbLine
 10
1207.084119774895
 20
390.1588103270325
 30
0.0
 11
1144.084119774894
 21
390.1588103270325
 31
0.0
  0
LINE
  5
7B34
330
18
100
AcDbEntity
  8
DRAW2
100
AcDbLine
 10
1207.084119774895
 20
445.1588103270324
 30
0.0
 11
1144.084119774894
 21
445.1588103270324
 31
0.0
  0
LWPOLYLINE
  5
7B35
330
18
100
AcDbEntity
  8
DRAW2
100
AcDbPolyline
 90
       17
 70
     0
 43
0.0
 10
1088.582289774896
 20
448.2263203270327
 42
-0.035781046
 10
1088.646489774894
 20
449.1206503270327
 42
-0.034735135
 10
1088.836009774895
 20
449.9973803270328
 42
-0.032808914
 10
1089.141699774895
 20
450.8397903270327
 42
-0.030443274
 10
1089.551589774895
 20
451.6375403270327
 42
-0.027895236
 10
1090.051819774894
 20
452.3825703270326
 42
-0.025377859
 10
1090.627859774895
 20
453.0695803270328
 42
-0.023117483
 10
1091.268239774896
 20
453.6981803270328
 42
-0.02111344
 10
1091.961929774895
 20
454.2680803270327
 42
-0.019360746
 10
1092.698599774895
 20
454.7795403270327
 42
-0.017915758
 10
1093.472129774894
 20
455.2352503270327
 42
-0.016694044
 10
1094.275529774894
 20
455.6365403270327
 42
-0.015678837
 10
1095.103189774895
 20
455.9850503270326
 42
-0.014848642
 10
1095.950579774894
 20
456.2824603270327
 42
-0.014179833
 10
1096.813819774894
 20
456.5302503270327
 42
-0.013652758
 10
1097.689559774895
 20
456.7296603270327
 42
-0.01325184
 10
1098.574779774895
 20
456.8817203270327
  0
LWPOLYLINE
  5
7B36
330
18
100
AcDbEntity
  8
DRAW2
100
AcDbPolyline
 90
       17
 70
     0
 43
0.0
 10
1088.581679774895
 20
450.3476003270328
 42
-0.035781241
 10
1088.645879774895
 20
451.2419203270328
 42
-0.034735204
 10
1088.835399774895
 20
452.1186603270328
 42
-0.032808878
 10
1089.141089774894
 20
452.9610703270328
 42
-0.03044317
 10
1089.550979774895
 20
453.7588203270328
 42
-0.027895097
 10
1090.051209774894
 20
454.5038503270327
 42
-0.025377711
 10
1090.627249774895
 20
455.1908503270327
 42
-0.023117342
 10
1091.267629774895
 20
455.8194603270329
 42
-0.021113315
 10
1091.961319774894
 20
456.3893603270329
 42
-0.019360642
 10
1092.697999774894
 20
456.9008203270326
 42
-0.017915674
 10
1093.471519774895
 20
457.3565403270326
 42
-0.016693981
 10
1094.274919774895
 20
457.7578303270326
 42
-0.015678793
 10
1095.102579774895
 20
458.1063403270326
 42
-0.014848616
 10
1095.949969774894
 20
458.4037503270327
 42
-0.014179824
 10
1096.813209774895
 20
458.6515403270327
 42
-0.013652765
 10
1097.688949774895
 20
458.8509603270328
 42
-0.013251861
 10
1098.574169774894
 20
459.0030303270327
  0
LWPOLYLINE
  5
7B37
330
18
100
AcDbEntity
  8
DRAW2
100
AcDbPolyline
 90
       17
 70
     0
 43
0.0
 10
1113.585949774895
 20
448.2263203270327
 42
0.035781046
 10
1113.521739774894
 20
449.1206503270327
 42
0.034735135
 10
1113.332219774895
 20
449.9973803270328
 42
0.032808914
 10
1113.026539774895
 20
450.8397903270327
 42
0.030443274
 10
1112.616649774895
 20
451.6375403270327
 42
0.027895236
 10
1112.116409774895
 20
452.3825703270326
 42
0.025377859
 10
1111.540379774895
 20
453.0695803270328
 42
0.023117483
 10
1110.899989774895
 20
453.6981803270328
 42
0.02111344
 10
1110.206309774895
 20
454.2680803270327
 42
0.019360746
 10
1109.469629774895
 20
454.7795403270327
 42
0.017915758
 10
1108.696099774894
 20
455.2352503270327
 42
0.016694044
 10
1107.892709774894
 20
455.6365403270327
 42
0.015678837
 10
1107.065049774895
 20
455.9850503270326
 42
0.014848642
 10
1106.217659774895
 20
456.2824603270327
 42
0.014179833
 10
1105.354409774895
 20
456.5302503270327
 42
0.013652758
 10
1104.478679774895
 20
456.7296603270327
 42
0.01325184
 10
1103.593459774895
 20
456.8817203270327
  0
LWPOLYLINE
  5
7B38
330
18
100
AcDbEntity
  8
DRAW2
100
AcDbPolyline
 90
       17
 70
     0
 43
0.0
 10
1113.586499774894
 20
450.3476003270328
 42
0.035781241
 10
1113.522289774895
 20
451.2419203270328
 42
0.034735204
 10
1113.332769774895
 20
452.1186603270328
 42
0.032808878
 10
1113.027089774895
 20
452.9610703270328
 42
0.03044317
 10
1112.617189774895
 20
453.7588203270328
 42
0.027895097
 10
1112.116959774895
 20
454.5038503270327
 42
0.025377711
 10
1111.540919774894
 20
455.1908503270327
 42
0.023117342
 10
1110.900539774895
 20
455.8194603270329
 42
0.021113315
 10
1110.206849774895
 20
456.3893603270329
 42
0.019360642
 10
1109.470179774895
 20
456.9008203270326
 42
0.017915674
 10
1108.696649774895
 20
457.3565403270326
 42
0.016693981
 10
1107.893249774895
 20
457.7578303270326
 42
0.015678793
 10
1107.065589774894
 20
458.1063403270326
 42
0.014848616
 10
1106.218209774895
 20
458.4037503270327
 42
0.014179824
 10
1105.354959774895
 20
458.6515403270327
 42
0.013652765
 10
1104.479229774895
 20
458.8509603270328
 42
0.013251861
 10
1103.594009774895
 20
459.0030303270327
  0
LWPOLYLINE
  5
7B39
330
18
100
AcDbEntity
  8
DRAW2
100
AcDbPolyline
 90
       15
 70
     0
 43
0.0
 10
1088.869923818906
 20
445.1588103270324
 42
-0.0285596663011422
 10
1089.142309774895
 20
445.8900203270328
 42
-0.030443274
 10
1089.552199774894
 20
446.6877703270326
 42
-0.027895236
 10
1090.052429774895
 20
447.4328103270328
 42
-0.025377859
 10
1090.628469774894
 20
448.1198103270328
 42
-0.023117483
 10
1091.268849774895
 20
448.7484103270328
 42
-0.02111344
 10
1091.962539774895
 20
449.3183103270327
 42
-0.019360746
 10
1092.699209774895
 20
449.8297703270328
 42
-0.017915758
 10
1093.472739774895
 20
450.2854803270326
 42
-0.016694044
 10
1094.276139774895
 20
450.6867703270327
 42
-0.015678837
 10
1095.103799774894
 20
451.0352803270327
 42
-0.014848642
 10
1095.951189774895
 20
451.3326903270328
 42
-0.014179833
 10
1096.814429774894
 20
451.5804803270327
 42
-0.013652758
 10
1097.690169774895
 20
451.7798903270326
 42
-0.01325184
 10
1098.575389774895
 20
451.9319603270329
  0
LWPOLYLINE
  5
7B3A
330
18
100
AcDbEntity
  8
DRAW2
100
AcDbPolyline
 90
       17
 70
     0
 43
0.0
 10
1088.582289774896
 20
445.3978303270327
 42
-0.035781241
 10
1088.646489774894
 20
446.2921603270327
 42
-0.034735204
 10
1088.836009774895
 20
447.1688903270328
 42
-0.032808878
 10
1089.141699774895
 20
448.0113003270329
 42
-0.03044317
 10
1089.551589774895
 20
448.8090503270327
 42
-0.027895097
 10
1090.051819774894
 20
449.5540803270327
 42
-0.025377711
 10
1090.627859774895
 20
450.2410903270327
 42
-0.023117342
 10
1091.268239774896
 20
450.8696903270326
 42
-0.021113315
 10
1091.961929774895
 20
451.4395903270327
 42
-0.019360642
 10
1092.698609774894
 20
451.9510503270327
 42
-0.017915674
 10
1093.472129774894
 20
452.4067703270326
 42
-0.016693981
 10
1094.275529774894
 20
452.8080603270328
 42
-0.015678793
 10
1095.103189774895
 20
453.1565703270327
 42
-0.014848616
 10
1095.950579774894
 20
453.4539803270327
 42
-0.014179824
 10
1096.813819774894
 20
453.7017703270327
 42
-0.013652765
 10
1097.689559774895
 20
453.9011903270328
 42
-0.013251861
 10
1098.574779774895
 20
454.0532603270327
  0
LWPOLYLINE
  5
7B3B
330
18
100
AcDbEntity
  8
DRAW2
100
AcDbPolyline
 90
       15
 70
     0
 43
0.0
 10
1113.298307001255
 20
445.1588103270324
 42
0.0285596634692916
 10
1113.025929774895
 20
445.8900203270328
 42
0.030443274
 10
1112.616039774894
 20
446.6877703270326
 42
0.027895236
 10
1112.115799774895
 20
447.4328103270328
 42
0.025377859
 10
1111.539769774894
 20
448.1198103270328
 42
0.023117483
 10
1110.899379774895
 20
448.7484103270328
 42
0.02111344
 10
1110.205699774895
 20
449.3183103270327
 42
0.019360746
 10
1109.469019774895
 20
449.8297703270328
 42
0.017915758
 10
1108.695489774895
 20
450.2854803270326
 42
0.016694044
 10
1107.892099774895
 20
450.6867703270327
 42
0.015678837
 10
1107.064439774894
 20
451.0352803270327
 42
0.014848642
 10
1106.217049774895
 20
451.3326903270328
 42
0.014179833
 10
1105.353799774895
 20
451.5804803270327
 42
0.013652758
 10
1104.478069774895
 20
451.7798903270326
 42
0.01325184
 10
1103.592849774895
 20
451.9319603270329
  0
LWPOLYLINE
  5
7B3C
330
18
100
AcDbEntity
  8
DRAW2
100
AcDbPolyline
 90
       17
 70
     0
 43
0.0
 10
1113.585949774895
 20
445.3978303270327
 42
0.035781241
 10
1113.521749774895
 20
446.2921603270327
 42
0.034735204
 10
1113.332229774895
 20
447.1688903270328
 42
0.032808878
 10
1113.026539774895
 20
448.0113003270329
 42
0.03044317
 10
1112.616649774895
 20
448.8090503270327
 42
0.027895097
 10
1112.116419774895
 20
449.5540803270327
 42
0.025377711
 10
1111.540379774895
 20
450.2410903270327
 42
0.023117342
 10
1110.899999774894
 20
450.8696903270326
 42
0.021113315
 10
1110.206309774895
 20
451.4395903270327
 42
0.019360642
 10
1109.469629774895
 20
451.9510503270327
 42
0.017915674
 10
1108.696109774894
 20
452.4067703270326
 42
0.016693981
 10
1107.892709774894
 20
452.8080603270328
 42
0.015678793
 10
1107.065049774895
 20
453.1565703270327
 42
0.014848616
 10
1106.217659774895
 20
453.4539803270327
 42
0.014179824
 10
1105.354419774895
 20
453.7017703270327
 42
0.013652765
 10
1104.478679774895
 20
453.9011903270328
 42
0.013251861
 10
1103.593459774895
 20
454.0532603270327
  0
LINE
  5
7B3D
330
18
100
AcDbEntity
  8
DRAW2
100
AcDbLine
 10
1088.584119774895
 20
445.1588103270324
 30
0.0
 11
1088.584119774895
 21
465.1967803270326
 31
0.0
  0
LINE
  5
7B3E
330
18
100
AcDbEntity
  8
DRAW2
100
AcDbLine
 10
1113.584119774895
 20
445.1588103270324
 30
0.0
 11
1113.584119774895
 21
465.1967803270326
 31
0.0
  0
LWPOLYLINE
  5
7B3F
330
18
100
AcDbEntity
  8
DRAW2
100
AcDbPolyline
 90
        8
 70
     0
 43
0.0
 10
1109.010408809355
 20
445.1588103270324
 42
0.0072167115926629
 10
1108.694879774895
 20
445.3357203270328
 42
0.016694044
 10
1107.891489774895
 20
445.7370003270328
 42
0.015678837
 10
1107.063829774895
 20
446.0855103270326
 42
0.014848642
 10
1106.216439774895
 20
446.3829203270328
 42
0.014179833
 10
1105.353189774895
 20
446.6307103270327
 42
0.013652758
 10
1104.477459774895
 20
446.8301303270327
 42
0.01325184
 10
1103.592239774894
 20
446.9821903270327
  0
LWPOLYLINE
  5
7B40
330
18
100
AcDbEntity
  8
DRAW2
100
AcDbPolyline
 90
       12
 70
     0
 43
0.0
 10
1111.660359975378
 20
445.1588103270324
 42
0.0050685916155142
 10
1111.539759774895
 20
445.2913203270328
 42
0.023117342
 10
1110.899379774895
 20
445.9199303270327
 42
0.021113315
 10
1110.205689774895
 20
446.4898203270327
 42
0.019360642
 10
1109.469019774895
 20
447.0012803270328
 42
0.017915674
 10
1108.695489774895
 20
447.4570003270327
 42
0.016693981
 10
1107.892089774895
 20
447.8582903270329
 42
0.015678793
 10
1107.064439774894
 20
448.2068003270327
 42
0.014848616
 10
1106.217049774895
 20
448.5042203270327
 42
0.014179824
 10
1105.353799774895
 20
448.7520003270327
 42
0.013652765
 10
1104.478069774895
 20
448.9514203270328
 42
0.013251861
 10
1103.592849774895
 20
449.1034903270327
  0
LINE
  5
7B41
330
18
100
AcDbEntity
  8
DRAW2
100
AcDbLine
 10
1059.584119774895
 20
445.1588103270324
 30
0.0
 11
1142.584119774894
 21
445.1588103270324
 31
0.0
  0
LINE
  5
7B42
330
18
100
AcDbEntity
  8
DRAW2
100
AcDbLine
 10
1142.584119774894
 20
388.1831933205646
 30
0.0
 11
1059.584119774895
 21
388.1831933205646
 31
0.0
  0
LINE
  5
7B43
330
18
100
AcDbEntity
  8
DRAW2
100
AcDbLine
 10
1059.584119774895
 20
419.6588103270325
 30
0.0
 11
1058.084119774895
 21
419.6588103270325
 31
0.0
  0
LINE
  5
7B44
330
18
100
AcDbEntity
  8
DRAW2
100
AcDbLine
 10
1103.585339774894
 20
446.9832503270326
 30
0.0
 11
1103.585339774894
 21
449.1045803270329
 31
0.0
  0
LINE
  5
7B45
330
18
100
AcDbEntity
  8
DRAW2
100
AcDbLine
 10
1098.582899774894
 20
446.9832503270326
 30
0.0
 11
1098.582899774894
 21
449.1045803270329
 31
0.0
  0
LINE
  5
7B46
330
18
100
AcDbEntity
  8
DRAW2
100
AcDbLine
 10
1090.082289774895
 20
447.4729003270327
 30
0.0
 11
1090.082289774895
 21
449.5942403270327
 31
0.0
  0
LWPOLYLINE
  5
7B47
330
18
100
AcDbEntity
  8
DRAW2
100
AcDbPolyline
 90
        8
 70
     0
 43
0.0
 10
1093.157760740435
 20
445.1588103270324
 42
-0.0072167115926628
 10
1093.473289774894
 20
445.3357203270328
 42
-0.016694044
 10
1094.276689774894
 20
445.7370003270328
 42
-0.015678837
 10
1095.104349774896
 20
446.0855103270326
 42
-0.014848642
 10
1095.951739774895
 20
446.3829203270328
 42
-0.014179833
 10
1096.814979774894
 20
446.6307103270327
 42
-0.013652758
 10
1097.690719774895
 20
446.8301303270327
 42
-0.01325184
 10
1098.575939774895
 20
446.9821903270327
  0
LWPOLYLINE
  5
7B48
330
18
100
AcDbEntity
  8
DRAW2
100
AcDbPolyline
 90
       12
 70
     0
 43
0.0
 10
1090.507869574411
 20
445.1588103270324
 42
-0.0050685916155142
 10
1090.628469774894
 20
445.2913203270328
 42
-0.023117342
 10
1091.268849774895
 20
445.9199303270327
 42
-0.021113315
 10
1091.962539774895
 20
446.4898203270327
 42
-0.019360642
 10
1092.699219774895
 20
447.0012803270328
 42
-0.017915674
 10
1093.472739774895
 20
447.4570003270327
 42
-0.016693981
 10
1094.276139774895
 20
447.8582903270329
 42
-0.015678793
 10
1095.103799774894
 20
448.2068003270327
 42
-0.014848616
 10
1095.951189774895
 20
448.5042203270327
 42
-0.014179824
 10
1096.814429774894
 20
448.7520003270327
 42
-0.013652765
 10
1097.690169774895
 20
448.9514203270328
 42
-0.013251861
 10
1098.575389774895
 20
449.1034903270327
  0
LINE
  5
7B49
330
18
100
AcDbEntity
  8
DRAW2
100
AcDbLine
 10
1144.084119774894
 20
419.6588103270325
 30
0.0
 11
1142.584119774894
 21
419.6588103270325
 31
0.0
  0
LINE
  5
7B4A
330
18
100
AcDbEntity
  8
DRAW2
100
AcDbLine
 10
1112.085949774895
 20
447.4729003270327
 30
0.0
 11
1112.085949774895
 21
449.5942403270327
 31
0.0
  0
ARC
  5
7B4B
330
18
100
AcDbEntity
  8
DRAW2
100
AcDbCircle
 10
1101.084119774895
 20
460.9604623120794
 30
0.0
 40
13.19834801495315
100
AcDbArc
 50
18.72179935082566
 51
161.2782006491776
  0
LWPOLYLINE
  5
7B4C
330
18
100
AcDbEntity
  8
DRAW2
100
AcDbPolyline
 90
       17
 70
     0
 43
0.0
 10
1113.586499774894
 20
453.1760903270328
 42
0.035781046
 10
1113.522289774895
 20
454.0704203270327
 42
0.034735064
 10
1113.332769774895
 20
454.9471503270328
 42
0.032808804
 10
1113.027089774895
 20
455.7895603270329
 42
0.030443153
 10
1112.617199774895
 20
456.5873103270329
 42
0.027895124
 10
1112.116959774895
 20
457.3323503270327
 42
0.02537777
 10
1111.540929774895
 20
458.0193503270328
 42
0.023117419
 10
1110.900549774895
 20
458.6479603270326
 42
0.021113402
 10
1110.206859774895
 20
459.2178603270327
 42
0.019360733
 10
1109.470179774895
 20
459.7293203270328
 42
0.017915764
 10
1108.696659774895
 20
460.1850403270328
 42
0.016694069
 10
1107.893259774895
 20
460.5863303270328
 42
0.015678877
 10
1107.065599774895
 20
460.9348403270328
 42
0.014848697
 10
1106.218209774895
 20
461.2322503270327
 42
0.0141799
 10
1105.354959774895
 20
461.4800403270328
 42
0.013652836
 10
1104.479229774895
 20
461.6794603270327
 42
0.013251928
 10
1103.594009774895
 20
461.8315203270327
  0
LWPOLYLINE
  5
7B4D
330
18
100
AcDbEntity
  8
DRAW2
100
AcDbPolyline
 90
       17
 70
     0
 43
0.0
 10
1113.587169774895
 20
455.2973603270327
 42
0.035781241
 10
1113.522959774895
 20
456.1916903270327
 42
0.034735204
 10
1113.333439774895
 20
457.0684203270327
 42
0.032808878
 10
1113.027759774894
 20
457.9108403270327
 42
0.03044317
 10
1112.617859774895
 20
458.7085903270327
 42
0.027895097
 10
1112.117629774895
 20
459.4536203270327
 42
0.025377711
 10
1111.541589774895
 20
460.1406203270327
 42
0.023117342
 10
1110.901209774895
 20
460.7692303270328
 42
0.021113315
 10
1110.207529774895
 20
461.3391303270327
 42
0.019360642
 10
1109.470849774895
 20
461.8505903270326
 42
0.017915674
 10
1108.697319774895
 20
462.3063003270328
 42
0.016693981
 10
1107.893929774895
 20
462.7075903270326
 42
0.015678793
 10
1107.066269774895
 20
463.0561103270328
 42
0.014848616
 10
1106.218879774895
 20
463.3535203270327
 42
0.014179824
 10
1105.355629774895
 20
463.6013103270327
 42
0.013652765
 10
1104.479899774895
 20
463.8007303270327
 42
0.013251861
 10
1103.594679774895
 20
463.9527903270328
  0
LWPOLYLINE
  5
7B4E
330
18
100
AcDbEntity
  8
DRAW2
100
AcDbPolyline
 90
       17
 70
     0
 43
0.0
 10
1113.593999774895
 20
460.2482203270326
 42
0.035781241
 10
1113.529789774895
 20
461.1425503270328
 42
0.034735204
 10
1113.340269774895
 20
462.0192803270326
 42
0.032808878
 10
1113.034589774895
 20
462.8617003270328
 42
0.03044317
 10
1112.624689774895
 20
463.6594503270329
 42
0.027895097
 10
1112.124459774895
 20
464.4044803270326
 42
0.025377711
 10
1111.548419774895
 20
465.0914803270326
 42
0.023117342
 10
1110.908039774895
 20
465.7200903270328
 42
0.021113315
 10
1110.214359774895
 20
466.2899903270327
 42
0.019360642
 10
1109.477679774895
 20
466.8014503270327
 42
0.017915674
 10
1108.704149774895
 20
467.2571603270327
 42
0.016693981
 10
1107.900759774895
 20
467.6584503270326
 42
0.015678793
 10
1107.073099774895
 20
468.0069703270327
 42
0.014848616
 10
1106.225709774895
 20
468.3043803270328
 42
0.014179824
 10
1105.362459774895
 20
468.5521703270326
 42
0.013652765
 10
1104.486729774895
 20
468.7515903270328
 42
0.013251861
 10
1103.601509774895
 20
468.9036503270327
  0
LWPOLYLINE
  5
7B4F
330
18
100
AcDbEntity
  8
DRAW2
100
AcDbPolyline
 90
       17
 70
     0
 43
0.0
 10
1113.593329774895
 20
458.1269503270327
 42
0.035781046
 10
1113.529119774895
 20
459.0212803270326
 42
0.034735064
 10
1113.339599774895
 20
459.8980103270327
 42
0.032808804
 10
1113.033919774894
 20
460.7404203270327
 42
0.030443153
 10
1112.624029774895
 20
461.5381703270328
 42
0.027895124
 10
1112.123789774895
 20
462.2832103270327
 42
0.02537777
 10
1111.547759774895
 20
462.9702103270327
 42
0.023117419
 10
1110.907379774894
 20
463.5988203270327
 42
0.021113402
 10
1110.213689774895
 20
464.1687203270327
 42
0.019360733
 10
1109.477009774895
 20
464.6801803270327
 42
0.017915764
 10
1108.703489774895
 20
465.1359003270327
 42
0.016694069
 10
1107.900089774894
 20
465.5371903270327
 42
0.015678877
 10
1107.072429774895
 20
465.8857003270328
 42
0.014848697
 10
1106.225039774895
 20
466.1831103270327
 42
0.0141799
 10
1105.361789774895
 20
466.4309003270327
 42
0.013652836
 10
1104.486059774895
 20
466.6303203270326
 42
0.013251928
 10
1103.600839774895
 20
466.7823803270327
  0
LWPOLYLINE
  5
7B50
330
18
100
AcDbEntity
  8
DRAW2
100
AcDbPolyline
 90
       17
 70
     0
 43
0.0
 10
1088.587899774895
 20
460.2482203270326
 42
-0.035781241
 10
1088.652099774895
 20
461.1425503270328
 42
-0.034735204
 10
1088.841619774895
 20
462.0192803270326
 42
-0.032808878
 10
1089.147309774895
 20
462.8617003270328
 42
-0.03044317
 10
1089.557199774895
 20
463.6594503270329
 42
-0.027895097
 10
1090.057429774895
 20
464.4044803270326
 42
-0.025377711
 10
1090.633469774895
 20
465.0914803270326
 42
-0.023117342
 10
1091.273849774895
 20
465.7200903270328
 42
-0.021113315
 10
1091.967539774895
 20
466.2899903270327
 42
-0.019360642
 10
1092.704219774895
 20
466.8014503270327
 42
-0.017915674
 10
1093.477739774895
 20
467.2571603270327
 42
-0.016693981
 10
1094.281139774895
 20
467.6584503270326
 42
-0.015678793
 10
1095.108799774895
 20
468.0069703270327
 42
-0.014848616
 10
1095.956189774895
 20
468.3043803270328
 42
-0.014179824
 10
1096.819429774895
 20
468.5521703270326
 42
-0.013652765
 10
1097.695159774895
 20
468.7515903270328
 42
-0.013251861
 10
1098.580379774894
 20
468.9036503270327
  0
LWPOLYLINE
  5
7B51
330
18
100
AcDbEntity
  8
DRAW2
100
AcDbPolyline
 90
       17
 70
     0
 43
0.0
 10
1088.588509774895
 20
458.1269503270327
 42
-0.035781046
 10
1088.652709774895
 20
459.0212803270326
 42
-0.034735064
 10
1088.842229774895
 20
459.8980103270327
 42
-0.032808804
 10
1089.147909774895
 20
460.7404203270327
 42
-0.030443153
 10
1089.557809774895
 20
461.5381703270328
 42
-0.027895124
 10
1090.058039774895
 20
462.2832103270327
 42
-0.02537777
 10
1090.634079774895
 20
462.9702103270327
 42
-0.023117419
 10
1091.274459774894
 20
463.5988203270327
 42
-0.021113402
 10
1091.968139774895
 20
464.1687203270327
 42
-0.019360733
 10
1092.704819774895
 20
464.6801803270327
 42
-0.017915764
 10
1093.478349774894
 20
465.1359003270327
 42
-0.016694069
 10
1094.281749774894
 20
465.5371903270327
 42
-0.015678877
 10
1095.109409774895
 20
465.8857003270328
 42
-0.014848697
 10
1095.956799774895
 20
466.1831103270327
 42
-0.0141799
 10
1096.820039774895
 20
466.4309003270327
 42
-0.013652836
 10
1097.695769774895
 20
466.6303203270326
 42
-0.013251928
 10
1098.580999774894
 20
466.7823803270327
  0
LINE
  5
7B52
330
18
100
AcDbEntity
  8
DRAW2
100
AcDbLine
 10
1103.586559774895
 20
456.8827803270328
 30
0.0
 11
1103.586559774895
 21
459.0041203270327
 31
0.0
  0
LINE
  5
7B53
330
18
100
AcDbEntity
  8
DRAW2
100
AcDbLine
 10
1103.587169774895
 20
461.8325503270327
 30
0.0
 11
1103.587169774895
 21
463.9538903270326
 31
0.0
  0
LINE
  5
7B54
330
18
100
AcDbEntity
  8
DRAW2
100
AcDbLine
 10
1098.581679774895
 20
456.8827803270328
 30
0.0
 11
1098.581679774895
 21
459.0041203270327
 31
0.0
  0
LINE
  5
7B55
330
18
100
AcDbEntity
  8
DRAW2
100
AcDbLine
 10
1098.580999774894
 20
461.8325503270327
 30
0.0
 11
1098.580999774894
 21
463.9538903270326
 31
0.0
  0
LINE
  5
7B56
330
18
100
AcDbEntity
  8
DRAW2
100
AcDbLine
 10
1090.080459774894
 20
462.3222003270327
 30
0.0
 11
1090.080459774894
 21
464.4435703270326
 31
0.0
  0
LINE
  5
7B57
330
18
100
AcDbEntity
  8
DRAW2
100
AcDbLine
 10
1090.081069774895
 20
457.3724403270326
 30
0.0
 11
1090.081069774895
 21
459.4937703270327
 31
0.0
  0
LWPOLYLINE
  5
7B58
330
18
100
AcDbEntity
  8
DRAW2
100
AcDbPolyline
 90
       17
 70
     0
 43
0.0
 10
1088.581069774894
 20
455.2973603270327
 42
-0.035781241
 10
1088.645269774895
 20
456.1916903270327
 42
-0.034735204
 10
1088.834789774895
 20
457.0684203270327
 42
-0.032808878
 10
1089.140479774895
 20
457.9108403270327
 42
-0.03044317
 10
1089.550369774894
 20
458.7085903270327
 42
-0.027895097
 10
1090.050599774895
 20
459.4536203270327
 42
-0.025377711
 10
1090.626639774895
 20
460.1406203270327
 42
-0.023117342
 10
1091.267019774895
 20
460.7692303270328
 42
-0.021113315
 10
1091.960709774895
 20
461.3391303270327
 42
-0.019360642
 10
1092.697389774895
 20
461.8505903270326
 42
-0.017915674
 10
1093.470909774895
 20
462.3063003270328
 42
-0.016693981
 10
1094.274309774895
 20
462.7075903270326
 42
-0.015678793
 10
1095.101969774895
 20
463.0561103270328
 42
-0.014848616
 10
1095.949359774895
 20
463.3535203270327
 42
-0.014179824
 10
1096.812599774895
 20
463.6013103270327
 42
-0.013652765
 10
1097.688329774894
 20
463.8007303270327
 42
-0.013251861
 10
1098.573549774895
 20
463.9527903270328
  0
LINE
  5
7B59
330
18
100
AcDbEntity
  8
DRAW2
100
AcDbLine
 10
1103.585889774896
 20
451.9330103270328
 30
0.0
 11
1103.585889774896
 21
454.0543503270327
 31
0.0
  0
LINE
  5
7B5A
330
18
100
AcDbEntity
  8
DRAW2
100
AcDbLine
 10
1098.582289774895
 20
451.9330103270328
 30
0.0
 11
1098.582289774895
 21
454.0543503270327
 31
0.0
  0
LINE
  5
7B5B
330
18
100
AcDbEntity
  8
DRAW2
100
AcDbLine
 10
1090.081679774895
 20
452.4226703270327
 30
0.0
 11
1090.081679774895
 21
454.5440403270326
 31
0.0
  0
LWPOLYLINE
  5
7B5C
330
18
100
AcDbEntity
  8
DRAW2
100
AcDbPolyline
 90
       17
 70
     0
 43
0.0
 10
1088.581679774895
 20
453.1760903270328
 42
-0.035781046
 10
1088.645879774895
 20
454.0704203270327
 42
-0.034735064
 10
1088.835399774895
 20
454.9471503270328
 42
-0.032808804
 10
1089.141079774895
 20
455.7895603270329
 42
-0.030443153
 10
1089.550979774895
 20
456.5873103270329
 42
-0.027895124
 10
1090.051209774894
 20
457.3323503270327
 42
-0.02537777
 10
1090.627249774895
 20
458.0193503270328
 42
-0.023117419
 10
1091.267629774895
 20
458.6479603270326
 42
-0.021113402
 10
1091.961309774895
 20
459.2178603270327
 42
-0.019360733
 10
1092.697989774894
 20
459.7293203270328
 42
-0.017915764
 10
1093.471519774895
 20
460.1850403270328
 42
-0.016694069
 10
1094.274919774895
 20
460.5863303270328
 42
-0.015678877
 10
1095.102579774895
 20
460.9348403270328
 42
-0.014848697
 10
1095.949969774894
 20
461.2322503270327
 42
-0.0141799
 10
1096.813209774895
 20
461.4800403270328
 42
-0.013652836
 10
1097.688939774895
 20
461.6794603270327
 42
-0.013251928
 10
1098.574169774894
 20
461.8315203270327
  0
LINE
  5
7B5D
330
18
100
AcDbEntity
  8
DRAW2
100
AcDbLine
 10
1098.587829774895
 20
466.7834103270326
 30
0.0
 11
1098.587829774895
 21
468.9047503270328
 31
0.0
  0
LINE
  5
7B5E
330
18
100
AcDbEntity
  8
DRAW2
100
AcDbLine
 10
1103.593999774895
 20
466.7834103270326
 30
0.0
 11
1103.593999774895
 21
468.9047503270328
 31
0.0
  0
LINE
  5
7B5F
330
18
100
AcDbEntity
  8
DRAW2
100
AcDbLine
 10
1112.087779774895
 20
462.3222003270327
 30
0.0
 11
1112.087779774895
 21
464.4435703270326
 31
0.0
  0
LINE
  5
7B60
330
18
100
AcDbEntity
  8
DRAW2
100
AcDbLine
 10
1112.087169774895
 20
457.3724403270326
 30
0.0
 11
1112.087169774895
 21
459.4937703270327
 31
0.0
  0
LINE
  5
7B61
330
18
100
AcDbEntity
  8
DRAW2
100
AcDbLine
 10
1112.086559774895
 20
452.4226703270327
 30
0.0
 11
1112.086559774895
 21
454.5440403270326
 31
0.0
  0
LINE
  5
7B62
330
18
100
AcDbEntity
  8
DRAW2
100
AcDbLine
 10
1276.084119774895
 20
397.1588103270326
 30
0.0
 11
1261.084119774895
 21
397.1588103270326
 31
0.0
  0
LINE
  5
7B63
330
18
100
AcDbEntity
  8
DRAW2
100
AcDbLine
 10
1239.084119774894
 20
418.6588103270325
 30
0.0
 11
1237.084119774894
 21
416.6588103270324
 31
0.0
  0
LINE
  5
7B64
330
18
100
AcDbEntity
  8
DRAW2
100
AcDbLine
 10
1237.084119774894
 20
416.6588103270324
 30
0.0
 11
1237.084119774894
 21
437.6588103270324
 31
0.0
  0
LINE
  5
7B65
330
18
100
AcDbEntity
  8
DRAW2
100
AcDbLine
 10
1237.084119774894
 20
397.6588103270331
 30
0.0
 11
1217.084119774894
 21
397.6588103270331
 31
0.0
  0
LINE
  5
7B66
330
18
100
AcDbEntity
  8
DRAW2
100
AcDbLine
 10
1237.084119774894
 20
416.6588103270324
 30
0.0
 11
1217.084119774894
 21
416.6588103270324
 31
0.0
  0
LINE
  5
7B68
330
18
100
AcDbEntity
  8
DRAW2
100
AcDbLine
 10
1207.084119774894
 20
388.1831933205646
 30
0.0
 11
1217.084119774894
 21
388.1831933205646
 31
0.0
  0
LINE
  5
7B69
330
18
100
AcDbEntity
  8
DRAW2
100
AcDbLine
 10
1237.084119774894
 20
397.6588103270331
 30
0.0
 11
1239.084119774894
 21
395.6588103270331
 31
0.0
  0
LINE
  5
7B6A
330
18
100
AcDbEntity
  8
DRAW2
100
AcDbLine
 10
1261.084119774895
 20
396.1588103270326
 30
0.0
 11
1257.084119774895
 21
396.1588103270326
 31
0.0
  0
LINE
  5
7B6B
330
18
100
AcDbEntity
  8
DRAW2
100
AcDbLine
 10
1237.084119774894
 20
437.6588103270324
 30
0.0
 11
1217.084119774894
 21
437.6588103270324
 31
0.0
  0
LINE
  5
7B6D
330
18
100
AcDbEntity
  8
DRAW2
100
AcDbLine
 10
1207.084119774894
 20
445.1588103270324
 30
0.0
 11
1217.084119774894
 21
445.1588103270324
 31
0.0
  0
LINE
  5
7B6E
330
18
100
AcDbEntity
  8
DRAW2
100
AcDbLine
 10
1239.084119774894
 20
435.6588103270325
 30
0.0
 11
1239.084119774894
 21
418.6588103270325
 31
0.0
  0
LINE
  5
7B6F
330
18
100
AcDbEntity
  8
DRAW2
100
AcDbLine
 10
1237.084119774894
 20
437.6588103270324
 30
0.0
 11
1239.084119774894
 21
435.6588103270325
 31
0.0
  0
VIEWPORT
  5
BD5
330
15
100
AcDbEntity
 67
     1
  8
0
100
AcDbViewport
 10
420.4950122070313
 20
296.9950000476836
 30
0.0
 40
893.9779679990738
 41
598.5171102661597
 68
     1
 69
     1
 12
420.4950122070313
 22
296.9950000476836
 13
0.0
 23
0.0
 14
10.0
 24
10.0
 15
10.0
 25
10.0
 16
0.0
 26
0.0
 36
1.0
 17
0.0
 27
0.0
 37
0.0
 42
50.0
 43
0.0
 44
0.0
 45
598.5171102661597
 50
0.0
 51
0.0
 72
   100
 90
    32768
  1

281
     0
 71
     1
 74
     0
110
0.0
120
0.0
130
0.0
111
1.0
121
0.0
131
0.0
112
0.0
122
1.0
132
0.0
 79
     0
146
0.0
  0
ENDSEC
  0
SECTION
  2
OBJECTS
  0
DICTIONARY
  5
C
330
0
100
AcDbDictionary
281
     1
  3
ACAD_GROUP
350
D
  3
ACAD_LAYOUT
350
62A8
  3
ACAD_MLINESTYLE
350
E
  3
ACAD_PLOTSETTINGS
350
62A9
  3
ACAD_PLOTSTYLENAME
350
62A6
  0
DICTIONARY
  5
D
102
{ACAD_REACTORS
330
C
102
}
330
C
100
AcDbDictionary
281
     1
  0
DICTIONARY
  5
62A8
102
{ACAD_REACTORS
330
C
102
}
330
C
100
AcDbDictionary
281
     1
  3
Model
350
62AA
  3
ﾚｲｱｳﾄ1
350
62AB
  0
DICTIONARY
  5
E
102
{ACAD_REACTORS
330
C
102
}
330
C
100
AcDbDictionary
281
     1
  3
STANDARD
350
1B
  0
DICTIONARY
  5
62A9
102
{ACAD_REACTORS
330
C
102
}
330
C
100
AcDbDictionary
281
     1
  3
AdobePDF_A1
350
6358
  3
AdobePDF_A2
350
62B0
  0
ACDBDICTIONARYWDFLT
  5
62A6
102
{ACAD_REACTORS
330
C
102
}
330
C
100
AcDbDictionary
281
     1
  3
Normal
350
62A7
100
AcDbDictionaryWithDefault
340
62A7
  0
LAYOUT
  5
62AA
102
{ACAD_REACTORS
330
62A8
102
}
330
62A8
100
AcDbPlotSettings
  1

  2
Acrobat Distiller
  4

  6

 40
0.0
 41
0.0
 42
0.0
 43
0.0
 44
0.0
 45
0.0
 46
0.0
 47
0.0
 48
0.0
 49
0.0
140
0.0
141
0.0
142
1.0
143
1.0
 70
  1712
 72
     0
 73
     0
 74
     0
  7

 75
     0
147
1.0
148
0.0
149
0.0
100
AcDbLayout
  1
Model
 70
     1
 71
     0
 10
0.0
 20
0.0
 11
12.0
 21
9.0
 12
0.0
 22
0.0
 32
0.0
 14
0.0
 24
0.0
 34
0.0
 15
0.0
 25
0.0
 35
0.0
146
0.0
 13
0.0
 23
0.0
 33
0.0
 16
1.0
 26
0.0
 36
0.0
 17
0.0
 27
1.0
 37
0.0
 76
     0
330
18
  0
LAYOUT
  5
62AB
102
{ACAD_REACTORS
330
62A8
102
}
330
62A8
100
AcDbPlotSettings
  1
AdobePDF_A1
  2
Adobe PDF
  4
User120
  6
A1
 40
3.174999952316283
 41
3.174999952316283
 42
3.17498779296875
 43
3.17498779296875
 44
594.0
 45
841.0
 46
-3.169999999999998
 47
-3.169999999999998
 48
0.0
 49
0.0
140
841.0
141
594.0
142
1.0
143
1.0
 70
   692
 72
     1
 73
     1
 74
     4
  7
LineScale_10.ctb
 75
    16
147
1.0
148
0.0
149
0.0
100
AcDbLayout
  1
ﾚｲｱｳﾄ1
 70
     1
 71
     1
 10
-0.0049877929687501
 20
-0.0049999523162843
 11
840.9950122070311
 21
593.9950000476836
 12
0.0
 22
0.0
 32
0.0
 14
1.000000000000000E+20
 24
1.000000000000000E+20
 34
1.000000000000000E+20
 15
-1.000000000000000E+20
 25
-1.000000000000000E+20
 35
-1.000000000000000E+20
146
0.0
 13
0.0
 23
0.0
 33
0.0
 16
1.0
 26
0.0
 36
0.0
 17
0.0
 27
1.0
 37
0.0
 76
     0
330
15
331
BD5
  0
MLINESTYLE
  5
1B
102
{ACAD_REACTORS
330
E
102
}
330
E
100
AcDbMlineStyle
  2
STANDARD
 70
     0
  3

 62
     0
 51
90.0
 52
90.0
 71
     2
 49
0.5
 62
   256
  6
BYLAYER
 49
-0.5
 62
   256
  6
BYLAYER
  0
PLOTSETTINGS
  5
6358
102
{ACAD_REACTORS
330
62A9
102
}
330
62A9
100
AcDbPlotSettings
  1
AdobePDF_A1
  2
Adobe PDF
  4
User120
  6
A1
 40
3.174999952316283
 41
3.174999952316283
 42
3.17498779296875
 43
3.17498779296875
 44
594.0
 45
841.0
 46
-3.169999999999998
 47
-3.169999999999998
 48
0.0
 49
0.0
140
841.0
141
594.0
142
1.0
143
1.0
 70
   692
 72
     1
 73
     1
 74
     4
  7
LineScale_10.ctb
 75
    16
147
1.0
148
0.0
149
0.0
  0
PLOTSETTINGS
  5
62B0
102
{ACAD_REACTORS
330
62A9
102
}
330
62A9
100
AcDbPlotSettings
  1
AdobePDF_A2
  2
Adobe PDF
  4
User66
  6
A1
 40
3.174999952316283
 41
3.174999952316283
 42
3.17498779296875
 43
3.17498779296875
 44
420.0
 45
594.0
 46
-3.169999999999998
 47
-3.169999999999998
 48
0.0
 49
0.0
140
594.0
141
420.0
142
1.0
143
1.0
 70
   692
 72
     1
 73
     1
 74
     4
  7
LineScale_10.ctb
 75
    16
147
1.0
148
0.0
149
0.0
  0
ACDBPLACEHOLDER
  5
62A7
102
{ACAD_REACTORS
330
62A6
102
}
330
62A6
  0
ENDSEC
  0
EOF
