  0
SECTION
  2
HEADER
  9
$ACADVER
  1
AC1015
  9
$ACADMAINTVER
 70
     6
  9
$DWGCODEPAGE
  3
ANSI_932
  9
$INSBASE
 10
0.0
 20
0.0
 30
0.0
  9
$EXTMIN
 10
949.268089721902
 20
-168.3977128099634
 30
-0.0000000349181948
  9
$EXTMAX
 10
1668.449149378681
 20
482.1728291601096
 30
0.0000000814935747
  9
$LIMMIN
 10
0.0
 20
0.0
  9
$LIMMAX
 10
841.0
 20
594.0
  9
$ORTHOMODE
 70
     0
  9
$REGENMODE
 70
     1
  9
$FILLMODE
 70
     1
  9
$QTEXTMODE
 70
     0
  9
$MIRRTEXT
 70
     0
  9
$LTSCALE
 40
7.0
  9
$ATTMODE
 70
     1
  9
$TEXTSIZE
 40
3.2
  9
$TRACEWID
 40
0.05
  9
$TEXTSTYLE
  7
DIMFONT
  9
$CLAYER
  8
DRAW2
  9
$CELTYPE
  6
BYLAYER
  9
$CECOLOR
 62
   256
  9
$CELTSCALE
 40
1.0
  9
$DISPSILH
 70
     0
  9
$DIMSCALE
 40
4.0
  9
$DIMASZ
 40
3.0
  9
$DIMEXO
 40
0.0
  9
$DIMDLI
 40
10.0
  9
$DIMRND
 40
0.0
  9
$DIMDLE
 40
0.0
  9
$DIMEXE
 40
1.0
  9
$DIMTP
 40
0.5
  9
$DIMTM
 40
0.0
  9
$DIMTXT
 40
3.2
  9
$DIMCEN
 40
0.0
  9
$DIMTSZ
 40
0.0
  9
$DIMTOL
 70
     0
  9
$DIMLIM
 70
     0
  9
$DIMTIH
 70
     0
  9
$DIMTOH
 70
     0
  9
$DIMSE1
 70
     0
  9
$DIMSE2
 70
     0
  9
$DIMTAD
 70
     3
  9
$DIMZIN
 70
     8
  9
$DIMBLK
  1

  9
$DIMASO
 70
     1
  9
$DIMSHO
 70
     1
  9
$DIMPOST
  1

  9
$DIMAPOST
  1

  9
$DIMALT
 70
     0
  9
$DIMALTD
 70
     2
  9
$DIMALTF
 40
25.4
  9
$DIMLFAC
 40
1.0
  9
$DIMTOFL
 70
     1
  9
$DIMTVP
 40
0.0
  9
$DIMTIX
 70
     0
  9
$DIMSOXD
 70
     0
  9
$DIMSAH
 70
     1
  9
$DIMBLK1
  1
OPEN
  9
$DIMBLK2
  1
OPEN
  9
$DIMSTYLE
  2
1_RT2
  9
$DIMCLRD
 70
     0
  9
$DIMCLRE
 70
     0
  9
$DIMCLRT
 70
     0
  9
$DIMTFAC
 40
0.75
  9
$DIMGAP
 40
1.0
  9
$DIMJUST
 70
     0
  9
$DIMSD1
 70
     0
  9
$DIMSD2
 70
     0
  9
$DIMTOLJ
 70
     1
  9
$DIMTZIN
 70
     8
  9
$DIMALTZ
 70
     0
  9
$DIMALTTZ
 70
     0
  9
$DIMUPT
 70
     0
  9
$DIMDEC
 70
     3
  9
$DIMTDEC
 70
     3
  9
$DIMALTU
 70
     2
  9
$DIMALTTD
 70
     2
  9
$DIMTXSTY
  7
DIMFONT
  9
$DIMAUNIT
 70
     0
  9
$DIMADEC
 70
     0
  9
$DIMALTRND
 40
0.0
  9
$DIMAZIN
 70
     0
  9
$DIMDSEP
 70
    46
  9
$DIMATFIT
 70
     3
  9
$DIMFRAC
 70
     0
  9
$DIMLDRBLK
  1
OPEN
  9
$DIMLUNIT
 70
     2
  9
$DIMLWD
 70
    -2
  9
$DIMLWE
 70
    -2
  9
$DIMTMOVE
 70
     0
  9
$LUNITS
 70
     2
  9
$LUPREC
 70
     4
  9
$SKETCHINC
 40
0.1
  9
$FILLETRAD
 40
0.0
  9
$AUNITS
 70
     0
  9
$AUPREC
 70
     4
  9
$MENU
  1
acad
  9
$ELEVATION
 40
0.0
  9
$PELEVATION
 40
0.0
  9
$THICKNESS
 40
0.0
  9
$LIMCHECK
 70
     0
  9
$CHAMFERA
 40
0.625
  9
$CHAMFERB
 40
0.625
  9
$CHAMFERC
 40
0.0
  9
$CHAMFERD
 40
0.0
  9
$SKPOLY
 70
     0
  9
$TDCREATE
 40
2451059.629240902
  9
$TDUCREATE
 40
2451059.254240902
  9
$TDUPDATE
 40
2454973.603587963
  9
$TDUUPDATE
 40
2454973.228587963
  9
$TDINDWG
 40
0.8299161227
  9
$TDUSRTIMER
 40
0.8299159375
  9
$USRTIMER
 70
     1
  9
$ANGBASE
 50
0.0
  9
$ANGDIR
 70
     0
  9
$PDMODE
 70
    35
  9
$PDSIZE
 40
0.5
  9
$PLINEWID
 40
0.0
  9
$SPLFRAME
 70
     0
  9
$SPLINETYPE
 70
     6
  9
$SPLINESEGS
 70
     8
  9
$HANDSEED
  5
83CB
  9
$SURFTAB1
 70
     6
  9
$SURFTAB2
 70
     6
  9
$SURFTYPE
 70
     6
  9
$SURFU
 70
     6
  9
$SURFV
 70
     6
  9
$UCSBASE
  2

  9
$UCSNAME
  2

  9
$UCSORG
 10
0.0
 20
0.0
 30
0.0
  9
$UCSXDIR
 10
1.0
 20
0.0
 30
0.0
  9
$UCSYDIR
 10
0.0
 20
1.0
 30
0.0
  9
$UCSORTHOREF
  2

  9
$UCSORTHOVIEW
 70
     0
  9
$UCSORGTOP
 10
0.0
 20
0.0
 30
0.0
  9
$UCSORGBOTTOM
 10
0.0
 20
0.0
 30
0.0
  9
$UCSORGLEFT
 10
0.0
 20
0.0
 30
0.0
  9
$UCSORGRIGHT
 10
0.0
 20
0.0
 30
0.0
  9
$UCSORGFRONT
 10
0.0
 20
0.0
 30
0.0
  9
$UCSORGBACK
 10
0.0
 20
0.0
 30
0.0
  9
$PUCSBASE
  2

  9
$PUCSNAME
  2

  9
$PUCSORG
 10
0.0
 20
0.0
 30
0.0
  9
$PUCSXDIR
 10
1.0
 20
0.0
 30
0.0
  9
$PUCSYDIR
 10
0.0
 20
1.0
 30
0.0
  9
$PUCSORTHOREF
  2

  9
$PUCSORTHOVIEW
 70
     0
  9
$PUCSORGTOP
 10
0.0
 20
0.0
 30
0.0
  9
$PUCSORGBOTTOM
 10
0.0
 20
0.0
 30
0.0
  9
$PUCSORGLEFT
 10
0.0
 20
0.0
 30
0.0
  9
$PUCSORGRIGHT
 10
0.0
 20
0.0
 30
0.0
  9
$PUCSORGFRONT
 10
0.0
 20
0.0
 30
0.0
  9
$PUCSORGBACK
 10
0.0
 20
0.0
 30
0.0
  9
$USERI1
 70
     0
  9
$USERI2
 70
     0
  9
$USERI3
 70
     0
  9
$USERI4
 70
     0
  9
$USERI5
 70
     0
  9
$USERR1
 40
0.0
  9
$USERR2
 40
0.0
  9
$USERR3
 40
0.0
  9
$USERR4
 40
0.0
  9
$USERR5
 40
0.0
  9
$WORLDVIEW
 70
     1
  9
$SHADEDGE
 70
     3
  9
$SHADEDIF
 70
    70
  9
$TILEMODE
 70
     1
  9
$MAXACTVP
 70
    16
  9
$PINSBASE
 10
0.0
 20
0.0
 30
0.0
  9
$PLIMCHECK
 70
     0
  9
$PEXTMIN
 10
1.000000000000000E+20
 20
1.000000000000000E+20
 30
1.000000000000000E+20
  9
$PEXTMAX
 10
-1.000000000000000E+20
 20
-1.000000000000000E+20
 30
-1.000000000000000E+20
  9
$PLIMMIN
 10
-0.0049877929687501
 20
-0.0049999523162843
  9
$PLIMMAX
 10
840.9950122070311
 20
593.9950000476836
  9
$UNITMODE
 70
     0
  9
$VISRETAIN
 70
     0
  9
$PLINEGEN
 70
     1
  9
$PSLTSCALE
 70
     1
  9
$TREEDEPTH
 70
  3020
  9
$CMLSTYLE
  2
STANDARD
  9
$CMLJUST
 70
     0
  9
$CMLSCALE
 40
1.0
  9
$PROXYGRAPHICS
 70
     1
  9
$MEASUREMENT
 70
     1
  9
$CELWEIGHT
370
    -1
  9
$ENDCAPS
280
     0
  9
$JOINSTYLE
280
     0
  9
$LWDISPLAY
290
     0
  9
$INSUNITS
 70
     0
  9
$HYPERLINKBASE
  1

  9
$STYLESHEET
  1

  9
$XEDIT
290
     1
  9
$CEPSNTYPE
380
     0
  9
$PSTYLEMODE
290
     1
  9
$FINGERPRINTGUID
  2
{2EBDD19D-9749-41E9-8D24-C94541BED1E0}
  9
$VERSIONGUID
  2
{7B949D02-5808-46D3-8CFA-45CBF3C1CE01}
  9
$EXTNAMES
290
     1
  9
$PSVPSCALE
 40
0.0
  9
$OLESTARTUP
290
     0
  0
ENDSEC
  0
SECTION
  2
CLASSES
  0
CLASS
  1
ACDBDICTIONARYWDFLT
  2
AcDbDictionaryWithDefault
  3
AutoCAD 2000
 90
        0
280
     0
281
     0
  0
CLASS
  1
ACDBPLACEHOLDER
  2
AcDbPlaceHolder
  3
AutoCAD 2000
 90
        0
280
     0
281
     0
  0
CLASS
  1
LAYOUT
  2
AcDbLayout
  3
AutoCAD 2000
 90
        0
280
     0
281
     0
  0
CLASS
  1
PLOTSETTINGS
  2
AcDbPlotSettings
  3
AutoCAD 2000
 90
        0
280
     0
281
     0
  0
ENDSEC
  0
SECTION
  2
TABLES
  0
TABLE
  2
VPORT
  5
8
330
0
100
AcDbSymbolTable
 70
     2
  0
VPORT
  5
83CA
330
8
100
AcDbSymbolTableRecord
100
AcDbViewportTableRecord
  2
*Active
 70
     0
 10
0.0
 20
0.0
 11
1.0
 21
1.0
 12
1308.858619550291
 22
156.887558175073
 13
0.0
 23
0.0
 14
16.0
 24
16.0
 15
10.0
 25
10.0
 16
0.0
 26
0.0
 36
1.0
 17
0.0
 27
0.0
 37
0.0
 40
655.5178464717466
 41
1.493654822335025
 42
50.0
 43
0.0
 44
0.0
 50
0.0
 51
0.0
 71
     0
 72
   100
 73
     1
 74
     0
 75
     0
 76
     0
 77
     0
 78
     0
281
     0
 65
     1
110
0.0
120
0.0
130
0.0
111
1.0
121
0.0
131
0.0
112
0.0
122
1.0
132
0.0
 79
     0
146
0.0
  0
ENDTAB
  0
TABLE
  2
LTYPE
  5
5
330
0
100
AcDbSymbolTable
 70
     2
  0
LTYPE
  5
12
330
5
100
AcDbSymbolTableRecord
100
AcDbLinetypeTableRecord
  2
BYBLOCK
 70
     0
  3

 72
    65
 73
     0
 40
0.0
  0
LTYPE
  5
13
330
5
100
AcDbSymbolTableRecord
100
AcDbLinetypeTableRecord
  2
BYLAYER
 70
     0
  3

 72
    65
 73
     0
 40
0.0
  0
LTYPE
  5
14
330
5
100
AcDbSymbolTableRecord
100
AcDbLinetypeTableRecord
  2
CONTINUOUS
 70
     0
  3
Solid line
 72
    65
 73
     0
 40
0.0
  0
LTYPE
  5
21
330
5
100
AcDbSymbolTableRecord
100
AcDbLinetypeTableRecord
  2
HIDDEN
 70
     0
  3
Hidden __ __ __ __ __ __ __ __ __ __ __ __ __ _
 72
    65
 73
     2
 40
0.375
 49
0.25
 74
     0
 49
-0.125
 74
     0
  0
ENDTAB
  0
TABLE
  2
LAYER
  5
2
330
0
100
AcDbSymbolTable
 70
     6
  0
LAYER
  5
F
330
2
100
AcDbSymbolTableRecord
100
AcDbLayerTableRecord
  2
0
 70
     0
 62
     7
  6
CONTINUOUS
370
    -3
390
61A3
  0
LAYER
  5
2B
330
2
100
AcDbSymbolTableRecord
100
AcDbLayerTableRecord
  2
HIDDEN
 70
     0
 62
     7
  6
HIDDEN
370
    -3
390
61A3
  0
LAYER
  5
30
330
2
100
AcDbSymbolTableRecord
100
AcDbLayerTableRecord
  2
DRAW2
 70
     0
 62
     4
  6
CONTINUOUS
370
    -3
390
61A3
  0
LAYER
  5
B93
330
2
100
AcDbSymbolTableRecord
100
AcDbLayerTableRecord
  2
DRAW3
 70
     0
 62
     1
  6
CONTINUOUS
370
    -3
390
61A3
  0
LAYER
  5
1115
330
2
100
AcDbSymbolTableRecord
100
AcDbLayerTableRecord
  2
DEFPOINTS
 70
     0
 62
     7
  6
CONTINUOUS
290
     0
370
    -3
390
61A3
  0
ENDTAB
  0
TABLE
  2
STYLE
  5
3
330
0
100
AcDbSymbolTable
 70
     2
  0
STYLE
  5
10
330
3
100
AcDbSymbolTableRecord
100
AcDbTextStyleTableRecord
  2
STANDARD
 70
     0
 40
0.0
 41
1.0
 50
0.0
 71
     0
 42
0.2
  3
ROMANS.SHX
  4

  0
STYLE
  5
20
330
3
100
AcDbSymbolTableRecord
100
AcDbTextStyleTableRecord
  2
DIMFONT
 70
     0
 40
0.0
 41
1.0
 50
10.0
 71
     0
 42
3.2
  3
romans.shx
  4
extfont.shx
  0
ENDTAB
  0
TABLE
  2
VIEW
  5
6
330
0
100
AcDbSymbolTable
 70
     4
  0
VIEW
  5
24
330
6
100
AcDbSymbolTableRecord
100
AcDbViewTableRecord
  2
OLE1
 70
     0
 40
300.0
 10
232.1482602118003
 20
150.0
 41
464.2965204236006
 11
0.0
 21
0.0
 31
1.0
 12
0.0
 22
0.0
 32
0.0
 42
50.0
 43
0.0
 44
0.0
 50
0.0
 71
     0
281
     0
 72
     0
  0
VIEW
  5
E0E
330
6
100
AcDbSymbolTableRecord
100
AcDbViewTableRecord
  2
A1
 70
     1
 40
660.0
 10
511.7119266055046
 20
297.0
 41
1137.137614678898
 11
0.0
 21
0.0
 31
1.0
 12
0.0
 22
0.0
 32
0.0
 42
50.0
 43
0.0
 44
0.0
 50
0.0
 71
     0
281
     0
 72
     0
  0
VIEW
  5
E0F
330
6
100
AcDbSymbolTableRecord
100
AcDbViewTableRecord
  2
A2
 70
     1
 40
466.6666666666666
 10
361.8165137614679
 20
210.0
 41
804.0366972477063
 11
0.0
 21
0.0
 31
1.0
 12
0.0
 22
0.0
 32
0.0
 42
50.0
 43
0.0
 44
0.0
 50
0.0
 71
     0
281
     0
 72
     0
  0
VIEW
  5
E10
330
6
100
AcDbSymbolTableRecord
100
AcDbViewTableRecord
  2
A3
 70
     1
 40
330.0
 10
255.8559633027523
 20
148.5
 41
568.5688073394494
 11
0.0
 21
0.0
 31
1.0
 12
0.0
 22
0.0
 32
0.0
 42
50.0
 43
0.0
 44
0.0
 50
0.0
 71
     0
281
     0
 72
     0
  0
ENDTAB
  0
TABLE
  2
UCS
  5
7
330
0
100
AcDbSymbolTable
 70
     0
  0
ENDTAB
  0
TABLE
  2
APPID
  5
9
330
0
100
AcDbSymbolTable
 70
     1
  0
APPID
  5
11
330
9
100
AcDbSymbolTableRecord
100
AcDbRegAppTableRecord
  2
ACAD
 70
     0
  0
ENDTAB
  0
TABLE
  2
DIMSTYLE
  5
A
330
0
100
AcDbSymbolTable
 70
     2
100
AcDbDimStyleTable
 71
     1
340
BA5
  0
DIMSTYLE
105
BA5
330
A
100
AcDbSymbolTableRecord
100
AcDbDimStyleTableRecord
  2
1_RT2
 70
     0
 40
1.414
 41
3.0
 42
0.0
 43
10.0
 44
1.0
 47
0.5
 73
     0
 74
     0
 77
     3
 78
     8
140
3.2
141
0.0
146
0.75
147
1.0
172
     1
173
     1
271
     3
272
     3
284
     8
340
20
341
F97
343
F97
344
F97
  0
DIMSTYLE
105
61B3
330
A
100
AcDbSymbolTableRecord
100
AcDbDimStyleTableRecord
  2
STANDARD
 70
     0
340
10
  0
ENDTAB
  0
TABLE
  2
BLOCK_RECORD
  5
1
330
0
100
AcDbSymbolTable
 70
     1
  0
BLOCK_RECORD
  5
18
330
1
100
AcDbSymbolTableRecord
100
AcDbBlockTableRecord
  2
*MODEL_SPACE
340
61A6
  0
BLOCK_RECORD
  5
15
330
1
100
AcDbSymbolTableRecord
100
AcDbBlockTableRecord
  2
*PAPER_SPACE
340
61A7
  0
BLOCK_RECORD
  5
F97
330
1
100
AcDbSymbolTableRecord
100
AcDbBlockTableRecord
  2
_OPEN
340
0
102
{BLKREFS
331
7E22
331
7E23
331
7E4F
331
7E50
331
7E97
331
7E98
331
7EFE
331
7EFF
331
7F12
331
7F13
331
801F
331
8020
331
8031
331
8032
331
8045
331
8046
331
8059
331
805A
331
8074
331
8075
331
8086
331
8087
331
812F
331
8130
331
8141
331
8142
331
814A
331
814B
331
83B6
331
83B7
102
}
  0
ENDTAB
  0
ENDSEC
  0
SECTION
  2
BLOCKS
  0
BLOCK
  5
36
330
18
100
AcDbEntity
  8
0
100
AcDbBlockBegin
  2
*MODEL_SPACE
 70
     0
 10
0.0
 20
0.0
 30
0.0
  3
*MODEL_SPACE
  1

  0
ENDBLK
  5
37
330
18
100
AcDbEntity
  8
0
100
AcDbBlockEnd
  0
BLOCK
  5
34
330
15
100
AcDbEntity
 67
     1
  8
0
100
AcDbBlockBegin
  2
*PAPER_SPACE
 70
     0
 10
0.0
 20
0.0
 30
0.0
  3
*PAPER_SPACE
  1

  0
ENDBLK
  5
35
330
15
100
AcDbEntity
 67
     1
  8
0
100
AcDbBlockEnd
  0
BLOCK
  5
F9B
330
F97
100
AcDbEntity
  8
0
100
AcDbBlockBegin
  2
_OPEN
 70
     0
 10
0.0
 20
0.0
 30
0.0
  3
_OPEN
  1

  0
LINE
  5
F98
330
F97
100
AcDbEntity
  8
0
  6
ByBlock
 62
     0
100
AcDbLine
 10
-1.0
 20
0.1666666666666666
 30
0.0
 11
0.0
 21
0.0
 31
0.0
  0
LINE
  5
F99
330
F97
100
AcDbEntity
  8
0
  6
ByBlock
 62
     0
100
AcDbLine
 10
0.0
 20
0.0
 30
0.0
 11
-1.0
 21
-0.1666666666666666
 31
0.0
  0
LINE
  5
F9A
330
F97
100
AcDbEntity
  8
0
  6
ByBlock
 62
     0
100
AcDbLine
 10
0.0
 20
0.0
 30
0.0
 11
-1.0
 21
0.0
 31
0.0
  0
ENDBLK
  5
F9C
330
F97
100
AcDbEntity
  8
0
100
AcDbBlockEnd
  0
ENDSEC
  0
SECTION
  2
ENTITIES
  0
TEXT
  5
1870
330
18
100
AcDbEntity
  8
0
100
AcDbText
 10
-1223.364018180525
 20
572.0074490458658
 30
0.0
 40
4.479999999999998
  1

 51
10.0
  7
DIMFONT
100
AcDbText
  0
TEXT
  5
1871
330
18
100
AcDbEntity
  8
0
100
AcDbText
 10
-1201.041391071743
 20
537.1239996782228
 30
0.0
 40
4.479999999999998
  1

 51
10.0
  7
DIMFONT
100
AcDbText
  0
TEXT
  5
1A4A
330
18
100
AcDbEntity
  8
0
100
AcDbText
 10
-1167.329334417902
 20
512.6338986489407
 30
0.0
 40
4.479999999999998
  1

 51
10.0
  7
DIMFONT
100
AcDbText
  0
TEXT
  5
1A4B
330
18
100
AcDbEntity
  8
0
100
AcDbText
 10
-1145.006707309119
 20
477.7504492812973
 30
0.0
 40
4.479999999999998
  1

 51
10.0
  7
DIMFONT
100
AcDbText
  0
TEXT
  5
1C1F
330
18
100
AcDbEntity
  8
0
100
AcDbText
 10
-1305.629912637455
 20
275.1396985818771
 30
0.0
 40
4.479999999999998
  1

 51
10.0
  7
DIMFONT
100
AcDbText
  0
TEXT
  5
1C20
330
18
100
AcDbEntity
  8
0
100
AcDbText
 10
-1283.307285528674
 20
240.2562492142338
 30
0.0
 40
4.479999999999998
  1

 51
10.0
  7
DIMFONT
100
AcDbText
  0
TEXT
  5
3EEA
330
18
100
AcDbEntity
  8
0
100
AcDbText
 10
235.954798102189
 20
87.64520189781077
 30
0.0
 40
4.524799999999999
  1

 51
10.0
  7
DIMFONT
100
AcDbText
  0
TEXT
  5
4C01
330
18
100
AcDbEntity
  8
0
100
AcDbText
 10
1395.296876896412
 20
91.92236867201618
 30
0.0
 40
3.2
  1

 51
10.0
  7
DIMFONT
100
AcDbText
  0
TEXT
  5
4C02
330
18
100
AcDbEntity
  8
0
100
AcDbText
 10
1611.739048143872
 20
91.92236867201618
 30
0.0
 40
3.2
  1

 51
10.0
  7
DIMFONT
100
AcDbText
  0
TEXT
  5
4C1E
330
18
100
AcDbEntity
  8
0
100
AcDbText
 10
-2118.010733268499
 20
356.6884089637612
 30
0.0
 40
4.479999999999998
  1

 51
10.0
  7
DIMFONT
100
AcDbText
  0
TEXT
  5
4C1F
330
18
100
AcDbEntity
  8
0
100
AcDbText
 10
-2095.688106159717
 20
321.804959596118
 30
0.0
 40
4.479999999999998
  1

 51
10.0
  7
DIMFONT
100
AcDbText
  0
TEXT
  5
4C20
330
18
100
AcDbEntity
  8
0
100
AcDbText
 10
-1656.354924878338
 20
570.3681571944339
 30
0.0
 40
4.479999999999998
  1

 51
10.0
  7
DIMFONT
100
AcDbText
  0
TEXT
  5
4C21
330
18
100
AcDbEntity
  8
0
100
AcDbText
 10
-1634.032297769556
 20
535.4847078267908
 30
0.0
 40
4.479999999999998
  1

 51
10.0
  7
DIMFONT
100
AcDbText
  0
TEXT
  5
4C2F
330
18
100
AcDbEntity
  8
0
100
AcDbText
 10
-2581.623079150864
 20
729.8206240173751
 30
0.0
 40
4.479999999999998
  1

 51
10.0
  7
DIMFONT
100
AcDbText
  0
TEXT
  5
4C30
330
18
100
AcDbEntity
  8
0
100
AcDbText
 10
-2559.300452042083
 20
694.937174649732
 30
0.0
 40
4.479999999999998
  1

 51
10.0
  7
DIMFONT
100
AcDbText
  0
TEXT
  5
4C31
330
18
100
AcDbEntity
  8
0
100
AcDbText
 10
-2525.588395388242
 20
670.4470736204497
 30
0.0
 40
4.479999999999998
  1

 51
10.0
  7
DIMFONT
100
AcDbText
  0
TEXT
  5
4C32
330
18
100
AcDbEntity
  8
0
100
AcDbText
 10
-2503.26576827946
 20
635.5636242528066
 30
0.0
 40
4.479999999999998
  1

 51
10.0
  7
DIMFONT
100
AcDbText
  0
TEXT
  5
4C33
330
18
100
AcDbEntity
  8
0
100
AcDbText
 10
-2663.888973607795
 20
432.9528735533862
 30
0.0
 40
4.479999999999998
  1

 51
10.0
  7
DIMFONT
100
AcDbText
  0
TEXT
  5
4C34
330
18
100
AcDbEntity
  8
0
100
AcDbText
 10
-2641.566346499013
 20
398.0694241857431
 30
0.0
 40
4.479999999999998
  1

 51
10.0
  7
DIMFONT
100
AcDbText
  0
TEXT
  5
4C35
330
18
100
AcDbEntity
  8
0
100
AcDbText
 10
-1222.336210605627
 20
505.6987108356103
 30
0.0
 40
3.2
  1

 51
10.0
  7
DIMFONT
100
AcDbText
  0
TEXT
  5
4C36
330
18
100
AcDbEntity
  8
0
100
AcDbText
 10
-1005.894039358165
 20
505.6987108356103
 30
0.0
 40
3.2
  1

 51
10.0
  7
DIMFONT
100
AcDbText
  0
TEXT
  5
4C37
330
18
100
AcDbEntity
  8
0
100
AcDbText
 10
-976.1430449312676
 20
-52.8627078586124
 30
0.0
 40
4.479999999999998
  1

 51
10.0
  7
DIMFONT
100
AcDbText
  0
TEXT
  5
4C38
330
18
100
AcDbEntity
  8
0
100
AcDbText
 10
-953.8204178224859
 20
-87.74615722625554
 30
0.0
 40
4.479999999999998
  1

 51
10.0
  7
DIMFONT
100
AcDbText
  0
TEXT
  5
4C3E
330
18
100
AcDbEntity
  8
0
100
AcDbText
 10
-1979.121855769536
 20
789.1110793367926
 30
0.0
 40
3.2
  1

 51
10.0
  7
DIMFONT
100
AcDbText
  0
TEXT
  5
4C3F
330
18
100
AcDbEntity
  8
0
100
AcDbText
 10
-1762.679684522074
 20
789.1110793367926
 30
0.0
 40
3.2
  1

 51
10.0
  7
DIMFONT
100
AcDbText
  0
TEXT
  5
4C40
330
18
100
AcDbEntity
  8
0
100
AcDbText
 10
-1235.527975970339
 20
255.1585170850426
 30
0.0
 40
3.2
  1

 51
10.0
  7
DIMFONT
100
AcDbText
  0
TEXT
  5
4C43
330
18
100
AcDbEntity
  8
0
100
AcDbText
 10
-1235.941975970338
 20
255.5725170850426
 30
0.0
 40
3.2
  1

 51
10.0
  7
DIMFONT
100
AcDbText
  0
TEXT
  5
4CAB
330
18
100
AcDbEntity
  8
0
100
AcDbText
 10
381.2349228527372
 20
594.6155401153647
 30
0.0
 40
3.2
  1

 51
10.0
  7
DIMFONT
100
AcDbText
  0
TEXT
  5
4CAC
330
18
100
AcDbEntity
  8
0
100
AcDbText
 10
597.6770941001989
 20
594.6155401153647
 30
0.0
 40
3.2
  1

 51
10.0
  7
DIMFONT
100
AcDbText
  0
TEXT
  5
4CBB
330
18
100
AcDbEntity
  8
0
100
AcDbText
 10
1025.308941982227
 20
757.5327884832733
 30
0.0
 40
3.2
  1

 51
10.0
  7
DIMFONT
100
AcDbText
  0
TEXT
  5
4CBC
330
18
100
AcDbEntity
  8
0
100
AcDbText
 10
1241.751113229691
 20
757.5327884832733
 30
0.0
 40
3.2
  1

 51
10.0
  7
DIMFONT
100
AcDbText
  0
TEXT
  5
5826
330
18
100
AcDbEntity
  8
0
100
AcDbText
 10
904.0938279181936
 20
765.674651244663
 30
0.0
 40
3.2
  1

 51
10.0
  7
DIMFONT
100
AcDbText
  0
TEXT
  5
5827
330
18
100
AcDbEntity
  8
0
100
AcDbText
 10
1120.535999165655
 20
765.674651244663
 30
0.0
 40
3.2
  1

 51
10.0
  7
DIMFONT
100
AcDbText
  0
LINE
  5
8157
330
18
100
AcDbEntity
  8
DRAW2
100
AcDbLine
 10
971.3594182088703
 20
-89.00000000000028
 30
0.0
 11
971.3594182088703
 21
88.9999999999997
 31
0.0
  0
LINE
  5
8158
330
18
100
AcDbEntity
  8
DRAW2
100
AcDbLine
 10
951.3594182088704
 20
-58.78203347706653
 30
0.0
 11
951.3594182088704
 21
-79.78203347706653
 31
0.0
  0
LINE
  5
8159
330
18
100
AcDbEntity
  8
DRAW2
100
AcDbLine
 10
981.3594182088703
 20
-90.00000000000028
 30
0.0
 11
981.3594182088703
 21
90.0000009999997
 31
0.0
  0
LINE
  5
815A
330
18
100
AcDbEntity
  8
DRAW2
100
AcDbLine
 10
949.3594182088703
 20
-60.78203347706653
 30
0.0
 11
951.3594182088704
 21
-58.78203347706653
 31
0.0
  0
LINE
  5
815B
330
18
100
AcDbEntity
  8
DRAW2
100
AcDbLine
 10
1203.359418208869
 20
88.9999999999997
 30
0.0
 11
1203.359418208869
 21
-89.00000000000028
 31
0.0
  0
LINE
  5
815C
330
18
100
AcDbEntity
  8
DRAW2
100
AcDbLine
 10
1193.359418208869
 20
-89.00000000000028
 30
0.0
 11
1193.359418208869
 21
88.9999999999997
 31
0.0
  0
LINE
  5
815D
330
18
100
AcDbEntity
  8
DRAW2
100
AcDbLine
 10
1223.359418208869
 20
-58.78203347706653
 30
0.0
 11
1223.359418208869
 21
-79.78203347706653
 31
0.0
  0
LINE
  5
815E
330
18
100
AcDbEntity
  8
DRAW2
100
AcDbLine
 10
1044.35941820887
 20
90.0000009999997
 30
0.0
 11
1044.35941820887
 21
-90.00000000000028
 31
0.0
  0
LINE
  5
815F
330
18
100
AcDbEntity
  8
DRAW2
100
AcDbLine
 10
1130.359418208869
 20
90.0000009999997
 30
0.0
 11
1130.359418208869
 21
-90.00000000000028
 31
0.0
  0
LINE
  5
8160
330
18
100
AcDbEntity
  8
DRAW2
100
AcDbLine
 10
1193.359418208869
 20
-90.00000000000028
 30
0.0
 11
1193.359418208869
 21
90.0000009999997
 31
0.0
  0
LINE
  5
8161
330
18
100
AcDbEntity
  8
DRAW2
100
AcDbLine
 10
1045.859418208869
 20
-89.00000000000028
 30
0.0
 11
1045.859418208869
 21
88.9999999999997
 31
0.0
  0
LINE
  5
8162
330
18
100
AcDbEntity
  8
DRAW2
100
AcDbLine
 10
1128.859418208869
 20
-89.00000000000028
 30
0.0
 11
1128.859418208869
 21
88.9999999999997
 31
0.0
  0
LINE
  5
8163
330
18
100
AcDbEntity
  8
DRAW2
100
AcDbLine
 10
1225.359418208869
 20
-60.78203347706653
 30
0.0
 11
1223.359418208869
 21
-58.78203347706653
 31
0.0
  0
LINE
  5
8164
330
18
100
AcDbEntity
  8
DRAW2
100
AcDbLine
 10
997.8594182088704
 20
-110.0000000000002
 30
0.0
 11
1014.859418208869
 21
-110.0000000000002
 31
0.0
  0
LINE
  5
8165
330
18
100
AcDbEntity
  8
DRAW2
100
AcDbLine
 10
1016.859418208869
 20
-112.0000000000002
 30
0.0
 11
995.8594182088702
 21
-112.0000000000002
 31
0.0
  0
LINE
  5
8166
330
18
100
AcDbEntity
  8
DRAW2
100
AcDbLine
 10
1044.35941820887
 20
-90.00000000000028
 30
0.0
 11
981.3594182088703
 21
-90.00000000000028
 31
0.0
  0
LINE
  5
8167
330
18
100
AcDbEntity
  8
DRAW2
100
AcDbLine
 10
981.3594182088698
 20
-90.00000100000027
 30
0.0
 11
1044.35941820887
 21
-90.00000100000027
 31
0.0
  0
LINE
  5
8168
330
18
100
AcDbEntity
  8
DRAW2
100
AcDbLine
 10
1019.637044246467
 20
-168.0
 30
0.0
 11
993.0818074300614
 21
-168.0
 31
0.0
  0
LINE
  5
8169
330
18
100
AcDbEntity
  8
DRAW2
100
AcDbLine
 10
981.3594182088698
 20
-132.0000010000001
 30
0.0
 11
1044.35941820887
 21
-132.0000010000001
 31
0.0
  0
LINE
  5
816A
330
18
100
AcDbEntity
  8
DRAW2
100
AcDbLine
 10
981.3594182088698
 20
-132.0000000000002
 30
0.0
 11
1193.359418208869
 21
-132.0000000000002
 31
0.0
  0
LINE
  5
816B
330
18
100
AcDbEntity
  8
DRAW2
100
AcDbLine
 10
981.3594182088698
 20
-148.0000000000002
 30
0.0
 11
1193.359418208869
 21
-148.0000000000002
 31
0.0
  0
LINE
  5
816D
330
18
100
AcDbEntity
  8
DRAW2
100
AcDbLine
 10
981.3594182088698
 20
-90.00000100000027
 30
0.0
 11
981.3594182088698
 21
-132.0000010000001
 31
0.0
  0
LINE
  5
816E
330
18
100
AcDbEntity
  8
DRAW2
100
AcDbLine
 10
995.8594182088702
 20
-112.0000000000002
 30
0.0
 11
995.8594182088702
 21
-132.0000000000002
 31
0.0
  0
LINE
  5
816F
330
18
100
AcDbEntity
  8
DRAW2
100
AcDbLine
 10
988.3594105794754
 20
-148.0
 30
0.0
 11
991.1039174154128
 21
-166.2966842651368
 31
0.0
  0
ARC
  5
8170
330
18
100
AcDbEntity
  8
DRAW2
100
AcDbCircle
 10
993.0818074300614
 20
-166.0
 30
0.0
 40
1.999999999999999
100
AcDbArc
 50
188.5307671650844
 51
269.9999974955223
  0
LINE
  5
8171
330
18
100
AcDbEntity
  8
DRAW2
100
AcDbLine
 10
981.3594182088698
 20
-132.0000000000002
 30
0.0
 11
981.3594182088698
 21
-148.0000000000002
 31
0.0
  0
LINE
  5
8172
330
18
100
AcDbEntity
  8
DRAW2
100
AcDbLine
 10
995.8594182088702
 20
-112.0000000000002
 30
0.0
 11
997.8594182088704
 21
-110.0000000000002
 31
0.0
  0
LINE
  5
8173
330
18
100
AcDbEntity
  8
DRAW2
100
AcDbLine
 10
951.3594182088704
 20
-79.78203347706653
 30
0.0
 11
971.3594182088703
 21
-79.78203347706653
 31
0.0
  0
LINE
  5
8175
330
18
100
AcDbEntity
  8
DRAW2
100
AcDbLine
 10
949.3594182088703
 20
-77.78203347706655
 30
0.0
 11
949.3594182088703
 21
-60.78203347706653
 31
0.0
  0
LINE
  5
8176
330
18
100
AcDbEntity
  8
DRAW2
100
AcDbLine
 10
951.3594182088704
 20
-79.78203347706653
 30
0.0
 11
949.3594182088703
 21
-77.78203347706655
 31
0.0
  0
LINE
  5
8177
330
18
100
AcDbEntity
  8
DRAW2
100
AcDbLine
 10
981.3594182088703
 20
-89.00000000000028
 30
0.0
 11
971.3594182088703
 21
-89.00000000000028
 31
0.0
  0
LINE
  5
8178
330
18
100
AcDbEntity
  8
DRAW2
100
AcDbLine
 10
1130.359418208869
 20
-90.00000000000028
 30
0.0
 11
1193.359418208869
 21
-90.00000000000028
 31
0.0
  0
LINE
  5
8179
330
18
100
AcDbEntity
  8
DRAW2
100
AcDbLine
 10
1130.359418208869
 20
-90.00000100000027
 30
0.0
 11
1193.359418208869
 21
-90.00000100000027
 31
0.0
  0
ARC
  5
817A
330
18
100
AcDbEntity
  8
DRAW2
100
AcDbCircle
 10
1155.08180743006
 20
-166.0
 30
0.0
 40
1.999999999999999
100
AcDbArc
 50
188.5307671650844
 51
269.9999974955223
  0
LINE
  5
817B
330
18
100
AcDbEntity
  8
DRAW2
100
AcDbLine
 10
1130.359418208869
 20
-132.0000010000001
 30
0.0
 11
1193.359418208869
 21
-132.0000010000001
 31
0.0
  0
LINE
  5
817C
330
18
100
AcDbEntity
  8
DRAW2
100
AcDbLine
 10
1130.359418208869
 20
-90.00000100000027
 30
0.0
 11
1130.359418208869
 21
-132.0000010000001
 31
0.0
  0
LINE
  5
817D
330
18
100
AcDbEntity
  8
DRAW2
100
AcDbLine
 10
1044.35941820887
 20
-90.00000100000027
 30
0.0
 11
1044.35941820887
 21
-132.0000010000001
 31
0.0
  0
LINE
  5
817E
330
18
100
AcDbEntity
  8
DRAW2
100
AcDbLine
 10
1016.859418208869
 20
-112.0000000000002
 30
0.0
 11
1016.859418208869
 21
-132.0000000000002
 31
0.0
  0
LINE
  5
817F
330
18
100
AcDbEntity
  8
DRAW2
100
AcDbLine
 10
1044.35941820887
 20
-127.0000010000002
 30
0.0
 11
1130.359418208869
 21
-127.0000010000002
 31
0.0
  0
LINE
  5
8180
330
18
100
AcDbEntity
  8
DRAW2
100
AcDbLine
 10
1024.359425838264
 20
-147.9999923706056
 30
0.0
 11
1021.614919002326
 21
-166.2966842651368
 31
0.0
  0
ARC
  5
8181
330
18
100
AcDbEntity
  8
DRAW2
100
AcDbCircle
 10
1019.637044246467
 20
-166.0
 30
0.0
 40
2.000000000000002
100
AcDbArc
 50
269.9999974955223
 51
351.4692328349155
  0
LINE
  5
8182
330
18
100
AcDbEntity
  8
DRAW2
100
AcDbLine
 10
1150.359410579474
 20
-148.0
 30
0.0
 11
1153.103917415412
 21
-166.2966842651368
 31
0.0
  0
LINE
  5
8183
330
18
100
AcDbEntity
  8
DRAW2
100
AcDbLine
 10
1044.35941820887
 20
-95.00000100000027
 30
0.0
 11
1130.359418208869
 21
-95.00000100000027
 31
0.0
  0
LINE
  5
8184
330
18
100
AcDbEntity
  8
DRAW2
100
AcDbLine
 10
1045.859418208869
 20
-89.00000000000028
 30
0.0
 11
1128.859418208869
 21
-89.00000000000028
 31
0.0
  0
LINE
  5
8185
330
18
100
AcDbEntity
  8
DRAW2
100
AcDbLine
 10
1014.859418208869
 20
-110.0000000000002
 30
0.0
 11
1016.859418208869
 21
-112.0000000000002
 31
0.0
  0
LWPOLYLINE
  5
8187
330
18
100
AcDbEntity
  8
DRAW2
100
AcDbPolyline
 90
       17
 70
     1
 43
0.0
 10
1073.35355920887
 20
-69.29646300000029
 42
0.1441297
 10
1072.356997208869
 20
-65.99771300000025
 42
0.093479346
 10
1069.984631208869
 20
-63.46020500000023
 42
0.074892287
 10
1066.893488208868
 20
-61.86119600000028
 42
0.061762915
 10
1063.48671720887
 20
-61.12539900000029
 42
0.067117896
 10
1060.006920208868
 20
-61.28910800000028
 42
0.062797663
 10
1056.677559208869
 20
-62.32327300000024
 42
0.084705941
 10
1053.787309208868
 20
-64.25753300000024
 42
0.10446627
 10
1051.797202208869
 20
-67.09882100000026
 42
0.15690399
 10
1051.512337208869
 20
-70.5242590000003
 42
0.14388159
 10
1053.24132620887
 20
-73.50548800000026
 42
0.08665179
 10
1056.153613208869
 20
-75.40321500000024
 42
0.063751762
 10
1059.494834208869
 20
-76.39096500000026
 42
0.048923639
 10
1062.976587208869
 20
-76.60991600000027
 42
0.053363503
 10
1066.432573208869
 20
-76.1389470000003
 42
0.067552254
 10
1069.667149208868
 20
-74.84534400000028
 42
0.10899238
 10
1072.281048208868
 20
-72.56807400000029
 42
0.15291726
  0
LWPOLYLINE
  5
8188
330
18
100
AcDbEntity
  8
DRAW3
100
AcDbPolyline
 90
        9
 70
     0
 43
0.0
 10
1055.82618813831
 20
-62.75242548154549
 42
0.118257230954469
 10
1056.470587208869
 20
-64.29883900000024
 42
0.10417681
 10
1058.107138208868
 20
-65.77467600000026
 42
0.07315245
 10
1060.157558208869
 20
-66.60880100000024
 42
0.06130704
 10
1062.357396208869
 20
-66.87709800000026
 42
0.061285872
 10
1064.556969208868
 20
-66.60988200000024
 42
0.073109043
 10
1066.607786208869
 20
-65.77701700000027
 42
0.10420815
 10
1068.24683720887
 20
-64.30084300000024
 42
0.1180246542087425
 10
1068.891769285535
 20
-62.757775046761
 42
0.1558112
  0
LWPOLYLINE
  5
8189
330
18
100
AcDbEntity
  8
DRAW2
100
AcDbPolyline
 90
        9
 70
     0
 43
0.0
 10
1056.750493488582
 20
-62.29037567171882
 42
0.0988728266790478
 10
1057.26155320887
 20
-63.39554400000023
 42
0.10417678
 10
1058.678289208869
 20
-64.67315300000028
 42
0.073152481
 10
1060.453304208869
 20
-65.39524200000028
 42
0.061361847
 10
1062.359418208869
 20
-65.62750200000026
 42
0.061290779
 10
1064.263500208869
 20
-65.39575200000029
 42
0.073168429
 10
1066.039449208868
 20
-64.67381100000027
 42
0.10426978
 10
1067.457596208869
 20
-63.39509900000027
 42
0.0990731076800199
 10
1067.969028654162
 20
-62.2875575598366
 42
0.15581115
  0
LWPOLYLINE
  5
818A
330
18
100
AcDbEntity
  8
DRAW2
100
AcDbPolyline
 90
        7
 70
     0
 43
0.0
 10
1052.538663209307
 20
-65.7280028054593
 42
0.1029892916802199
 10
1055.251303208869
 20
-68.16150100000026
 42
0.073140364
 10
1058.680199208869
 20
-69.55558500000027
 42
0.061315596
 10
1062.359418208869
 20
-70.00357100000023
 42
0.061290711
 10
1066.037253208869
 20
-69.55593200000025
 42
0.073126891
 10
1069.466074208869
 20
-68.16237400000026
 42
0.1030010788368079
 10
1072.179721603216
 20
-65.72863341630697
 42
0.15584046
  0
LINE
  5
818B
330
18
100
AcDbEntity
  8
DRAW2
100
AcDbLine
 10
1045.859418208869
 20
-73.28220941904493
 30
0.0
 11
1044.35941820887
 21
-73.28220941904493
 31
0.0
  0
LWPOLYLINE
  5
818C
330
18
100
AcDbEntity
  8
DRAW2
100
AcDbPolyline
 90
        9
 70
     0
 43
0.0
 10
1106.750493488582
 20
-62.29037567171888
 42
0.0988728266790455
 10
1107.261553208868
 20
-63.39554400000023
 42
0.10417678
 10
1108.678289208869
 20
-64.67315300000028
 42
0.073152481
 10
1110.45330420887
 20
-65.39524200000028
 42
0.061361847
 10
1112.359418208869
 20
-65.62750200000026
 42
0.061290779
 10
1114.263500208869
 20
-65.39575200000029
 42
0.073168429
 10
1116.039449208868
 20
-64.67381100000027
 42
0.10426978
 10
1117.457596208869
 20
-63.39509900000027
 42
0.0990731076800199
 10
1117.969028654161
 20
-62.2875575598366
 42
0.15581115
  0
LWPOLYLINE
  5
818D
330
18
100
AcDbEntity
  8
DRAW3
100
AcDbPolyline
 90
        9
 70
     0
 43
0.0
 10
1105.82618813831
 20
-62.75242548154549
 42
0.1182572309544668
 10
1106.470587208869
 20
-64.29883900000024
 42
0.10417681
 10
1108.107138208868
 20
-65.77467600000026
 42
0.07315245
 10
1110.157558208869
 20
-66.60880100000024
 42
0.06130704
 10
1112.357396208869
 20
-66.87709800000026
 42
0.061285872
 10
1114.556969208869
 20
-66.60988200000024
 42
0.073109043
 10
1116.607786208869
 20
-65.77701700000027
 42
0.10420815
 10
1118.24683720887
 20
-64.30084300000024
 42
0.1180246542087433
 10
1118.891769285536
 20
-62.757775046761
 42
0.1558112
  0
LWPOLYLINE
  5
818E
330
18
100
AcDbEntity
  8
DRAW2
100
AcDbPolyline
 90
        7
 70
     0
 43
0.0
 10
1102.538663209307
 20
-65.7280028054593
 42
0.1029892916802202
 10
1105.251303208869
 20
-68.16150100000026
 42
0.073140364
 10
1108.680199208869
 20
-69.55558500000027
 42
0.061315596
 10
1112.359418208869
 20
-70.00357100000023
 42
0.061290711
 10
1116.037253208869
 20
-69.55593200000025
 42
0.073126891
 10
1119.466074208869
 20
-68.16237400000026
 42
0.1030010788368072
 10
1122.179721603216
 20
-65.72863341630697
 42
0.15584046
  0
LWPOLYLINE
  5
818F
330
18
100
AcDbEntity
  8
DRAW2
100
AcDbPolyline
 90
       17
 70
     1
 43
0.0
 10
1123.353559208869
 20
-69.29646300000029
 42
0.1441297
 10
1122.356997208868
 20
-65.99771300000025
 42
0.093479346
 10
1119.984631208869
 20
-63.46020500000023
 42
0.074892287
 10
1116.893488208869
 20
-61.86119600000028
 42
0.061762915
 10
1113.486717208869
 20
-61.12539900000029
 42
0.067117896
 10
1110.00692020887
 20
-61.28910800000028
 42
0.062797663
 10
1106.677559208869
 20
-62.32327300000024
 42
0.084705941
 10
1103.787309208869
 20
-64.25753300000024
 42
0.10446627
 10
1101.797202208869
 20
-67.09882100000026
 42
0.15690399
 10
1101.512337208869
 20
-70.5242590000003
 42
0.14388159
 10
1103.24132620887
 20
-73.50548800000026
 42
0.08665179
 10
1106.153613208869
 20
-75.40321500000024
 42
0.063751762
 10
1109.494834208869
 20
-76.39096500000026
 42
0.048923639
 10
1112.976587208869
 20
-76.60991600000027
 42
0.053363503
 10
1116.43257320887
 20
-76.1389470000003
 42
0.067552254
 10
1119.667149208869
 20
-74.84534400000028
 42
0.10899238
 10
1122.281048208868
 20
-72.56807400000029
 42
0.15291726
  0
LINE
  5
8191
330
18
100
AcDbEntity
  8
DRAW2
100
AcDbLine
 10
1128.859418208869
 20
-73.28220941904493
 30
0.0
 11
1130.359418208869
 21
-73.28220941904493
 31
0.0
  0
LINE
  5
8192
330
18
100
AcDbEntity
  8
DRAW2
100
AcDbLine
 10
1223.359418208869
 20
-92.50000100000027
 30
0.0
 11
1223.359418208869
 21
-129.5000010000002
 31
0.0
  0
LINE
  5
8193
330
18
100
AcDbEntity
  8
DRAW2
100
AcDbLine
 10
1221.359418208869
 20
-131.5000010000001
 30
0.0
 11
1221.359418208869
 21
-90.50000100000028
 31
0.0
  0
LINE
  5
8194
330
18
100
AcDbEntity
  8
DRAW2
100
AcDbLine
 10
1193.359418208869
 20
-90.00000100000027
 30
0.0
 11
1193.359418208869
 21
-132.0000010000001
 31
0.0
  0
LINE
  5
8195
330
18
100
AcDbEntity
  8
DRAW2
100
AcDbLine
 10
1178.859418208869
 20
-112.0000000000002
 30
0.0
 11
1178.859418208869
 21
-132.0000000000002
 31
0.0
  0
LINE
  5
8196
330
18
100
AcDbEntity
  8
DRAW2
100
AcDbLine
 10
1157.859418208869
 20
-112.0000000000002
 30
0.0
 11
1157.859418208869
 21
-132.0000000000002
 31
0.0
  0
LINE
  5
8197
330
18
100
AcDbEntity
  8
DRAW2
100
AcDbLine
 10
1186.359425838263
 20
-147.9999923706056
 30
0.0
 11
1183.614919002326
 21
-166.2966842651368
 31
0.0
  0
LINE
  5
8198
330
18
100
AcDbEntity
  8
DRAW2
100
AcDbLine
 10
1181.637044246466
 20
-168.0
 30
0.0
 11
1155.08180743006
 21
-168.0
 31
0.0
  0
ARC
  5
8199
330
18
100
AcDbEntity
  8
DRAW2
100
AcDbCircle
 10
1181.637044246466
 20
-166.0
 30
0.0
 40
2.000000000000002
100
AcDbArc
 50
269.9999974955223
 51
351.4692328349155
  0
LINE
  5
819A
330
18
100
AcDbEntity
  8
DRAW2
100
AcDbLine
 10
1193.359418208869
 20
-148.0000000000002
 30
0.0
 11
1193.359418208869
 21
-132.0000000000002
 31
0.0
  0
LINE
  5
819B
330
18
100
AcDbEntity
  8
DRAW2
100
AcDbLine
 10
1193.359418208869
 20
-131.5000010000001
 30
0.0
 11
1221.359418208869
 21
-131.5000010000001
 31
0.0
  0
LINE
  5
819C
330
18
100
AcDbEntity
  8
DRAW2
100
AcDbLine
 10
1223.359418208869
 20
-129.5000010000002
 30
0.0
 11
1221.359418208869
 21
-131.5000010000001
 31
0.0
  0
LINE
  5
819E
330
18
100
AcDbEntity
  8
DRAW2
100
AcDbLine
 10
1221.359418208869
 20
-90.50000100000028
 30
0.0
 11
1223.359418208869
 21
-92.50000100000027
 31
0.0
  0
LINE
  5
819F
330
18
100
AcDbEntity
  8
DRAW2
100
AcDbLine
 10
1178.859418208869
 20
-112.0000000000002
 30
0.0
 11
1157.859418208869
 21
-112.0000000000002
 31
0.0
  0
LINE
  5
81A0
330
18
100
AcDbEntity
  8
DRAW2
100
AcDbLine
 10
1159.859418208869
 20
-110.0000000000002
 30
0.0
 11
1176.859418208869
 21
-110.0000000000002
 31
0.0
  0
LINE
  5
81A1
330
18
100
AcDbEntity
  8
DRAW2
100
AcDbLine
 10
1157.859418208869
 20
-112.0000000000002
 30
0.0
 11
1159.859418208869
 21
-110.0000000000002
 31
0.0
  0
LINE
  5
81A2
330
18
100
AcDbEntity
  8
DRAW2
100
AcDbLine
 10
1176.859418208869
 20
-110.0000000000002
 30
0.0
 11
1178.859418208869
 21
-112.0000000000002
 31
0.0
  0
LINE
  5
81A4
330
18
100
AcDbEntity
  8
DRAW2
100
AcDbLine
 10
1225.359418208869
 20
-77.78203347706655
 30
0.0
 11
1225.359418208869
 21
-60.78203347706653
 31
0.0
  0
LINE
  5
81A5
330
18
100
AcDbEntity
  8
DRAW2
100
AcDbLine
 10
1223.359418208869
 20
-79.78203347706653
 30
0.0
 11
1203.359418208869
 21
-79.78203347706653
 31
0.0
  0
LINE
  5
81A6
330
18
100
AcDbEntity
  8
DRAW2
100
AcDbLine
 10
1193.359418208869
 20
-90.50000100000028
 30
0.0
 11
1221.359418208869
 21
-90.50000100000028
 31
0.0
  0
LINE
  5
81A7
330
18
100
AcDbEntity
  8
DRAW2
100
AcDbLine
 10
1203.359418208869
 20
-89.00000000000028
 30
0.0
 11
1193.359418208869
 21
-89.00000000000028
 31
0.0
  0
LINE
  5
81A8
330
18
100
AcDbEntity
  8
DRAW2
100
AcDbLine
 10
1223.359418208869
 20
-79.78203347706653
 30
0.0
 11
1225.359418208869
 21
-77.78203347706655
 31
0.0
  0
LINE
  5
81AD
330
18
100
AcDbEntity
  8
DRAW2
100
AcDbLine
 10
1012.359418208869
 20
160.9999989999996
 30
0.0
 11
1000.359418208869
 21
160.9999989999996
 31
0.0
  0
LINE
  5
81AE
330
18
100
AcDbEntity
  8
DRAW2
100
AcDbLine
 10
998.3594182088699
 20
158.9999989999997
 30
0.0
 11
1014.359418208868
 21
158.9999989999997
 31
0.0
  0
LINE
  5
81AF
330
18
100
AcDbEntity
  8
DRAW2
100
AcDbLine
 10
981.3594182088699
 20
141.9999999999996
 30
0.0
 11
1044.35941820887
 21
141.9999999999996
 31
0.0
  0
LINE
  5
81B0
330
18
100
AcDbEntity
  8
DRAW2
100
AcDbLine
 10
981.3594182088698
 20
132.0000009999996
 30
0.0
 11
1044.35941820887
 21
132.0000009999996
 31
0.0
  0
LINE
  5
81B1
330
18
100
AcDbEntity
  8
DRAW2
100
AcDbLine
 10
981.3594182088703
 20
90.0000009999997
 30
0.0
 11
1044.35941820887
 21
90.0000009999997
 31
0.0
  0
LINE
  5
81B2
330
18
100
AcDbEntity
  8
DRAW2
100
AcDbLine
 10
981.3594182088698
 20
90.0000009999997
 30
0.0
 11
1044.35941820887
 21
90.0000009999997
 31
0.0
  0
LINE
  5
81B5
330
18
100
AcDbEntity
  8
DRAW2
100
AcDbLine
 10
951.3594182088704
 20
58.78203347706596
 30
0.0
 11
951.3594182088704
 21
79.78203347706595
 31
0.0
  0
LINE
  5
81B6
330
18
100
AcDbEntity
  8
DRAW2
100
AcDbLine
 10
949.3594182088703
 20
77.78203347706598
 30
0.0
 11
949.3594182088703
 21
60.78203347706597
 31
0.0
  0
LINE
  5
81B7
330
18
100
AcDbEntity
  8
DRAW2
100
AcDbLine
 10
951.3594182088704
 20
10.49999999999971
 30
0.0
 11
951.3594182088704
 21
-10.50000000000028
 31
0.0
  0
LINE
  5
81B8
330
18
100
AcDbEntity
  8
DRAW2
100
AcDbLine
 10
949.3594182088703
 20
-8.500000000000284
 30
0.0
 11
949.3594182088703
 21
8.499999999999715
 31
0.0
  0
LINE
  5
81B9
330
18
100
AcDbEntity
  8
DRAW2
100
AcDbLine
 10
951.3594182088704
 20
-58.78203347706653
 30
0.0
 11
971.3594182088703
 21
-58.78203347706653
 31
0.0
  0
LINE
  5
81BA
330
18
100
AcDbEntity
  8
DRAW2
100
AcDbLine
 10
951.3594182088704
 20
-10.50000000000028
 30
0.0
 11
971.3594182088703
 21
-10.50000000000028
 31
0.0
  0
LINE
  5
81BB
330
18
100
AcDbEntity
  8
DRAW2
100
AcDbLine
 10
951.3594182088704
 20
-10.50000000000028
 30
0.0
 11
949.3594182088703
 21
-8.500000000000284
 31
0.0
  0
LINE
  5
81BC
330
18
100
AcDbEntity
  8
DRAW2
100
AcDbLine
 10
951.3594182088704
 20
10.49999999999971
 30
0.0
 11
971.3594182088703
 21
10.49999999999971
 31
0.0
  0
LINE
  5
81BD
330
18
100
AcDbEntity
  8
DRAW2
100
AcDbLine
 10
949.3594182088703
 20
8.499999999999715
 30
0.0
 11
951.3594182088704
 21
10.49999999999971
 31
0.0
  0
LINE
  5
81BE
330
18
100
AcDbEntity
  8
DRAW2
100
AcDbLine
 10
951.3594182088704
 20
58.78203347706596
 30
0.0
 11
971.3594182088703
 21
58.78203347706596
 31
0.0
  0
LINE
  5
81BF
330
18
100
AcDbEntity
  8
DRAW2
100
AcDbLine
 10
949.3594182088703
 20
60.78203347706597
 30
0.0
 11
951.3594182088704
 21
58.78203347706596
 31
0.0
  0
LINE
  5
81C0
330
18
100
AcDbEntity
  8
DRAW2
100
AcDbLine
 10
981.3594182088698
 20
90.0000009999997
 30
0.0
 11
981.3594182088698
 21
132.0000009999996
 31
0.0
  0
LINE
  5
81C1
330
18
100
AcDbEntity
  8
DRAW2
100
AcDbLine
 10
951.3594182088704
 20
79.78203347706595
 30
0.0
 11
971.3594182088703
 21
79.78203347706595
 31
0.0
  0
LINE
  5
81C3
330
18
100
AcDbEntity
  8
DRAW2
100
AcDbLine
 10
951.3594182088704
 20
79.78203347706595
 30
0.0
 11
949.3594182088703
 21
77.78203347706598
 31
0.0
  0
LINE
  5
81C4
330
18
100
AcDbEntity
  8
DRAW2
100
AcDbLine
 10
971.3594182088703
 20
88.9999999999997
 30
0.0
 11
981.3594182088703
 21
88.9999999999997
 31
0.0
  0
LINE
  5
81C5
330
18
100
AcDbEntity
  8
DRAW2
100
AcDbLine
 10
1000.359418208869
 20
160.9999989999996
 30
0.0
 11
998.3594182088699
 21
158.9999989999997
 31
0.0
  0
LINE
  5
81C6
330
18
100
AcDbEntity
  8
DRAW2
100
AcDbLine
 10
998.3594182088699
 20
158.9999989999997
 30
0.0
 11
998.3594182088699
 21
141.9999999999996
 31
0.0
  0
LINE
  5
81C7
330
18
100
AcDbEntity
  8
DRAW2
100
AcDbLine
 10
981.3594182088699
 20
131.9999999999996
 30
0.0
 11
981.3594182088699
 21
141.9999999999996
 31
0.0
  0
LINE
  5
81C8
330
18
100
AcDbEntity
  8
DRAW2
100
AcDbLine
 10
1225.359418208869
 20
60.78203999999999
 30
0.0
 11
1225.359418208869
 21
77.78203999999998
 31
0.0
  0
LINE
  5
81C9
330
18
100
AcDbEntity
  8
DRAW2
100
AcDbLine
 10
1223.359418208869
 20
79.78203999999998
 30
0.0
 11
1223.359418208869
 21
58.78204
 31
0.0
  0
CIRCLE
  5
81CC
330
18
100
AcDbEntity
  8
DRAW2
100
AcDbCircle
 10
1062.359418208869
 20
-20.00000000000027
 30
0.0
 40
10.5
  0
CIRCLE
  5
81CD
330
18
100
AcDbEntity
  8
DRAW2
100
AcDbCircle
 10
1062.359418208869
 20
-20.00000000000027
 30
0.0
 40
11.0
  0
CIRCLE
  5
81CE
330
18
100
AcDbEntity
  8
DRAW2
100
AcDbCircle
 10
1062.359418208869
 20
-20.00000000000027
 30
0.0
 40
2.5
  0
CIRCLE
  5
81CF
330
18
100
AcDbEntity
  8
DRAW2
100
AcDbCircle
 10
1062.359418208869
 20
-20.00000000000027
 30
0.0
 40
5.694887103024259
  0
CIRCLE
  5
81D0
330
18
100
AcDbEntity
  8
DRAW2
100
AcDbCircle
 10
1062.359418208869
 20
-20.00000000000034
 30
0.0
 40
6.578500006250047
  0
CIRCLE
  5
81D1
330
18
100
AcDbEntity
  8
DRAW2
100
AcDbCircle
 10
1062.359418208869
 20
-20.00000000000027
 30
0.0
 40
7.0
  0
LINE
  5
81D2
330
18
100
AcDbEntity
  8
DRAW2
100
AcDbLine
 10
1051.859418208869
 20
-18.00000000000028
 30
0.0
 11
1055.651214276369
 21
-18.00000000000028
 31
0.0
  0
LINE
  5
81D3
330
18
100
AcDbEntity
  8
DRAW2
100
AcDbLine
 10
1051.859418208869
 20
-22.00000000000028
 30
0.0
 11
1055.651214276369
 21
-22.00000000000028
 31
0.0
  0
LINE
  5
81D4
330
18
100
AcDbEntity
  8
DRAW2
100
AcDbLine
 10
1069.067622141368
 20
-18.00000000000028
 30
0.0
 11
1072.859418208869
 21
-18.00000000000028
 31
0.0
  0
LINE
  5
81D5
330
18
100
AcDbEntity
  8
DRAW2
100
AcDbLine
 10
1069.067622141368
 20
-22.00000000000028
 30
0.0
 11
1072.859418208869
 21
-22.00000000000028
 31
0.0
  0
CIRCLE
  5
81D9
330
18
100
AcDbEntity
  8
DRAW2
100
AcDbCircle
 10
1112.359418208869
 20
-20.00000000000027
 30
0.0
 40
10.5
  0
CIRCLE
  5
81DA
330
18
100
AcDbEntity
  8
DRAW2
100
AcDbCircle
 10
1112.359418208869
 20
-20.00000000000027
 30
0.0
 40
11.0
  0
CIRCLE
  5
81DB
330
18
100
AcDbEntity
  8
DRAW2
100
AcDbCircle
 10
1112.359418208869
 20
-20.00000000000027
 30
0.0
 40
5.694887103024259
  0
CIRCLE
  5
81DC
330
18
100
AcDbEntity
  8
DRAW2
100
AcDbCircle
 10
1112.359418208869
 20
-20.00000000000027
 30
0.0
 40
7.0
  0
CIRCLE
  5
81DD
330
18
100
AcDbEntity
  8
DRAW2
100
AcDbCircle
 10
1112.359418208869
 20
-20.00000000000034
 30
0.0
 40
6.578500006250047
  0
CIRCLE
  5
81DE
330
18
100
AcDbEntity
  8
DRAW2
100
AcDbCircle
 10
1112.359418208869
 20
-20.00000000000027
 30
0.0
 40
2.5
  0
LINE
  5
81DF
330
18
100
AcDbEntity
  8
DRAW2
100
AcDbLine
 10
1101.859418208869
 20
-18.00000000000028
 30
0.0
 11
1105.651214276369
 21
-18.00000000000028
 31
0.0
  0
LINE
  5
81E0
330
18
100
AcDbEntity
  8
DRAW2
100
AcDbLine
 10
1101.859418208869
 20
-22.00000000000028
 30
0.0
 11
1105.651214276369
 21
-22.00000000000028
 31
0.0
  0
LINE
  5
81E3
330
18
100
AcDbEntity
  8
DRAW2
100
AcDbLine
 10
1119.067622141368
 20
-18.00000000000028
 30
0.0
 11
1122.859418208869
 21
-18.00000000000028
 31
0.0
  0
LINE
  5
81E4
330
18
100
AcDbEntity
  8
DRAW2
100
AcDbLine
 10
1119.067622141368
 20
-22.00000000000028
 30
0.0
 11
1122.859418208869
 21
-22.00000000000028
 31
0.0
  0
LINE
  5
81E6
330
18
100
AcDbEntity
  8
DRAW2
100
AcDbLine
 10
1225.359418208869
 20
-8.500000000000284
 30
0.0
 11
1225.359418208869
 21
8.499999999999715
 31
0.0
  0
LINE
  5
81E7
330
18
100
AcDbEntity
  8
DRAW2
100
AcDbLine
 10
1223.359418208869
 20
10.49999999999971
 30
0.0
 11
1223.359418208869
 21
-10.50000000000028
 31
0.0
  0
LINE
  5
81E8
330
18
100
AcDbEntity
  8
DRAW2
100
AcDbLine
 10
1223.359418208869
 20
-58.78203347706653
 30
0.0
 11
1203.359418208869
 21
-58.78203347706653
 31
0.0
  0
LINE
  5
81E9
330
18
100
AcDbEntity
  8
DRAW2
100
AcDbLine
 10
1223.359418208869
 20
-10.50000000000028
 30
0.0
 11
1203.359418208869
 21
-10.50000000000028
 31
0.0
  0
LINE
  5
81EA
330
18
100
AcDbEntity
  8
DRAW2
100
AcDbLine
 10
1223.359418208869
 20
-10.50000000000028
 30
0.0
 11
1225.359418208869
 21
-8.500000000000284
 31
0.0
  0
LINE
  5
81EB
330
18
100
AcDbEntity
  8
DRAW2
100
AcDbLine
 10
1223.359418208869
 20
10.49999999999971
 30
0.0
 11
1203.359418208869
 21
10.49999999999971
 31
0.0
  0
LINE
  5
81EC
330
18
100
AcDbEntity
  8
DRAW2
100
AcDbLine
 10
1225.359418208869
 20
8.499999999999715
 30
0.0
 11
1223.359418208869
 21
10.49999999999971
 31
0.0
  0
LINE
  5
81ED
330
18
100
AcDbEntity
  8
DRAW2
100
AcDbLine
 10
1223.359418208869
 20
58.78204
 30
0.0
 11
1203.359418208869
 21
58.78204
 31
0.0
  0
LINE
  5
81EE
330
18
100
AcDbEntity
  8
DRAW2
100
AcDbLine
 10
1223.359418208869
 20
58.78204
 30
0.0
 11
1225.359418208869
 21
60.78203999999999
 31
0.0
  0
LINE
  5
81EF
330
18
100
AcDbEntity
  8
DRAW2
100
AcDbLine
 10
1130.35941820887
 20
141.9999999999996
 30
0.0
 11
1193.35941820887
 21
141.9999999999996
 31
0.0
  0
LINE
  5
81F0
330
18
100
AcDbEntity
  8
DRAW2
100
AcDbLine
 10
1130.359418208869
 20
132.0000009999996
 30
0.0
 11
1193.359418208869
 21
132.0000009999996
 31
0.0
  0
LINE
  5
81F1
330
18
100
AcDbEntity
  8
DRAW2
100
AcDbLine
 10
1193.359418208869
 20
90.0000009999997
 30
0.0
 11
1130.359418208869
 21
90.0000009999997
 31
0.0
  0
LINE
  5
81F2
330
18
100
AcDbEntity
  8
DRAW2
100
AcDbLine
 10
1130.359418208869
 20
90.0000009999997
 30
0.0
 11
1193.359418208869
 21
90.0000009999997
 31
0.0
  0
LINE
  5
81F3
330
18
100
AcDbEntity
  8
DRAW2
100
AcDbLine
 10
1130.359418208869
 20
90.0000009999997
 30
0.0
 11
1130.359418208869
 21
132.0000009999996
 31
0.0
  0
LINE
  5
81F4
330
18
100
AcDbEntity
  8
DRAW2
100
AcDbLine
 10
1044.35941820887
 20
90.0000009999997
 30
0.0
 11
1044.35941820887
 21
132.0000009999996
 31
0.0
  0
LINE
  5
81F5
330
18
100
AcDbEntity
  8
DRAW2
100
AcDbLine
 10
1045.859418208869
 20
88.9999999999997
 30
0.0
 11
1128.859418208869
 21
88.9999999999997
 31
0.0
  0
LINE
  5
81F6
330
18
100
AcDbEntity
  8
DRAW2
100
AcDbLine
 10
1044.35941820887
 20
95.0000009999997
 30
0.0
 11
1130.359418208869
 21
95.0000009999997
 31
0.0
  0
LINE
  5
81F7
330
18
100
AcDbEntity
  8
DRAW2
100
AcDbLine
 10
1044.35941820887
 20
127.0000009999997
 30
0.0
 11
1130.359418208869
 21
127.0000009999997
 31
0.0
  0
LINE
  5
81F9
330
18
100
AcDbEntity
  8
DRAW2
100
AcDbLine
 10
1045.859418208869
 20
73.28220941904442
 30
0.0
 11
1044.35941820887
 21
73.28220941904442
 31
0.0
  0
LINE
  5
81FB
330
18
100
AcDbEntity
  8
DRAW2
100
AcDbLine
 10
1128.859418208869
 20
73.28220941904442
 30
0.0
 11
1130.359418208869
 21
73.28220941904442
 31
0.0
  0
LINE
  5
81FC
330
18
100
AcDbEntity
  8
DRAW2
100
AcDbLine
 10
1014.359418208868
 20
158.9999989999997
 30
0.0
 11
1012.359418208869
 21
160.9999989999996
 31
0.0
  0
LINE
  5
81FD
330
18
100
AcDbEntity
  8
DRAW2
100
AcDbLine
 10
1014.359418208868
 20
158.9999989999997
 30
0.0
 11
1014.359418208868
 21
141.9999999999996
 31
0.0
  0
LINE
  5
81FE
330
18
100
AcDbEntity
  8
DRAW2
100
AcDbLine
 10
1044.35941820887
 20
141.9999999999996
 30
0.0
 11
1044.35941820887
 21
131.9999999999996
 31
0.0
  0
LINE
  5
81FF
330
18
100
AcDbEntity
  8
DRAW2
100
AcDbLine
 10
1130.35941820887
 20
131.9999999999996
 30
0.0
 11
1130.35941820887
 21
141.9999999999996
 31
0.0
  0
LINE
  5
8200
330
18
100
AcDbEntity
  8
DRAW2
100
AcDbLine
 10
1221.359418208869
 20
131.5000009999996
 30
0.0
 11
1221.359418208869
 21
90.50000099999971
 31
0.0
  0
LINE
  5
8201
330
18
100
AcDbEntity
  8
DRAW2
100
AcDbLine
 10
1193.359418208869
 20
90.0000009999997
 30
0.0
 11
1193.359418208869
 21
132.0000009999996
 31
0.0
  0
LINE
  5
8202
330
18
100
AcDbEntity
  8
DRAW2
100
AcDbLine
 10
1223.359418208869
 20
92.5000009999997
 30
0.0
 11
1223.359418208869
 21
129.5000009999996
 31
0.0
  0
LINE
  5
8205
330
18
100
AcDbEntity
  8
DRAW2
100
AcDbLine
 10
1223.359418208869
 20
79.78203999999998
 30
0.0
 11
1203.359418208869
 21
79.78203999999998
 31
0.0
  0
LINE
  5
8206
330
18
100
AcDbEntity
  8
DRAW2
100
AcDbLine
 10
1225.359418208869
 20
77.78203999999998
 30
0.0
 11
1223.359418208869
 21
79.78203999999998
 31
0.0
  0
LINE
  5
8207
330
18
100
AcDbEntity
  8
DRAW2
100
AcDbLine
 10
1193.359418208869
 20
90.50000099999971
 30
0.0
 11
1221.359418208869
 21
90.50000099999971
 31
0.0
  0
LINE
  5
8208
330
18
100
AcDbEntity
  8
DRAW2
100
AcDbLine
 10
1193.359418208869
 20
88.9999999999997
 30
0.0
 11
1203.359418208869
 21
88.9999999999997
 31
0.0
  0
LINE
  5
8209
330
18
100
AcDbEntity
  8
DRAW2
100
AcDbLine
 10
1221.359418208869
 20
90.50000099999971
 30
0.0
 11
1223.359418208869
 21
92.5000009999997
 31
0.0
  0
LINE
  5
820F
330
18
100
AcDbEntity
  8
DRAW2
100
AcDbLine
 10
1176.35941820887
 20
158.9999989999997
 30
0.0
 11
1174.359418208869
 21
160.9999989999996
 31
0.0
  0
LINE
  5
8210
330
18
100
AcDbEntity
  8
DRAW2
100
AcDbLine
 10
1162.35941820887
 20
160.9999989999996
 30
0.0
 11
1160.35941820887
 21
158.9999989999997
 31
0.0
  0
LINE
  5
8211
330
18
100
AcDbEntity
  8
DRAW2
100
AcDbLine
 10
1176.35941820887
 20
158.9999989999997
 30
0.0
 11
1176.35941820887
 21
141.9999999999996
 31
0.0
  0
LINE
  5
8212
330
18
100
AcDbEntity
  8
DRAW2
100
AcDbLine
 10
1160.35941820887
 20
158.9999989999997
 30
0.0
 11
1160.35941820887
 21
141.9999999999996
 31
0.0
  0
LINE
  5
8213
330
18
100
AcDbEntity
  8
DRAW2
100
AcDbLine
 10
1160.35941820887
 20
158.9999989999997
 30
0.0
 11
1176.35941820887
 21
158.9999989999997
 31
0.0
  0
POINT
  5
8214
330
18
100
AcDbEntity
  8
DEFPOINTS
  6
ByBlock
100
AcDbPoint
 10
1170.85941820887
 20
158.9999989999997
 30
0.0
  0
LINE
  5
8215
330
18
100
AcDbEntity
  8
DRAW2
100
AcDbLine
 10
1193.359418208869
 20
131.5000009999996
 30
0.0
 11
1221.359418208869
 21
131.5000009999996
 31
0.0
  0
LINE
  5
8216
330
18
100
AcDbEntity
  8
DRAW2
100
AcDbLine
 10
1193.35941820887
 20
141.9999999999996
 30
0.0
 11
1193.35941820887
 21
131.9999999999996
 31
0.0
  0
LINE
  5
8217
330
18
100
AcDbEntity
  8
DRAW2
100
AcDbLine
 10
1223.359418208869
 20
129.5000009999996
 30
0.0
 11
1221.359418208869
 21
131.5000009999996
 31
0.0
  0
LINE
  5
8218
330
18
100
AcDbEntity
  8
DRAW2
100
AcDbLine
 10
1174.359418208869
 20
160.9999989999996
 30
0.0
 11
1162.35941820887
 21
160.9999989999996
 31
0.0
  0
LINE
  5
8219
330
18
100
AcDbEntity
  8
DRAW2
100
AcDbLine
 10
1667.979833630155
 20
-58.64973609381258
 30
0.0
 11
1668.345876720976
 21
-60.01576392584382
 31
0.0
  0
LINE
  5
821A
330
18
100
AcDbEntity
  8
DRAW2
100
AcDbLine
 10
1647.699270275664
 20
-58.77638404303138
 30
0.0
 11
1651.163366345
 21
-60.77638404303133
 31
0.0
  0
LINE
  5
821B
330
18
100
AcDbEntity
  8
DRAW2
100
AcDbLine
 10
1656.186346081328
 20
-52.07649390631264
 30
0.0
 11
1651.163427380156
 21
-60.77644507818764
 31
0.0
  0
LINE
  5
821C
330
18
100
AcDbEntity
  8
DRAW2
100
AcDbLine
 10
1658.784490612578
 20
-53.57652442389094
 30
0.0
 11
1653.761587170195
 21
-62.27644507818763
 31
0.0
  0
LINE
  5
821D
330
18
100
AcDbEntity
  8
DRAW2
100
AcDbLine
 10
1628.302053478789
 20
-64.37358252935957
 30
0.0
 11
1633.324956921172
 21
-55.6736313574845
 31
0.0
  0
LINE
  5
821E
330
18
100
AcDbEntity
  8
DRAW2
100
AcDbLine
 10
1623.515935925078
 20
-58.66325538092207
 30
0.0
 11
1626.980062511992
 21
-60.66331641607831
 31
0.0
  0
LINE
  5
821F
330
18
100
AcDbEntity
  8
DRAW2
100
AcDbLine
 10
1625.703954723906
 20
-62.87352149420326
 30
0.0
 11
1630.7268429075
 21
-54.17363135748463
 31
0.0
  0
LINE
  5
8220
330
18
100
AcDbEntity
  8
DRAW2
100
AcDbLine
 10
1622.239965466094
 20
-60.87355201178143
 30
0.0
 11
1627.262914684843
 21
-52.17363135748451
 31
0.0
  0
LINE
  5
8221
330
18
100
AcDbEntity
  8
DRAW2
100
AcDbLine
 10
1639.387151745391
 20
-59.17357032232832
 30
0.0
 11
1642.851247814727
 21
-61.17357032232844
 31
0.0
  0
LINE
  5
8222
330
18
100
AcDbEntity
  8
DRAW2
100
AcDbLine
 10
1662.248525646758
 20
-55.57655494146889
 30
0.0
 11
1657.225606945586
 21
-64.27650611334389
 31
0.0
  0
LINE
  5
8223
330
18
100
AcDbEntity
  8
DRAW2
100
AcDbLine
 10
1619.641820934843
 20
-59.37361304693768
 30
0.0
 11
1620.605826596309
 21
-57.70389011129987
 31
0.0
  0
LINE
  5
8224
330
18
100
AcDbEntity
  8
DRAW2
100
AcDbLine
 10
1667.979833630155
 20
-58.64973609381258
 30
0.0
 11
1655.479818371366
 21
-80.30037085943764
 31
0.0
  0
LINE
  5
8225
330
18
100
AcDbEntity
  8
DRAW2
100
AcDbLine
 10
1631.766164806914
 20
-66.37355201178138
 30
0.0
 11
1636.789037731718
 21
-57.67360083990638
 31
0.0
  0
LINE
  5
8226
330
18
100
AcDbEntity
  8
DRAW2
100
AcDbLine
 10
1634.364141491484
 20
-67.87355201178144
 30
0.0
 11
1639.387029675078
 21
-59.17357032232832
 31
0.0
  0
CIRCLE
  5
8228
330
18
100
AcDbEntity
  8
DRAW2
100
AcDbCircle
 10
1581.395605068864
 20
-69.28202548187721
 30
0.0
 40
10.5
  0
ARC
  5
8229
330
18
100
AcDbEntity
  8
DRAW2
100
AcDbCircle
 10
1541.395593254759
 20
0.0
 30
0.0
 40
98.0
100
AcDbArc
 50
293.31144
 51
66.688546
  0
LINE
  5
822B
330
18
100
AcDbEntity
  8
HIDDEN
100
AcDbLine
 10
1490.729443623967
 20
-58.27428813392987
 30
0.0
 11
1490.260989600977
 21
-60.02258234874421
 31
0.0
  0
LINE
  5
822C
330
18
100
AcDbEntity
  8
HIDDEN
100
AcDbLine
 10
1487.117196179111
 20
-62.11958380103691
 30
0.0
 11
1493.491760484218
 21
-55.33375728269618
 31
0.0
  0
LINE
  5
822D
330
18
100
AcDbEntity
  8
HIDDEN
100
AcDbLine
 10
1471.39202191729
 20
-54.44722215136414
 30
0.0
 11
1464.613795568421
 21
-61.22544850023199
 31
0.0
  0
LINE
  5
822E
330
18
100
AcDbEntity
  8
HIDDEN
100
AcDbLine
 10
1471.608971116593
 20
-60.30688346453564
 30
0.0
 11
1478.026392111066
 21
-54.27839707578778
 31
0.0
  0
LINE
  5
822F
330
18
100
AcDbEntity
  8
HIDDEN
100
AcDbLine
 10
1472.214254521288
 20
-60.91216686923139
 30
0.0
 11
1479.255569465474
 21
-54.2975982852991
 31
0.0
  0
LINE
  5
8230
330
18
100
AcDbEntity
  8
HIDDEN
100
AcDbLine
 10
1490.260989600977
 20
-60.02258234874421
 30
0.0
 11
1481.373010906014
 21
-51.13460365378102
 31
0.0
  0
LINE
  5
8231
330
18
100
AcDbEntity
  8
HIDDEN
100
AcDbLine
 10
1479.749537935003
 20
-54.30531465921483
 30
0.0
 11
1487.090278595543
 21
-61.64605531975536
 31
0.0
  0
ARC
  5
8232
330
18
100
AcDbEntity
  8
HIDDEN
100
AcDbCircle
 10
1487.29289161148
 20
-54.10270164327773
 30
0.0
 40
6.5
100
AcDbArc
 50
192.421029607196
 51
257.5789703928041
  0
ARC
  5
8233
330
18
100
AcDbEntity
  8
DRAW2
100
AcDbCircle
 10
1541.395593254759
 20
0.0
 30
0.0
 40
98.0
100
AcDbArc
 50
113.31146
 51
246.68851
  0
ARC
  5
8234
330
18
100
AcDbEntity
  8
HIDDEN
100
AcDbCircle
 10
1468.357339457025
 20
-73.03825379773359
 30
0.0
 40
15.5
100
AcDbArc
 50
27.7360436771824
 51
62.26395632281756
  0
CIRCLE
  5
8236
330
18
100
AcDbEntity
  8
DRAW2
100
AcDbCircle
 10
1501.395595288725
 20
-69.28203347706648
 30
0.0
 40
10.5
  0
LINE
  5
8239
330
18
100
AcDbEntity
  8
DRAW2
100
AcDbLine
 10
1602.895593254759
 20
-110.0
 30
0.0
 11
1619.895593254759
 21
-110.0
 31
0.0
  0
LINE
  5
823A
330
18
100
AcDbEntity
  8
DRAW2
100
AcDbLine
 10
1621.895593254759
 20
-112.0
 30
0.0
 11
1600.895593254759
 21
-112.0
 31
0.0
  0
LINE
  5
823B
330
18
100
AcDbEntity
  8
DRAW2
100
AcDbLine
 10
1598.117974846556
 20
-167.9999999999999
 30
0.0
 11
1624.673211662962
 21
-167.9999999999999
 31
0.0
  0
LINE
  5
823C
330
18
100
AcDbEntity
  8
DRAW2
100
AcDbLine
 10
1451.395593254759
 20
-147.9999999999999
 30
0.0
 11
1631.395593254759
 21
-147.9999999999999
 31
0.0
  0
LINE
  5
823D
330
18
100
AcDbEntity
  8
DRAW2
100
AcDbLine
 10
1631.395593254759
 20
-131.9999999999999
 30
0.0
 11
1451.395593254759
 21
-131.9999999999999
 31
0.0
  0
LINE
  5
823E
330
18
100
AcDbEntity
  8
DRAW2
100
AcDbLine
 10
1453.395593254759
 20
-147.9999923706054
 30
0.0
 11
1456.140100090696
 21
-166.2966842651365
 31
0.0
  0
LINE
  5
8243
330
18
100
AcDbEntity
  8
DRAW2
100
AcDbLine
 10
1451.395593254759
 20
-131.9999999999999
 30
0.0
 11
1451.395593254759
 21
-147.9999999999999
 31
0.0
  0
LINE
  5
8244
330
18
100
AcDbEntity
  8
DRAW2
100
AcDbLine
 10
1600.895593254759
 20
-112.0
 30
0.0
 11
1600.895593254759
 21
-131.9999999999999
 31
0.0
  0
ARC
  5
8245
330
18
100
AcDbEntity
  8
DRAW2
100
AcDbCircle
 10
1541.395593254759
 20
-111.0
 30
0.0
 40
43.0
100
AcDbArc
 50
330.766359977389
 51
29.23364002261094
  0
LINE
  5
8246
330
18
100
AcDbEntity
  8
DRAW2
100
AcDbLine
 10
1481.895593254759
 20
-112.0
 30
0.0
 11
1481.895593254759
 21
-131.9999999999999
 31
0.0
  0
ARC
  5
8247
330
18
100
AcDbEntity
  8
DRAW2
100
AcDbCircle
 10
1541.395593254759
 20
-111.0
 30
0.0
 40
43.0
100
AcDbArc
 50
150.7663599773889
 51
209.233640022611
  0
LINE
  5
8248
330
18
100
AcDbEntity
  8
DRAW2
100
AcDbLine
 10
1460.895593254758
 20
-112.0
 30
0.0
 11
1460.895593254758
 21
-131.9999999999999
 31
0.0
  0
CIRCLE
  5
824A
330
18
100
AcDbEntity
  8
DRAW2
100
AcDbCircle
 10
1541.395593254759
 20
-111.0
 30
0.0
 40
12.02101612903224
  0
CIRCLE
  5
824B
330
18
100
AcDbEntity
  8
DRAW3
100
AcDbCircle
 10
1541.395593254759
 20
-111.0
 30
0.0
 40
13.22049999999999
  0
CIRCLE
  5
824C
330
18
100
AcDbEntity
  8
DRAW2
100
AcDbCircle
 10
1541.395593254759
 20
-111.0
 30
0.0
 40
18.5
  0
CIRCLE
  5
824D
330
18
100
AcDbEntity
  8
DRAW2
100
AcDbCircle
 10
1541.395593254759
 20
-111.0
 30
0.0
 40
20.5
  0
LINE
  5
824E
330
18
100
AcDbEntity
  8
DRAW2
100
AcDbLine
 10
1522.395593254759
 20
-164.9999989999999
 30
0.0
 11
1522.395593254759
 21
-147.9999999999999
 31
0.0
  0
LINE
  5
824F
330
18
100
AcDbEntity
  8
DRAW2
100
AcDbLine
 10
1506.395593254759
 20
-164.9999989999999
 30
0.0
 11
1506.395593254759
 21
-147.9999999999999
 31
0.0
  0
LINE
  5
8250
330
18
100
AcDbEntity
  8
DRAW2
100
AcDbLine
 10
1489.395608513548
 20
-147.9999999999999
 30
0.0
 11
1486.65110167761
 21
-166.2966842651365
 31
0.0
  0
LINE
  5
8252
330
18
100
AcDbEntity
  8
DRAW2
100
AcDbLine
 10
1458.117974846556
 20
-167.9999999999999
 30
0.0
 11
1484.673211662962
 21
-167.9999999999999
 31
0.0
  0
ARC
  5
8253
330
18
100
AcDbEntity
  8
DRAW2
100
AcDbCircle
 10
1458.117974846556
 20
-165.9999999999999
 30
0.0
 40
2.000000000000002
100
AcDbArc
 50
188.5307671650844
 51
270.0000025044775
  0
ARC
  5
8254
330
18
100
AcDbEntity
  8
DRAW2
100
AcDbCircle
 10
1484.673211662962
 20
-165.9999999999999
 30
0.0
 40
1.999999999999999
100
AcDbArc
 50
270.0000025044775
 51
351.4692328349155
  0
LINE
  5
8255
330
18
100
AcDbEntity
  8
DRAW2
100
AcDbLine
 10
1522.395593254759
 20
-164.9999989999999
 30
0.0
 11
1506.395593254759
 21
-164.9999989999999
 31
0.0
  0
LINE
  5
8256
330
18
100
AcDbEntity
  8
DRAW2
100
AcDbLine
 10
1508.395593254759
 20
-166.9999989999999
 30
0.0
 11
1520.395593254758
 21
-166.9999989999999
 31
0.0
  0
LINE
  5
8257
330
18
100
AcDbEntity
  8
DRAW2
100
AcDbLine
 10
1506.395593254759
 20
-164.9999989999999
 30
0.0
 11
1508.395593254759
 21
-166.9999989999999
 31
0.0
  0
LINE
  5
8258
330
18
100
AcDbEntity
  8
DRAW2
100
AcDbLine
 10
1520.395593254758
 20
-166.9999989999999
 30
0.0
 11
1522.395593254759
 21
-164.9999989999999
 31
0.0
  0
LINE
  5
8259
330
18
100
AcDbEntity
  8
DRAW2
100
AcDbLine
 10
1461.395593254759
 20
-131.9999999999999
 30
0.0
 11
1461.395593254759
 21
-147.9999999999999
 31
0.0
  0
LINE
  5
825A
330
18
100
AcDbEntity
  8
DRAW2
100
AcDbLine
 10
1593.395593254759
 20
-147.9999923706054
 30
0.0
 11
1596.140100090696
 21
-166.2966842651365
 31
0.0
  0
LINE
  5
825B
330
18
100
AcDbEntity
  8
DRAW2
100
AcDbLine
 10
1576.395593254759
 20
-164.9999989999999
 30
0.0
 11
1576.395593254759
 21
-147.9999999999999
 31
0.0
  0
LINE
  5
825C
330
18
100
AcDbEntity
  8
DRAW2
100
AcDbLine
 10
1560.395593254759
 20
-164.9999989999999
 30
0.0
 11
1560.395593254759
 21
-147.9999999999999
 31
0.0
  0
LINE
  5
825E
330
18
100
AcDbEntity
  8
DRAW2
100
AcDbLine
 10
1562.395593254759
 20
-166.9999989999999
 30
0.0
 11
1574.395593254759
 21
-166.9999989999999
 31
0.0
  0
LINE
  5
825F
330
18
100
AcDbEntity
  8
DRAW2
100
AcDbLine
 10
1576.395593254759
 20
-164.9999989999999
 30
0.0
 11
1560.395593254759
 21
-164.9999989999999
 31
0.0
  0
LINE
  5
8260
330
18
100
AcDbEntity
  8
DRAW2
100
AcDbLine
 10
1560.395593254759
 20
-164.9999989999999
 30
0.0
 11
1562.395593254759
 21
-166.9999989999999
 31
0.0
  0
LINE
  5
8261
330
18
100
AcDbEntity
  8
DRAW2
100
AcDbLine
 10
1574.395593254759
 20
-166.9999989999999
 30
0.0
 11
1576.395593254759
 21
-164.9999989999999
 31
0.0
  0
ARC
  5
8262
330
18
100
AcDbEntity
  8
DRAW2
100
AcDbCircle
 10
1598.117974846556
 20
-165.9999999999999
 30
0.0
 40
2.000000000000002
100
AcDbArc
 50
188.5307671650844
 51
270.0000025044775
  0
LINE
  5
8264
330
18
100
AcDbEntity
  8
DRAW2
100
AcDbLine
 10
1500.371212430668
 20
-89.00000099999997
 30
0.0
 11
1582.419974078848
 21
-89.00000099999997
 31
0.0
  0
LINE
  5
8265
330
18
100
AcDbEntity
  8
DRAW2
100
AcDbLine
 10
1502.614163254759
 20
-90.00000099999999
 30
0.0
 11
1580.177023254758
 21
-90.00000099999999
 31
0.0
  0
LINE
  5
8266
330
18
100
AcDbEntity
  8
DRAW2
100
AcDbLine
 10
1481.895593254759
 20
-112.0
 30
0.0
 11
1460.895593254758
 21
-112.0
 31
0.0
  0
LINE
  5
8267
330
18
100
AcDbEntity
  8
DRAW2
100
AcDbLine
 10
1462.895593254759
 20
-110.0
 30
0.0
 11
1479.895593254759
 21
-110.0
 31
0.0
  0
LINE
  5
8268
330
18
100
AcDbEntity
  8
DRAW2
100
AcDbLine
 10
1460.895593254758
 20
-112.0
 30
0.0
 11
1462.895593254759
 21
-110.0
 31
0.0
  0
LINE
  5
8269
330
18
100
AcDbEntity
  8
DRAW2
100
AcDbLine
 10
1479.895593254759
 20
-110.0
 30
0.0
 11
1481.895593254759
 21
-112.0
 31
0.0
  0
LINE
  5
826B
330
18
100
AcDbEntity
  8
HIDDEN
100
AcDbLine
 10
1486.948371103393
 20
-70.0035713374682
 30
0.0
 11
1480.315217180518
 21
-76.63672526034389
 31
0.0
  0
LINE
  5
826C
330
18
100
AcDbEntity
  8
HIDDEN
100
AcDbLine
 10
1473.09614925995
 20
-61.79406160789246
 30
0.0
 11
1475.571022994103
 21
-59.31918787373951
 31
0.0
  0
LINE
  5
826D
330
18
100
AcDbEntity
  8
HIDDEN
100
AcDbLine
 10
1471.608971116593
 20
-60.30688346453564
 30
0.0
 11
1481.088709790221
 21
-69.78662213816545
 31
0.0
  0
LINE
  5
826E
330
18
100
AcDbEntity
  8
HIDDEN
100
AcDbLine
 10
1487.117196179111
 20
-63.36920115266668
 30
0.0
 11
1490.260989600977
 21
-60.02258234874421
 31
0.0
  0
LINE
  5
826F
330
18
100
AcDbEntity
  8
HIDDEN
100
AcDbLine
 10
1487.11719617897
 20
-63.36920114369201
 30
0.0
 11
1487.090278595543
 21
-61.64605531975536
 31
0.0
  0
LINE
  5
8270
330
18
100
AcDbEntity
  8
HIDDEN
100
AcDbLine
 10
1486.948371103393
 20
-70.0035713374682
 30
0.0
 11
1483.821898474797
 21
-66.8770987088714
 31
0.0
  0
LINE
  5
8271
330
18
100
AcDbEntity
  8
HIDDEN
100
AcDbLine
 10
1483.821898474797
 20
-66.8770987088713
 30
0.0
 11
1483.821898474797
 21
-65.62748135724149
 31
0.0
  0
LINE
  5
8273
330
18
100
AcDbEntity
  8
HIDDEN
100
AcDbLine
 10
1479.601531646866
 20
-68.29944399480864
 30
0.0
 11
1482.076405381019
 21
-65.82457026065577
 31
0.0
  0
LINE
  5
8274
330
18
100
AcDbEntity
  8
HIDDEN
100
AcDbLine
 10
1480.483426385527
 20
-69.18133873346977
 30
0.0
 11
1487.097994969459
 21
-62.1400237892838
 31
0.0
  0
LINE
  5
8275
330
18
100
AcDbEntity
  8
HIDDEN
100
AcDbLine
 10
1481.088709790221
 20
-69.78662213816545
 30
0.0
 11
1487.11719617897
 21
-63.36920114369201
 31
0.0
  0
CIRCLE
  5
8276
330
18
100
AcDbEntity
  8
DRAW2
100
AcDbCircle
 10
1501.395595288725
 20
-69.28203347706648
 30
0.0
 40
8.5
  0
LINE
  5
8277
330
18
100
AcDbEntity
  8
DRAW2
100
AcDbLine
 10
1600.895593254759
 20
-112.0
 30
0.0
 11
1602.895593254759
 21
-110.0
 31
0.0
  0
CIRCLE
  5
8279
330
18
100
AcDbEntity
  8
DRAW2
100
AcDbCircle
 10
1581.395605068864
 20
-69.28202548187721
 30
0.0
 40
8.5
  0
LINE
  5
827A
330
18
100
AcDbEntity
  8
DRAW2
100
AcDbLine
 10
1621.895593254759
 20
-112.0
 30
0.0
 11
1621.895593254759
 21
-131.9999999999999
 31
0.0
  0
LINE
  5
827C
330
18
100
AcDbEntity
  8
DRAW2
100
AcDbLine
 10
1629.395608513548
 20
-147.9999999999999
 30
0.0
 11
1626.65110167761
 21
-166.2966842651365
 31
0.0
  0
ARC
  5
827D
330
18
100
AcDbEntity
  8
DRAW2
100
AcDbCircle
 10
1624.673211662962
 20
-165.9999999999999
 30
0.0
 40
1.999999999999999
100
AcDbArc
 50
270.0000025044775
 51
351.4692328349155
  0
LINE
  5
827E
330
18
100
AcDbEntity
  8
DRAW2
100
AcDbLine
 10
1621.395593254759
 20
-131.9999999999999
 30
0.0
 11
1621.395593254759
 21
-147.9999999999999
 31
0.0
  0
LINE
  5
827F
330
18
100
AcDbEntity
  8
DRAW2
100
AcDbLine
 10
1631.395593254759
 20
-147.9999999999999
 30
0.0
 11
1631.395593254759
 21
-131.9999999999999
 31
0.0
  0
LINE
  5
8280
330
18
100
AcDbEntity
  8
DRAW2
100
AcDbLine
 10
1619.895593254759
 20
-110.0
 30
0.0
 11
1621.895593254759
 21
-112.0
 31
0.0
  0
LINE
  5
8281
330
18
100
AcDbEntity
  8
DRAW2
100
AcDbLine
 10
1641.702505138945
 20
-69.16319434576587
 30
0.0
 11
1645.166570690703
 21
-71.1631333106095
 31
0.0
  0
LINE
  5
8282
330
18
100
AcDbEntity
  8
DRAW2
100
AcDbLine
 10
1640.426397350859
 20
-71.37339942389082
 30
0.0
 11
1643.890600231719
 21
-73.37346045904695
 31
0.0
  0
LINE
  5
8283
330
18
100
AcDbEntity
  8
DRAW2
100
AcDbLine
 10
1640.426473644804
 20
-71.37361304693769
 30
0.0
 11
1645.449346569609
 21
-62.67363135748445
 31
0.0
  0
LINE
  5
8284
330
18
100
AcDbEntity
  8
DRAW2
100
AcDbLine
 10
1637.82839014871
 20
-69.87355201178139
 30
0.0
 11
1642.851339367461
 21
-61.17366187506263
 31
0.0
  0
LINE
  5
8285
330
18
100
AcDbEntity
  8
DRAW2
100
AcDbLine
 10
1619.322867279024
 20
-59.4250785708096
 30
0.0
 11
1655.479726818633
 21
-80.30024878912508
 31
0.0
  0
LINE
  5
8286
330
18
100
AcDbEntity
  8
DRAW2
100
AcDbLine
 10
1622.239889172148
 20
-60.87342994146888
 30
0.0
 11
1625.703939465116
 21
-62.87342994146893
 31
0.0
  0
LINE
  5
8287
330
18
100
AcDbEntity
  8
DRAW2
100
AcDbLine
 10
1619.447523390689
 20
-59.26125380091054
 30
0.0
 11
1619.641973522734
 21
-59.3735214942033
 31
0.0
  0
LINE
  5
8288
330
18
100
AcDbEntity
  8
DRAW2
100
AcDbLine
 10
1629.578268078398
 20
-62.16322486334393
 30
0.0
 11
1633.042333630156
 21
-64.16322486334388
 31
0.0
  0
LINE
  5
8289
330
18
100
AcDbEntity
  8
DRAW2
100
AcDbLine
 10
1634.364233044218
 20
-67.87346045904707
 30
0.0
 11
1637.828313854765
 21
-69.87342994146894
 31
0.0
  0
LINE
  5
828A
330
18
100
AcDbEntity
  8
DRAW2
100
AcDbLine
 10
1635.640401867461
 20
-65.66334693365644
 30
0.0
 11
1639.104391125273
 21
-67.66328589850019
 31
0.0
  0
LINE
  5
828B
330
18
100
AcDbEntity
  8
DRAW2
100
AcDbLine
 10
1628.302114513945
 20
-64.37361304693758
 30
0.0
 11
1631.76622584207
 21
-66.37361304693763
 31
0.0
  0
LINE
  5
828C
330
18
100
AcDbEntity
  8
DRAW2
100
AcDbLine
 10
1646.488607433866
 20
-74.87346045904707
 30
0.0
 11
1649.952703503203
 21
-76.87346045904701
 31
0.0
  0
LINE
  5
828D
330
18
100
AcDbEntity
  8
DRAW2
100
AcDbLine
 10
1649.952627209258
 20
-76.87352149420338
 30
0.0
 11
1654.975515392852
 21
-68.17357032232838
 31
0.0
  0
LINE
  5
828E
330
18
100
AcDbEntity
  8
DRAW2
100
AcDbLine
 10
1668.34581568582
 20
-60.01570289068768
 30
0.0
 11
1656.845830944609
 21
-79.93425147467188
 31
0.0
  0
LINE
  5
828F
330
18
100
AcDbEntity
  8
DRAW2
100
AcDbLine
 10
1655.479742077421
 20
-80.30024878912497
 30
0.0
 11
1656.845800427031
 21
-79.93422095709394
 31
0.0
  0
LINE
  5
8290
330
18
100
AcDbEntity
  8
DRAW2
100
AcDbLine
 10
1645.44933131082
 20
-62.67357032232837
 30
0.0
 11
1648.913457897734
 21
-64.67357032232825
 31
0.0
  0
LINE
  5
8291
330
18
100
AcDbEntity
  8
DRAW2
100
AcDbLine
 10
1653.761449841093
 20
-62.27638404303143
 30
0.0
 11
1657.225545910429
 21
-64.27638404303138
 31
0.0
  0
LINE
  5
8292
330
18
100
AcDbEntity
  8
DRAW2
100
AcDbLine
 10
1651.51151087625
 20
-66.17357032232843
 30
0.0
 11
1654.975637463164
 21
-68.17357032232843
 31
0.0
  0
LINE
  5
8293
330
18
100
AcDbEntity
  8
DRAW2
100
AcDbLine
 10
1647.764730480742
 20
-72.66322486334388
 30
0.0
 11
1651.228872326445
 21
-74.66322486334388
 31
0.0
  0
LINE
  5
8294
330
18
100
AcDbEntity
  8
DRAW2
100
AcDbLine
 10
1646.488622692656
 20
-74.87358252935945
 30
0.0
 11
1651.511526135039
 21
-66.17363135748457
 31
0.0
  0
LINE
  5
8295
330
18
100
AcDbEntity
  8
DRAW2
100
AcDbLine
 10
1643.890493420195
 20
-73.37355201178126
 30
0.0
 11
1648.913427380156
 21
-64.67366187506256
 31
0.0
  0
CIRCLE
  5
8297
330
18
100
AcDbEntity
  8
DRAW2
100
AcDbCircle
 10
1581.395592086817
 20
69.28203297706653
 30
0.0
 40
10.5
  0
CIRCLE
  5
8298
330
18
100
AcDbEntity
  8
DRAW2
100
AcDbCircle
 10
1581.395592086817
 20
69.28203297706653
 30
0.0
 40
8.5
  0
CIRCLE
  5
829B
330
18
100
AcDbEntity
  8
DRAW2
100
AcDbCircle
 10
1501.395593254759
 20
69.28204
 30
0.0
 40
8.5
  0
CIRCLE
  5
829C
330
18
100
AcDbEntity
  8
DRAW2
100
AcDbCircle
 10
1501.395593254759
 20
69.28204
 30
0.0
 40
10.5
  0
CIRCLE
  5
829F
330
18
100
AcDbEntity
  8
DRAW2
100
AcDbCircle
 10
1461.395593254759
 20
0.0
 30
0.0
 40
10.5
  0
CIRCLE
  5
82A0
330
18
100
AcDbEntity
  8
DRAW2
100
AcDbCircle
 10
1461.395593254759
 20
0.0
 30
0.0
 40
8.5
  0
LINE
  5
82A6
330
18
100
AcDbEntity
  8
DRAW2
100
AcDbLine
 10
1446.405593454758
 20
-30.5
 30
0.0
 11
1446.405593454758
 21
-24.10186586129526
 31
0.0
  0
LINE
  5
82A7
330
18
100
AcDbEntity
  8
DRAW2
100
AcDbLine
 10
1426.405593454758
 20
-30.5
 30
0.0
 11
1426.405593454758
 21
-22.0
 31
0.0
  0
LINE
  5
82A8
330
18
100
AcDbEntity
  8
DRAW2
100
AcDbLine
 10
1446.405593454758
 20
-30.5
 30
0.0
 11
1426.405593454758
 21
-30.5
 31
0.0
  0
LINE
  5
82AA
330
18
100
AcDbEntity
  8
DRAW2
100
AcDbLine
 10
1426.405593454758
 20
-18.0
 30
0.0
 11
1426.405593454758
 21
-9.5
 31
0.0
  0
LINE
  5
82AC
330
18
100
AcDbEntity
  8
DRAW2
100
AcDbLine
 10
1428.905593454758
 20
-22.0
 30
0.0
 11
1428.905593454758
 21
-18.0
 31
0.0
  0
LINE
  5
82AD
330
18
100
AcDbEntity
  8
DRAW2
100
AcDbLine
 10
1428.905593454758
 20
-22.0
 30
0.0
 11
1426.405593454758
 21
-22.0
 31
0.0
  0
LINE
  5
82AE
330
18
100
AcDbEntity
  8
DRAW2
100
AcDbLine
 10
1428.905593454758
 20
-18.0
 30
0.0
 11
1426.405593454758
 21
-18.0
 31
0.0
  0
LINE
  5
82B0
330
18
100
AcDbEntity
  8
DRAW2
100
AcDbLine
 10
1446.405593454758
 20
-26.79693750000001
 30
0.0
 11
1447.124033986134
 21
-26.77448623339449
 31
0.0
  0
LINE
  5
82B1
330
18
100
AcDbEntity
  8
DRAW2
100
AcDbLine
 10
1443.857139299407
 20
-9.5
 30
0.0
 11
1426.405593454758
 21
-9.5
 31
0.0
  0
LINE
  5
82B3
330
18
100
AcDbEntity
  8
HIDDEN
100
AcDbLine
 10
1487.460212400115
 20
-48.27852660515118
 30
0.0
 11
1493.117066649606
 21
-53.93538085464353
 31
0.0
  0
LINE
  5
82B4
330
18
100
AcDbEntity
  8
HIDDEN
100
AcDbLine
 10
1493.491760484218
 20
-55.33375728269618
 30
0.0
 11
1486.061835972062
 21
-47.90383277053972
 31
0.0
  0
LINE
  5
82B5
330
18
100
AcDbEntity
  8
HIDDEN
100
AcDbLine
 10
1501.797613508312
 20
-33.94112549695427
 30
0.0
 11
1487.460212400115
 21
-48.27852660515111
 31
0.0
  0
LINE
  5
82B6
330
18
100
AcDbEntity
  8
HIDDEN
100
AcDbLine
 10
1474.518494545887
 20
-57.57369477996104
 30
0.0
 11
1471.39202191729
 21
-54.44722215136414
 31
0.0
  0
LINE
  5
82B7
330
18
100
AcDbEntity
  8
HIDDEN
100
AcDbLine
 10
1487.460212400115
 20
-48.27852660515111
 30
0.0
 11
1486.061835972062
 21
-47.90383277053972
 31
0.0
  0
LINE
  5
82B8
330
18
100
AcDbEntity
  8
HIDDEN
100
AcDbLine
 10
1483.121305120827
 20
-50.66614963078957
 30
0.0
 11
1481.373010906014
 21
-51.13460365378102
 31
0.0
  0
LINE
  5
82B9
330
18
100
AcDbEntity
  8
HIDDEN
100
AcDbLine
 10
1474.518494545887
 20
-57.57369477996104
 30
0.0
 11
1475.768111897517
 21
-57.57369477996104
 31
0.0
  0
LINE
  5
82BA
330
18
100
AcDbEntity
  8
HIDDEN
100
AcDbLine
 10
1478.026392102091
 20
-54.27839707564761
 30
0.0
 11
1481.373010906014
 21
-51.13460365378102
 31
0.0
  0
LINE
  5
82BB
330
18
100
AcDbEntity
  8
HIDDEN
100
AcDbLine
 10
1478.026392111066
 20
-54.27839707578778
 30
0.0
 11
1479.749537935003
 21
-54.30531465921483
 31
0.0
  0
LINE
  5
82BC
330
18
100
AcDbEntity
  8
HIDDEN
100
AcDbLine
 10
1479.27600945372
 20
-54.27839707564761
 30
0.0
 11
1486.061835972062
 21
-47.90383277053972
 31
0.0
  0
LINE
  5
82BD
330
18
100
AcDbEntity
  8
HIDDEN
100
AcDbLine
 10
1507.454467757804
 20
-39.59797974644664
 30
0.0
 11
1493.117066649606
 21
-53.93538085464353
 31
0.0
  0
LINE
  5
82BE
330
18
100
AcDbEntity
  8
HIDDEN
100
AcDbLine
 10
1493.491760484218
 20
-55.33375728269618
 30
0.0
 11
1493.117066649606
 21
-53.93538085464353
 31
0.0
  0
CIRCLE
  5
82BF
330
18
100
AcDbEntity
  8
HIDDEN
100
AcDbCircle
 10
1504.626040633057
 20
-36.76955262170047
 30
0.0
 40
4.0
  0
ARC
  5
82C2
330
18
100
AcDbEntity
  8
DRAW2
100
AcDbCircle
 10
1541.395593254759
 20
111.0
 30
0.0
 40
43.0
100
AcDbArc
 50
330.766359977389
 51
29.23364002261097
  0
ARC
  5
82C4
330
18
100
AcDbEntity
  8
DRAW2
100
AcDbCircle
 10
1541.395593254759
 20
111.0
 30
0.0
 40
43.0
100
AcDbArc
 50
150.7663599773889
 51
209.233640022611
  0
CIRCLE
  5
82C5
330
18
100
AcDbEntity
  8
DRAW2
100
AcDbCircle
 10
1541.395593254759
 20
111.0
 30
0.0
 40
18.5
  0
CIRCLE
  5
82C6
330
18
100
AcDbEntity
  8
DRAW2
100
AcDbCircle
 10
1541.395593254759
 20
111.0
 30
0.0
 40
20.5
  0
CIRCLE
  5
82C7
330
18
100
AcDbEntity
  8
DRAW3
100
AcDbCircle
 10
1541.395593254759
 20
111.0
 30
0.0
 40
13.22049999999999
  0
CIRCLE
  5
82C8
330
18
100
AcDbEntity
  8
DRAW2
100
AcDbCircle
 10
1541.395593254759
 20
111.0
 30
0.0
 40
12.02101612903224
  0
LINE
  5
82CA
330
18
100
AcDbEntity
  8
DRAW2
100
AcDbLine
 10
1500.371210261227
 20
89.0
 30
0.0
 11
1582.419976248291
 21
89.00000000000003
 31
0.0
  0
LINE
  5
82CB
330
18
100
AcDbEntity
  8
DRAW2
100
AcDbLine
 10
1502.614163254759
 20
90.0
 30
0.0
 11
1580.177023254758
 21
90.0
 31
0.0
  0
LINE
  5
82CC
330
18
100
AcDbEntity
  8
DRAW2
100
AcDbLine
 10
1578.918919333346
 20
132.0
 30
0.0
 11
1503.872267176171
 21
132.0
 31
0.0
  0
LINE
  5
82CD
330
18
100
AcDbEntity
  8
DRAW2
100
AcDbLine
 10
1578.895593254759
 20
142.0
 30
0.0
 11
1503.895593254759
 21
142.0
 31
0.0
  0
LINE
  5
82CE
330
18
100
AcDbEntity
  8
DRAW2
100
AcDbLine
 10
1508.395593254759
 20
160.999999
 30
0.0
 11
1506.395593254759
 21
158.999999
 31
0.0
  0
LINE
  5
82CF
330
18
100
AcDbEntity
  8
DRAW2
100
AcDbLine
 10
1522.395593254759
 20
158.999999
 30
0.0
 11
1520.395593254758
 21
160.999999
 31
0.0
  0
LINE
  5
82D0
330
18
100
AcDbEntity
  8
DRAW2
100
AcDbLine
 10
1506.395593254759
 20
158.999999
 30
0.0
 11
1506.395593254759
 21
142.0
 31
0.0
  0
LINE
  5
82D1
330
18
100
AcDbEntity
  8
DRAW2
100
AcDbLine
 10
1522.395593254759
 20
158.999999
 30
0.0
 11
1522.395593254759
 21
142.0
 31
0.0
  0
LINE
  5
82D2
330
18
100
AcDbEntity
  8
DRAW2
100
AcDbLine
 10
1503.895593254759
 20
142.0
 30
0.0
 11
1503.895593254759
 21
132.0
 31
0.0
  0
LINE
  5
82D3
330
18
100
AcDbEntity
  8
DRAW2
100
AcDbLine
 10
1506.395593254759
 20
158.999999
 30
0.0
 11
1522.395593254759
 21
158.999999
 31
0.0
  0
LINE
  5
82D4
330
18
100
AcDbEntity
  8
DRAW2
100
AcDbLine
 10
1520.395593254758
 20
160.999999
 30
0.0
 11
1508.395593254759
 21
160.999999
 31
0.0
  0
LINE
  5
82D5
330
18
100
AcDbEntity
  8
DRAW2
100
AcDbLine
 10
1576.395593254759
 20
158.999999
 30
0.0
 11
1574.395593254759
 21
160.999999
 31
0.0
  0
LINE
  5
82D6
330
18
100
AcDbEntity
  8
DRAW2
100
AcDbLine
 10
1562.395593254759
 20
160.999999
 30
0.0
 11
1560.395593254759
 21
158.999999
 31
0.0
  0
LINE
  5
82D7
330
18
100
AcDbEntity
  8
DRAW2
100
AcDbLine
 10
1560.395593254759
 20
158.999999
 30
0.0
 11
1576.395593254759
 21
158.999999
 31
0.0
  0
LINE
  5
82D8
330
18
100
AcDbEntity
  8
DRAW2
100
AcDbLine
 10
1560.395593254759
 20
158.999999
 30
0.0
 11
1560.395593254759
 21
142.0
 31
0.0
  0
LINE
  5
82D9
330
18
100
AcDbEntity
  8
DRAW2
100
AcDbLine
 10
1576.395593254759
 20
158.999999
 30
0.0
 11
1576.395593254759
 21
142.0
 31
0.0
  0
LINE
  5
82DA
330
18
100
AcDbEntity
  8
DRAW2
100
AcDbLine
 10
1578.895593254759
 20
132.0
 30
0.0
 11
1578.895593254759
 21
142.0
 31
0.0
  0
LINE
  5
82DB
330
18
100
AcDbEntity
  8
DRAW2
100
AcDbLine
 10
1574.395593254759
 20
160.999999
 30
0.0
 11
1562.395593254759
 21
160.999999
 31
0.0
  0
CIRCLE
  5
82DC
330
18
100
AcDbEntity
  8
DRAW2
100
AcDbCircle
 10
1621.395593254759
 20
0.0
 30
0.0
 40
10.5
  0
CIRCLE
  5
82DD
330
18
100
AcDbEntity
  8
DRAW2
100
AcDbCircle
 10
1621.395593254759
 20
0.0
 30
0.0
 40
8.5
  0
LINE
  5
82DF
330
18
100
AcDbEntity
  8
DRAW2
100
AcDbLine
 10
1641.637121227812
 20
-55.27638404303132
 30
0.0
 11
1645.101217297148
 21
-57.27638404303143
 31
0.0
  0
LINE
  5
82E0
330
18
100
AcDbEntity
  8
DRAW2
100
AcDbLine
 10
1646.66010096414
 20
-46.57652442389093
 30
0.0
 11
1641.637151745389
 21
-55.27650611334394
 31
0.0
  0
LINE
  5
82E1
330
18
100
AcDbEntity
  8
DRAW2
100
AcDbLine
 10
1644.062002209258
 20
-45.07655494146893
 30
0.0
 11
1639.039083508085
 21
-53.77650611334388
 31
0.0
  0
LINE
  5
82E2
330
18
100
AcDbEntity
  8
DRAW2
100
AcDbLine
 10
1640.597860363554
 20
-43.07649390631268
 30
0.0
 11
1644.0619411741
 21
-45.07646338873451
 31
0.0
  0
LINE
  5
82E3
330
18
100
AcDbEntity
  8
DRAW2
100
AcDbLine
 10
1631.82285281588
 20
-37.77447191246557
 30
0.0
 11
1667.979787853789
 21
-58.64967505865632
 31
0.0
  0
LINE
  5
82E4
330
18
100
AcDbEntity
  8
DRAW2
100
AcDbLine
 10
1633.259573010039
 20
-41.78672950201593
 30
0.0
 11
1636.723684338164
 21
-43.78672950201586
 31
0.0
  0
LINE
  5
82E5
330
18
100
AcDbEntity
  8
DRAW2
100
AcDbLine
 10
1640.5979366575
 20
-43.07655494146893
 30
0.0
 11
1635.575017956328
 21
-51.77650611334382
 31
0.0
  0
LINE
  5
82E6
330
18
100
AcDbEntity
  8
DRAW2
100
AcDbLine
 10
1634.535711315703
 20
-39.57655494146882
 30
0.0
 11
1629.51279261453
 21
-48.27653663092206
 31
0.0
  0
LINE
  5
82E7
330
18
100
AcDbEntity
  8
DRAW2
100
AcDbLine
 10
1637.999807385039
 20
-41.57652442389086
 30
0.0
 11
1632.976903942656
 21
-50.27644507818768
 31
0.0
  0
LINE
  5
82E8
330
18
100
AcDbEntity
  8
DRAW2
100
AcDbLine
 10
1635.574941662381
 20
-51.77638404303143
 30
0.0
 11
1639.039037731718
 21
-53.77638404303133
 31
0.0
  0
LINE
  5
82E9
330
18
100
AcDbEntity
  8
DRAW2
100
AcDbLine
 10
1627.262792614531
 20
-52.17357032232832
 30
0.0
 11
1630.726903942656
 21
-54.17357032232836
 31
0.0
  0
LINE
  5
82EA
330
18
100
AcDbEntity
  8
DRAW2
100
AcDbLine
 10
1629.512762096953
 20
-48.27638404303144
 30
0.0
 11
1632.976858166289
 21
-50.2763840430315
 31
0.0
  0
LINE
  5
82EB
330
18
100
AcDbEntity
  8
DRAW2
100
AcDbLine
 10
1633.324972179961
 20
-55.6735703223283
 30
0.0
 11
1636.789083508086
 21
-57.67357032232826
 31
0.0
  0
LINE
  5
82EC
330
18
100
AcDbEntity
  8
DRAW2
100
AcDbLine
 10
1639.321752575469
 20
-45.2867295020158
 30
0.0
 11
1642.785863903593
 21
-47.28672950201576
 31
0.0
  0
LINE
  5
82ED
330
18
100
AcDbEntity
  8
DRAW2
100
AcDbLine
 10
1631.743318861951
 20
-37.9643053091649
 30
0.0
 11
1631.937582043241
 21
-38.07646338873457
 31
0.0
  0
LINE
  5
82EE
330
18
100
AcDbEntity
  8
DRAW2
100
AcDbLine
 10
1634.535696056914
 20
-39.57649390631257
 30
0.0
 11
1637.999761608671
 21
-41.57646338873445
 31
0.0
  0
LINE
  5
82EF
330
18
100
AcDbEntity
  8
DRAW2
100
AcDbLine
 10
1631.937597302031
 20
-38.07652442389081
 30
0.0
 11
1630.974058461058
 21
-39.74542201667901
 31
0.0
  0
LINE
  5
82F0
330
18
100
AcDbEntity
  8
DRAW2
100
AcDbLine
 10
1658.784368542264
 20
-53.57646338873445
 30
0.0
 11
1662.24847987039
 21
-55.57646338873451
 31
0.0
  0
LINE
  5
82F1
330
18
100
AcDbEntity
  8
DRAW2
100
AcDbLine
 10
1651.446081188749
 20
-52.28669898443758
 30
0.0
 11
1654.910192516874
 21
-54.28669898443764
 31
0.0
  0
LINE
  5
82F2
330
18
100
AcDbEntity
  8
DRAW2
100
AcDbLine
 10
1652.722173718046
 20
-50.07646338873456
 30
0.0
 11
1656.186300304961
 21
-52.07646338873451
 31
0.0
  0
LINE
  5
82F3
330
18
100
AcDbEntity
  8
DRAW2
100
AcDbLine
 10
1645.383932140898
 20
-48.78672950201586
 30
0.0
 11
1648.848028210234
 21
-50.78672950201582
 31
0.0
  0
LINE
  5
82F4
330
18
100
AcDbEntity
  8
DRAW2
100
AcDbLine
 10
1646.660039928984
 20
-46.57649390631258
 30
0.0
 11
1650.124151257109
 21
-48.57649390631263
 31
0.0
  0
LINE
  5
82F5
330
18
100
AcDbEntity
  8
DRAW2
100
AcDbLine
 10
1652.722250011992
 20
-50.07649390631264
 30
0.0
 11
1647.69933131082
 21
-58.77644507818764
 31
0.0
  0
LINE
  5
82F6
330
18
100
AcDbEntity
  8
DRAW2
100
AcDbLine
 10
1650.124181774686
 20
-48.57655494146893
 30
0.0
 11
1645.101278332304
 21
-57.27647559576581
 31
0.0
  0
LINE
  5
82F7
330
18
100
AcDbEntity
  8
DRAW2
100
AcDbLine
 10
1657.50826075418
 20
-55.78669898443763
 30
0.0
 11
1660.972372082304
 21
-57.78669898443768
 31
0.0
  0
LINE
  5
82F9
330
18
100
AcDbEntity
  8
DRAW2
100
AcDbLine
 10
1045.85941820887
 20
453.1398461164928
 30
0.0
 11
1045.85941820887
 21
371.1398461164928
 31
0.0
  0
LINE
  5
82FA
330
18
100
AcDbEntity
  8
DRAW2
100
AcDbLine
 10
1044.35941820887
 20
453.1398461164928
 30
0.0
 11
1044.35941820887
 21
257.1398461164929
 31
0.0
  0
LINE
  5
82FB
330
18
100
AcDbEntity
  8
DRAW2
100
AcDbLine
 10
981.3594182088699
 20
453.1398461164928
 30
0.0
 11
981.3594182088699
 21
257.1398461164929
 31
0.0
  0
LINE
  5
82FC
330
18
100
AcDbEntity
  8
DRAW2
100
AcDbLine
 10
981.3594182088703
 20
453.1398461164928
 30
0.0
 11
981.3594182088703
 21
257.1398461164929
 31
0.0
  0
LINE
  5
82FD
330
18
100
AcDbEntity
  8
DRAW2
100
AcDbLine
 10
971.3594182088703
 20
453.1398461164928
 30
0.0
 11
971.3594182088703
 21
257.1398461164929
 31
0.0
  0
LINE
  5
82FE
330
18
100
AcDbEntity
  8
DRAW2
100
AcDbLine
 10
1128.85941820887
 20
453.1398461164928
 30
0.0
 11
1128.85941820887
 21
371.1398461164928
 31
0.0
  0
LINE
  5
82FF
330
18
100
AcDbEntity
  8
DRAW2
100
AcDbLine
 10
1203.359418208869
 20
453.1398461164928
 30
0.0
 11
1203.359418208869
 21
375.639846116493
 31
0.0
  0
LINE
  5
8300
330
18
100
AcDbEntity
  8
DRAW2
100
AcDbLine
 10
1193.359418208869
 20
453.1398461164928
 30
0.0
 11
1193.359418208869
 21
257.1398461164929
 31
0.0
  0
LINE
  5
8301
330
18
100
AcDbEntity
  8
DRAW2
100
AcDbLine
 10
1193.35941820887
 20
453.1398461164928
 30
0.0
 11
1193.35941820887
 21
257.1398461164929
 31
0.0
  0
LINE
  5
8302
330
18
100
AcDbEntity
  8
DRAW2
100
AcDbLine
 10
1130.35941820887
 20
453.1398461164928
 30
0.0
 11
1130.35941820887
 21
257.1398461164929
 31
0.0
  0
LINE
  5
8303
330
18
100
AcDbEntity
  8
DRAW2
100
AcDbLine
 10
951.3594182088707
 20
424.6398461164928
 30
0.0
 11
951.3594182088707
 21
445.6398461164928
 31
0.0
  0
LINE
  5
8304
330
18
100
AcDbEntity
  8
DRAW2
100
AcDbLine
 10
949.3594182088706
 20
443.6398461164928
 30
0.0
 11
949.3594182088706
 21
426.6398461164928
 31
0.0
  0
LINE
  5
8305
330
18
100
AcDbEntity
  8
DRAW2
100
AcDbLine
 10
1223.359418208869
 20
424.6398461164928
 30
0.0
 11
1223.359418208869
 21
445.6398461164928
 31
0.0
  0
LINE
  5
8306
330
18
100
AcDbEntity
  8
DRAW2
100
AcDbLine
 10
1225.359418208869
 20
443.6398461164928
 30
0.0
 11
1225.359418208869
 21
426.6398461164928
 31
0.0
  0
LINE
  5
8307
330
18
100
AcDbEntity
  8
DRAW2
100
AcDbLine
 10
1044.35941820887
 20
392.6398461164928
 30
0.0
 11
981.3594182088703
 21
392.6398461164928
 31
0.0
  0
LINE
  5
8308
330
18
100
AcDbEntity
  8
DRAW2
100
AcDbLine
 10
1044.35941820887
 20
398.1398461164928
 30
0.0
 11
981.3594182088703
 21
398.1398461164928
 31
0.0
  0
CIRCLE
  5
8309
330
18
100
AcDbEntity
  8
DRAW2
100
AcDbCircle
 10
1006.359418208869
 20
328.1398461164929
 30
0.0
 40
6.0
  0
CIRCLE
  5
830A
330
18
100
AcDbEntity
  8
DRAW2
100
AcDbCircle
 10
1006.359418208869
 20
328.1398461164929
 30
0.0
 40
8.0
  0
LINE
  5
830B
330
18
100
AcDbEntity
  8
DRAW2
100
AcDbLine
 10
981.3594182088703
 20
317.6398461164929
 30
0.0
 11
1044.35941820887
 21
317.6398461164929
 31
0.0
  0
CIRCLE
  5
830C
330
18
100
AcDbEntity
  8
DRAW2
100
AcDbCircle
 10
1006.359418208869
 20
382.1398461164928
 30
0.0
 40
8.0
  0
CIRCLE
  5
830D
330
18
100
AcDbEntity
  8
DRAW2
100
AcDbCircle
 10
1006.359418208869
 20
382.1398461164928
 30
0.0
 40
6.0
  0
LINE
  5
830E
330
18
100
AcDbEntity
  8
DRAW2
100
AcDbLine
 10
981.3594182088699
 20
257.1398461164929
 30
0.0
 11
1044.35941820887
 21
257.1398461164929
 31
0.0
  0
LINE
  5
830F
330
18
100
AcDbEntity
  8
DRAW2
100
AcDbLine
 10
1044.35941820887
 20
312.1398461164929
 30
0.0
 11
981.3594182088703
 21
312.1398461164929
 31
0.0
  0
LINE
  5
8311
330
18
100
AcDbEntity
  8
DRAW2
100
AcDbLine
 10
981.3594182088699
 20
398.1398461164928
 30
0.0
 11
981.3594182088703
 21
312.1398461164929
 31
0.0
  0
LINE
  5
8312
330
18
100
AcDbEntity
  8
DRAW2
100
AcDbLine
 10
949.3594182088706
 20
323.6398461164922
 30
0.0
 11
949.3594182088706
 21
306.6398461164922
 31
0.0
  0
LINE
  5
8313
330
18
100
AcDbEntity
  8
DRAW2
100
AcDbLine
 10
951.3594182088707
 20
304.6398461164922
 30
0.0
 11
951.3594182088707
 21
325.6398461164922
 31
0.0
  0
LINE
  5
8314
330
18
100
AcDbEntity
  8
DRAW2
100
AcDbLine
 10
951.3594182088707
 20
285.6398461164928
 30
0.0
 11
971.3594182088703
 21
285.6398461164928
 31
0.0
  0
LINE
  5
8315
330
18
100
AcDbEntity
  8
DRAW2
100
AcDbLine
 10
951.3594182088707
 20
264.6398461164928
 30
0.0
 11
971.3594182088703
 21
264.6398461164928
 31
0.0
  0
LINE
  5
8317
330
18
100
AcDbEntity
  8
DRAW2
100
AcDbLine
 10
951.3594182088707
 20
264.6398461164928
 30
0.0
 11
951.3594182088707
 21
285.6398461164928
 31
0.0
  0
LINE
  5
8318
330
18
100
AcDbEntity
  8
DRAW2
100
AcDbLine
 10
949.3594182088706
 20
283.6398461164928
 30
0.0
 11
949.3594182088706
 21
266.6398461164928
 31
0.0
  0
LINE
  5
8319
330
18
100
AcDbEntity
  8
DRAW2
100
AcDbLine
 10
949.3594182088706
 20
266.6398461164928
 30
0.0
 11
951.3594182088707
 21
264.6398461164928
 31
0.0
  0
LINE
  5
831A
330
18
100
AcDbEntity
  8
DRAW2
100
AcDbLine
 10
951.3594182088707
 20
285.6398461164928
 30
0.0
 11
949.3594182088706
 21
283.6398461164928
 31
0.0
  0
LINE
  5
831B
330
18
100
AcDbEntity
  8
DRAW2
100
AcDbLine
 10
971.3594182088703
 20
257.1398461164929
 30
0.0
 11
981.3594182088703
 21
257.1398461164929
 31
0.0
  0
LINE
  5
831C
330
18
100
AcDbEntity
  8
DRAW2
100
AcDbLine
 10
951.3594182088707
 20
304.6398461164922
 30
0.0
 11
971.3594182088703
 21
304.6398461164922
 31
0.0
  0
LINE
  5
831E
330
18
100
AcDbEntity
  8
DRAW2
100
AcDbLine
 10
949.3594182088706
 20
306.6398461164922
 30
0.0
 11
951.3594182088707
 21
304.6398461164922
 31
0.0
  0
LINE
  5
831F
330
18
100
AcDbEntity
  8
DRAW2
100
AcDbLine
 10
981.3594182088703
 20
314.1154631229608
 30
0.0
 11
971.3594182088703
 21
314.1154631229608
 31
0.0
  0
LINE
  5
8320
330
18
100
AcDbEntity
  8
DRAW2
100
AcDbLine
 10
981.3594182088703
 20
392.6398461164928
 30
0.0
 11
981.3594182088703
 21
317.6398461164929
 31
0.0
  0
LINE
  5
8321
330
18
100
AcDbEntity
  8
DRAW2
100
AcDbLine
 10
951.3594182088707
 20
325.6398461164922
 30
0.0
 11
971.3594182088703
 21
325.6398461164922
 31
0.0
  0
LINE
  5
8322
330
18
100
AcDbEntity
  8
DRAW2
100
AcDbLine
 10
951.3594182088707
 20
325.6398461164922
 30
0.0
 11
949.3594182088706
 21
323.6398461164922
 31
0.0
  0
LINE
  5
8323
330
18
100
AcDbEntity
  8
DRAW2
100
AcDbLine
 10
951.3594182088707
 20
405.6398461164936
 30
0.0
 11
971.3594182088703
 21
405.6398461164936
 31
0.0
  0
LINE
  5
8324
330
18
100
AcDbEntity
  8
DRAW2
100
AcDbLine
 10
951.3594182088707
 20
384.6398461164935
 30
0.0
 11
971.3594182088703
 21
384.6398461164935
 31
0.0
  0
LINE
  5
8326
330
18
100
AcDbEntity
  8
DRAW2
100
AcDbLine
 10
951.3594182088707
 20
384.6398461164935
 30
0.0
 11
951.3594182088707
 21
405.6398461164936
 31
0.0
  0
LINE
  5
8327
330
18
100
AcDbEntity
  8
DRAW2
100
AcDbLine
 10
949.3594182088706
 20
403.6398461164934
 30
0.0
 11
949.3594182088706
 21
386.6398461164935
 31
0.0
  0
LINE
  5
8328
330
18
100
AcDbEntity
  8
DRAW2
100
AcDbLine
 10
949.3594182088706
 20
386.6398461164935
 30
0.0
 11
951.3594182088707
 21
384.6398461164935
 31
0.0
  0
LINE
  5
8329
330
18
100
AcDbEntity
  8
DRAW2
100
AcDbLine
 10
951.3594182088707
 20
405.6398461164936
 30
0.0
 11
949.3594182088706
 21
403.6398461164934
 31
0.0
  0
LINE
  5
832A
330
18
100
AcDbEntity
  8
DRAW2
100
AcDbLine
 10
981.3594182088703
 20
396.1642291100248
 30
0.0
 11
971.3594182088703
 21
396.1642291100248
 31
0.0
  0
LINE
  5
832B
330
18
100
AcDbEntity
  8
DRAW2
100
AcDbLine
 10
951.3594182088707
 20
424.6398461164928
 30
0.0
 11
971.3594182088703
 21
424.6398461164928
 31
0.0
  0
LINE
  5
832D
330
18
100
AcDbEntity
  8
DRAW2
100
AcDbLine
 10
949.3594182088706
 20
426.6398461164928
 30
0.0
 11
951.3594182088707
 21
424.6398461164928
 31
0.0
  0
LINE
  5
832E
330
18
100
AcDbEntity
  8
DRAW2
100
AcDbLine
 10
1044.35941820887
 20
398.1398461164928
 30
0.0
 11
1044.35941820887
 21
312.1398461164929
 31
0.0
  0
LINE
  5
832F
330
18
100
AcDbEntity
  8
DRAW2
100
AcDbLine
 10
1045.85941820887
 20
339.1398461164929
 30
0.0
 11
1045.85941820887
 21
257.1398461164929
 31
0.0
  0
LINE
  5
8330
330
18
100
AcDbEntity
  8
DRAW2
100
AcDbLine
 10
1130.35941820887
 20
398.1398461164928
 30
0.0
 11
1130.35941820887
 21
312.1398461164929
 31
0.0
  0
LINE
  5
8331
330
18
100
AcDbEntity
  8
DRAW2
100
AcDbLine
 10
1128.85941820887
 20
339.1398461164929
 30
0.0
 11
1128.85941820887
 21
257.1398461164929
 31
0.0
  0
LINE
  5
8332
330
18
100
AcDbEntity
  8
DRAW2
100
AcDbLine
 10
1193.35941820887
 20
398.1398461164928
 30
0.0
 11
1193.35941820887
 21
312.1398461164929
 31
0.0
  0
LINE
  5
8333
330
18
100
AcDbEntity
  8
DRAW2
100
AcDbLine
 10
1203.359418208869
 20
334.639846116493
 30
0.0
 11
1203.359418208869
 21
257.1398461164929
 31
0.0
  0
LINE
  5
8334
330
18
100
AcDbEntity
  8
DRAW2
100
AcDbLine
 10
1223.359418208869
 20
304.6398461164922
 30
0.0
 11
1223.359418208869
 21
325.6398461164922
 31
0.0
  0
LINE
  5
8335
330
18
100
AcDbEntity
  8
DRAW2
100
AcDbLine
 10
1225.359418208869
 20
323.6398461164922
 30
0.0
 11
1225.359418208869
 21
306.6398461164922
 31
0.0
  0
LINE
  5
8336
330
18
100
AcDbEntity
  8
DRAW2
100
AcDbLine
 10
1193.35941820887
 20
257.1398461164929
 30
0.0
 11
1130.35941820887
 21
257.1398461164929
 31
0.0
  0
LINE
  5
8337
330
18
100
AcDbEntity
  8
DRAW2
100
AcDbLine
 10
1193.35941820887
 20
312.1398461164929
 30
0.0
 11
1130.35941820887
 21
312.1398461164929
 31
0.0
  0
LINE
  5
8338
330
18
100
AcDbEntity
  8
DRAW2
100
AcDbLine
 10
1072.85941820887
 20
257.1398461164929
 30
0.0
 11
1072.85941820887
 21
240.1498461164929
 31
0.0
  0
LINE
  5
8339
330
18
100
AcDbEntity
  8
DRAW2
100
AcDbLine
 10
1101.85941820887
 20
257.1398461164929
 30
0.0
 11
1101.85941820887
 21
240.1498461164929
 31
0.0
  0
LINE
  5
833A
330
18
100
AcDbEntity
  8
DRAW2
100
AcDbLine
 10
1122.85941820887
 20
257.1398461164929
 30
0.0
 11
1122.85941820887
 21
240.1498461164929
 31
0.0
  0
LINE
  5
833B
330
18
100
AcDbEntity
  8
DRAW2
100
AcDbLine
 10
1051.85941820887
 20
257.1398461164929
 30
0.0
 11
1051.85941820887
 21
240.1498461164929
 31
0.0
  0
LINE
  5
833C
330
18
100
AcDbEntity
  8
DRAW2
100
AcDbLine
 10
1051.85941820887
 20
240.1498461164929
 30
0.0
 11
1072.85941820887
 21
240.1498461164929
 31
0.0
  0
LINE
  5
833D
330
18
100
AcDbEntity
  8
DRAW2
100
AcDbLine
 10
1101.85941820887
 20
240.1498461164929
 30
0.0
 11
1122.85941820887
 21
240.1498461164929
 31
0.0
  0
LINE
  5
833E
330
18
100
AcDbEntity
  8
DRAW2
100
AcDbLine
 10
1045.85941820887
 20
257.1398461164929
 30
0.0
 11
1128.85941820887
 21
257.1398461164929
 31
0.0
  0
LINE
  5
833F
330
18
100
AcDbEntity
  8
DRAW2
100
AcDbLine
 10
1128.85941820887
 20
314.1154631229608
 30
0.0
 11
1045.85941820887
 21
314.1154631229608
 31
0.0
  0
LINE
  5
8341
330
18
100
AcDbEntity
  8
DRAW2
100
AcDbLine
 10
1045.85941820887
 20
282.6398461164929
 30
0.0
 11
1044.35941820887
 21
282.6398461164929
 31
0.0
  0
LINE
  5
8343
330
18
100
AcDbEntity
  8
DRAW2
100
AcDbLine
 10
1130.35941820887
 20
282.6398461164929
 30
0.0
 11
1128.85941820887
 21
282.6398461164929
 31
0.0
  0
LINE
  5
8346
330
18
100
AcDbEntity
  8
DRAW2
100
AcDbLine
 10
1223.359418208869
 20
264.6398461164928
 30
0.0
 11
1223.359418208869
 21
285.6398461164928
 31
0.0
  0
LINE
  5
8347
330
18
100
AcDbEntity
  8
DRAW2
100
AcDbLine
 10
1225.359418208869
 20
283.6398461164928
 30
0.0
 11
1225.359418208869
 21
266.6398461164928
 31
0.0
  0
LINE
  5
8348
330
18
100
AcDbEntity
  8
DRAW2
100
AcDbLine
 10
1223.359418208869
 20
264.6398461164928
 30
0.0
 11
1203.359418208869
 21
264.6398461164928
 31
0.0
  0
LINE
  5
8349
330
18
100
AcDbEntity
  8
DRAW2
100
AcDbLine
 10
1203.359418208869
 20
257.1398461164929
 30
0.0
 11
1193.359418208869
 21
257.1398461164929
 31
0.0
  0
LINE
  5
834A
330
18
100
AcDbEntity
  8
DRAW2
100
AcDbLine
 10
1225.359418208869
 20
266.6398461164928
 30
0.0
 11
1223.359418208869
 21
264.6398461164928
 31
0.0
  0
LINE
  5
834B
330
18
100
AcDbEntity
  8
DRAW2
100
AcDbLine
 10
1223.359418208869
 20
285.6398461164928
 30
0.0
 11
1203.359418208869
 21
285.6398461164928
 31
0.0
  0
LINE
  5
834C
330
18
100
AcDbEntity
  8
DRAW2
100
AcDbLine
 10
1223.359418208869
 20
285.6398461164928
 30
0.0
 11
1225.359418208869
 21
283.6398461164928
 31
0.0
  0
LINE
  5
834D
330
18
100
AcDbEntity
  8
DRAW2
100
AcDbLine
 10
1223.359418208869
 20
304.6398461164922
 30
0.0
 11
1203.359418208869
 21
304.6398461164922
 31
0.0
  0
LINE
  5
834E
330
18
100
AcDbEntity
  8
DRAW2
100
AcDbLine
 10
1193.359418208869
 20
314.1154631229608
 30
0.0
 11
1203.359418208869
 21
314.1154631229608
 31
0.0
  0
LINE
  5
834F
330
18
100
AcDbEntity
  8
DRAW2
100
AcDbLine
 10
1225.359418208869
 20
306.6398461164922
 30
0.0
 11
1223.359418208869
 21
304.6398461164922
 31
0.0
  0
LINE
  5
8350
330
18
100
AcDbEntity
  8
DRAW2
100
AcDbLine
 10
1193.35941820887
 20
392.6398461164928
 30
0.0
 11
1130.35941820887
 21
392.6398461164928
 31
0.0
  0
LINE
  5
8351
330
18
100
AcDbEntity
  8
DRAW2
100
AcDbLine
 10
1193.35941820887
 20
398.1398461164928
 30
0.0
 11
1130.35941820887
 21
398.1398461164928
 31
0.0
  0
LINE
  5
8352
330
18
100
AcDbEntity
  8
DRAW2
100
AcDbLine
 10
1130.35941820887
 20
317.6398461164929
 30
0.0
 11
1193.35941820887
 21
317.6398461164929
 31
0.0
  0
LINE
  5
8353
330
18
100
AcDbEntity
  8
DRAW2
100
AcDbLine
 10
1130.35941820887
 20
392.6398461164928
 30
0.0
 11
1130.35941820887
 21
317.6398461164929
 31
0.0
  0
LINE
  5
8354
330
18
100
AcDbEntity
  8
DRAW2
100
AcDbLine
 10
1044.35941820887
 20
317.6398461164929
 30
0.0
 11
1044.35941820887
 21
392.6398461164928
 31
0.0
  0
LINE
  5
8355
330
18
100
AcDbEntity
  8
DRAW2
100
AcDbLine
 10
1130.35941820887
 20
339.1398461164929
 30
0.0
 11
1044.35941820887
 21
339.1398461164929
 31
0.0
  0
LINE
  5
8356
330
18
100
AcDbEntity
  8
DRAW2
100
AcDbLine
 10
1130.35941820887
 20
371.1398461164928
 30
0.0
 11
1044.35941820887
 21
371.1398461164928
 31
0.0
  0
LINE
  5
8357
330
18
100
AcDbEntity
  8
DRAW2
100
AcDbLine
 10
1128.85941820887
 20
396.164229110025
 30
0.0
 11
1045.85941820887
 21
396.164229110025
 31
0.0
  0
LINE
  5
8358
330
18
100
AcDbEntity
  8
DRAW2
100
AcDbLine
 10
1045.85941820887
 20
427.6398461164928
 30
0.0
 11
1044.35941820887
 21
427.6398461164928
 31
0.0
  0
LINE
  5
8359
330
18
100
AcDbEntity
  8
DRAW2
100
AcDbLine
 10
1130.35941820887
 20
427.6398461164928
 30
0.0
 11
1128.85941820887
 21
427.6398461164928
 31
0.0
  0
LINE
  5
835A
330
18
100
AcDbEntity
  8
DRAW2
100
AcDbLine
 10
1193.35941820887
 20
317.6398461164929
 30
0.0
 11
1193.35941820887
 21
392.6398461164928
 31
0.0
  0
CIRCLE
  5
835B
330
18
100
AcDbEntity
  8
DRAW2
100
AcDbCircle
 10
1168.359418208869
 20
382.1398461164928
 30
0.0
 40
6.0
  0
CIRCLE
  5
835C
330
18
100
AcDbEntity
  8
DRAW2
100
AcDbCircle
 10
1168.359418208869
 20
382.1398461164928
 30
0.0
 40
8.0
  0
LINE
  5
835D
330
18
100
AcDbEntity
  8
DRAW2
100
AcDbLine
 10
1221.359418208869
 20
375.6398461164928
 30
0.0
 11
1221.359418208869
 21
334.6398461164929
 31
0.0
  0
LINE
  5
835E
330
18
100
AcDbEntity
  8
DRAW2
100
AcDbLine
 10
1223.359418208869
 20
336.6398461164929
 30
0.0
 11
1223.359418208869
 21
373.6398461164928
 31
0.0
  0
CIRCLE
  5
835F
330
18
100
AcDbEntity
  8
DRAW2
100
AcDbCircle
 10
1168.359418208869
 20
328.1398461164929
 30
0.0
 40
8.0
  0
CIRCLE
  5
8360
330
18
100
AcDbEntity
  8
DRAW2
100
AcDbCircle
 10
1168.359418208869
 20
328.1398461164929
 30
0.0
 40
6.0
  0
LINE
  5
8361
330
18
100
AcDbEntity
  8
DRAW2
100
AcDbLine
 10
1223.359418208869
 20
325.6398461164922
 30
0.0
 11
1203.359418208869
 21
325.6398461164922
 31
0.0
  0
LINE
  5
8362
330
18
100
AcDbEntity
  8
DRAW2
100
AcDbLine
 10
1223.359418208869
 20
325.6398461164922
 30
0.0
 11
1225.359418208869
 21
323.6398461164922
 31
0.0
  0
LINE
  5
8363
330
18
100
AcDbEntity
  8
DRAW2
100
AcDbLine
 10
1193.359418208869
 20
334.639846116493
 30
0.0
 11
1221.359418208869
 21
334.6398461164929
 31
0.0
  0
LINE
  5
8364
330
18
100
AcDbEntity
  8
DRAW2
100
AcDbLine
 10
1221.359418208869
 20
334.6398461164929
 30
0.0
 11
1223.359418208869
 21
336.6398461164929
 31
0.0
  0
LINE
  5
8365
330
18
100
AcDbEntity
  8
DRAW2
100
AcDbLine
 10
1193.359418208869
 20
375.639846116493
 30
0.0
 11
1221.359418208869
 21
375.6398461164928
 31
0.0
  0
LINE
  5
8366
330
18
100
AcDbEntity
  8
DRAW2
100
AcDbLine
 10
1223.359418208869
 20
373.6398461164928
 30
0.0
 11
1221.359418208869
 21
375.6398461164928
 31
0.0
  0
LINE
  5
8369
330
18
100
AcDbEntity
  8
DRAW2
100
AcDbLine
 10
1223.359418208869
 20
384.6398461164935
 30
0.0
 11
1223.359418208869
 21
405.6398461164936
 31
0.0
  0
LINE
  5
836A
330
18
100
AcDbEntity
  8
DRAW2
100
AcDbLine
 10
1225.359418208869
 20
403.6398461164934
 30
0.0
 11
1225.359418208869
 21
386.6398461164935
 31
0.0
  0
LINE
  5
836B
330
18
100
AcDbEntity
  8
DRAW2
100
AcDbLine
 10
1223.359418208869
 20
384.6398461164935
 30
0.0
 11
1203.359418208869
 21
384.6398461164935
 31
0.0
  0
LINE
  5
836C
330
18
100
AcDbEntity
  8
DRAW2
100
AcDbLine
 10
1225.359418208869
 20
386.6398461164935
 30
0.0
 11
1223.359418208869
 21
384.6398461164935
 31
0.0
  0
LINE
  5
836D
330
18
100
AcDbEntity
  8
DRAW2
100
AcDbLine
 10
1223.359418208869
 20
405.6398461164936
 30
0.0
 11
1203.359418208869
 21
405.6398461164936
 31
0.0
  0
LINE
  5
836E
330
18
100
AcDbEntity
  8
DRAW2
100
AcDbLine
 10
1193.359418208869
 20
396.1642291100248
 30
0.0
 11
1203.359418208869
 21
396.1642291100248
 31
0.0
  0
LINE
  5
836F
330
18
100
AcDbEntity
  8
DRAW2
100
AcDbLine
 10
1223.359418208869
 20
405.6398461164936
 30
0.0
 11
1225.359418208869
 21
403.6398461164934
 31
0.0
  0
LINE
  5
8370
330
18
100
AcDbEntity
  8
DRAW2
100
AcDbLine
 10
1223.359418208869
 20
424.6398461164928
 30
0.0
 11
1203.359418208869
 21
424.6398461164928
 31
0.0
  0
LINE
  5
8371
330
18
100
AcDbEntity
  8
DRAW2
100
AcDbLine
 10
1225.359418208869
 20
426.6398461164928
 30
0.0
 11
1223.359418208869
 21
424.6398461164928
 31
0.0
  0
LINE
  5
8372
330
18
100
AcDbEntity
  8
DRAW2
100
AcDbLine
 10
981.3594182088699
 20
453.1398461164928
 30
0.0
 11
1044.35941820887
 21
453.1398461164928
 31
0.0
  0
LINE
  5
8373
330
18
100
AcDbEntity
  8
DRAW2
100
AcDbLine
 10
951.3594182088707
 20
445.6398461164928
 30
0.0
 11
971.3594182088703
 21
445.6398461164928
 31
0.0
  0
LINE
  5
8374
330
18
100
AcDbEntity
  8
DRAW2
100
AcDbLine
 10
951.3594182088707
 20
445.6398461164928
 30
0.0
 11
949.3594182088706
 21
443.6398461164928
 31
0.0
  0
LINE
  5
8375
330
18
100
AcDbEntity
  8
DRAW2
100
AcDbLine
 10
981.3594182088703
 20
453.1398461164928
 30
0.0
 11
971.3594182088703
 21
453.1398461164928
 31
0.0
  0
LINE
  5
8376
330
18
100
AcDbEntity
  8
DRAW2
100
AcDbLine
 10
1193.35941820887
 20
453.1398461164928
 30
0.0
 11
1130.35941820887
 21
453.1398461164928
 31
0.0
  0
LWPOLYLINE
  5
8377
330
18
100
AcDbEntity
  8
DRAW2
100
AcDbPolyline
 90
       17
 70
     0
 43
0.0
 10
1074.856978208869
 20
461.1571261164931
 42
-0.035781046
 10
1074.921178208869
 20
462.0514561164931
 42
-0.034735064
 10
1075.11069820887
 20
462.9281861164932
 42
-0.032808804
 10
1075.416378208869
 20
463.7705961164932
 42
-0.030443153
 10
1075.826278208869
 20
464.5683461164932
 42
-0.027895124
 10
1076.326508208869
 20
465.3133861164932
 42
-0.02537777
 10
1076.902548208869
 20
466.0003861164931
 42
-0.023117419
 10
1077.542928208868
 20
466.6289961164931
 42
-0.021113402
 10
1078.23660820887
 20
467.1988961164932
 42
-0.019360733
 10
1078.97328820887
 20
467.7103561164931
 42
-0.017915764
 10
1079.746818208868
 20
468.1660761164931
 42
-0.016694069
 10
1080.550218208869
 20
468.5673661164933
 42
-0.015678877
 10
1081.377878208869
 20
468.9158761164931
 42
-0.014848697
 10
1082.225268208869
 20
469.2132861164931
 42
-0.0141799
 10
1083.088508208869
 20
469.4610761164932
 42
-0.013652836
 10
1083.964238208869
 20
469.6604961164931
 42
-0.013251928
 10
1084.849468208868
 20
469.8125561164931
  0
LWPOLYLINE
  5
8378
330
18
100
AcDbEntity
  8
DRAW2
100
AcDbPolyline
 90
       17
 70
     0
 43
0.0
 10
1074.856368208868
 20
463.2783961164931
 42
-0.035781241
 10
1074.920568208869
 20
464.1727261164931
 42
-0.034735204
 10
1075.110088208869
 20
465.0494561164931
 42
-0.032808878
 10
1075.41577820887
 20
465.891876116493
 42
-0.03044317
 10
1075.82566820887
 20
466.6896261164931
 42
-0.027895097
 10
1076.325898208869
 20
467.4346561164931
 42
-0.025377711
 10
1076.90193820887
 20
468.1216561164932
 42
-0.023117342
 10
1077.542318208869
 20
468.7502661164931
 42
-0.021113315
 10
1078.23600820887
 20
469.3201661164931
 42
-0.019360642
 10
1078.972688208869
 20
469.8316261164931
 42
-0.017915674
 10
1079.746208208869
 20
470.2873361164932
 42
-0.016693981
 10
1080.549608208869
 20
470.6886261164931
 42
-0.015678793
 10
1081.37726820887
 20
471.0371461164932
 42
-0.014848616
 10
1082.224658208869
 20
471.3345561164932
 42
-0.014179824
 10
1083.087898208869
 20
471.5823461164931
 42
-0.013652765
 10
1083.963628208869
 20
471.7817661164931
 42
-0.013251861
 10
1084.84884820887
 20
471.9338261164931
  0
LWPOLYLINE
  5
8379
330
18
100
AcDbEntity
  8
DRAW2
100
AcDbPolyline
 90
       12
 70
     0
 43
0.0
 10
1076.783168008385
 20
453.1398461164928
 42
-0.0050685916155142
 10
1076.90376820887
 20
453.2723561164931
 42
-0.023117342
 10
1077.54414820887
 20
453.9009661164931
 42
-0.021113315
 10
1078.237838208869
 20
454.4708561164931
 42
-0.019360642
 10
1078.974518208869
 20
454.9823161164932
 42
-0.017915674
 10
1079.748038208869
 20
455.4380361164931
 42
-0.016693981
 10
1080.55143820887
 20
455.8393261164932
 42
-0.015678793
 10
1081.37909820887
 20
456.1878361164931
 42
-0.014848616
 10
1082.226488208869
 20
456.4852561164931
 42
-0.014179824
 10
1083.08972820887
 20
456.7330361164931
 42
-0.013652765
 10
1083.965468208869
 20
456.9324561164932
 42
-0.013251861
 10
1084.850688208869
 20
457.0845261164931
  0
LWPOLYLINE
  5
837A
330
18
100
AcDbEntity
  8
DRAW2
100
AcDbPolyline
 90
        8
 70
     0
 43
0.0
 10
1079.433059174409
 20
453.1398461164928
 42
-0.0072167115926629
 10
1079.748588208869
 20
453.3167561164931
 42
-0.016694044
 10
1080.551988208869
 20
453.7180361164931
 42
-0.015678837
 10
1081.379648208868
 20
454.0665461164931
 42
-0.014848642
 10
1082.22703820887
 20
454.3639561164932
 42
-0.014179833
 10
1083.09027820887
 20
454.6117461164932
 42
-0.013652758
 10
1083.966018208869
 20
454.8111661164931
 42
-0.01325184
 10
1084.851238208869
 20
454.9632261164931
  0
LWPOLYLINE
  5
837B
330
18
100
AcDbEntity
  8
DRAW2
100
AcDbPolyline
 90
       17
 70
     0
 43
0.0
 10
1074.856978208869
 20
458.3286361164931
 42
-0.035781241
 10
1074.921178208869
 20
459.2229561164931
 42
-0.034735204
 10
1075.11069820887
 20
460.0996961164931
 42
-0.032808878
 10
1075.416388208868
 20
460.9421061164931
 42
-0.03044317
 10
1075.826278208869
 20
461.7398561164931
 42
-0.027895097
 10
1076.326508208869
 20
462.4848861164931
 42
-0.025377711
 10
1076.902548208869
 20
463.1718861164931
 42
-0.023117342
 10
1077.542928208868
 20
463.8004961164932
 42
-0.021113315
 10
1078.23661820887
 20
464.3703961164932
 42
-0.019360642
 10
1078.97329820887
 20
464.8818561164931
 42
-0.017915674
 10
1079.746818208868
 20
465.3375761164929
 42
-0.016693981
 10
1080.550218208869
 20
465.7388661164929
 42
-0.015678793
 10
1081.377878208869
 20
466.0873761164931
 42
-0.014848616
 10
1082.225268208869
 20
466.3847861164931
 42
-0.014179824
 10
1083.088508208869
 20
466.6325761164931
 42
-0.013652765
 10
1083.964248208869
 20
466.8319961164931
 42
-0.013251861
 10
1084.849468208868
 20
466.9840661164932
  0
LWPOLYLINE
  5
837C
330
18
100
AcDbEntity
  8
DRAW2
100
AcDbPolyline
 90
       17
 70
     0
 43
0.0
 10
1074.85758820887
 20
456.2073561164931
 42
-0.035781046
 10
1074.921788208869
 20
457.1016861164931
 42
-0.034735135
 10
1075.111308208869
 20
457.9784161164931
 42
-0.032808914
 10
1075.416998208869
 20
458.8208261164931
 42
-0.030443274
 10
1075.826888208869
 20
459.6185761164931
 42
-0.027895236
 10
1076.32711820887
 20
460.3636061164929
 42
-0.025377859
 10
1076.903158208869
 20
461.0506161164932
 42
-0.023117483
 10
1077.54353820887
 20
461.6792161164932
 42
-0.02111344
 10
1078.237228208869
 20
462.2491161164931
 42
-0.019360746
 10
1078.97389820887
 20
462.7605761164931
 42
-0.017915758
 10
1079.747428208869
 20
463.2162861164931
 42
-0.016694044
 10
1080.550828208868
 20
463.6175761164931
 42
-0.015678837
 10
1081.378488208869
 20
463.9660861164931
 42
-0.014848642
 10
1082.225878208869
 20
464.2634961164932
 42
-0.014179833
 10
1083.089118208869
 20
464.5112861164931
 42
-0.013652758
 10
1083.964858208869
 20
464.7106961164931
 42
-0.01325184
 10
1084.850078208869
 20
464.8627561164931
  0
LWPOLYLINE
  5
837D
330
18
100
AcDbEntity
  8
DRAW2
100
AcDbPolyline
 90
       17
 70
     0
 43
0.0
 10
1074.85758820887
 20
453.3788661164932
 42
-0.035781241
 10
1074.921788208869
 20
454.2731961164931
 42
-0.034735204
 10
1075.111308208869
 20
455.1499261164932
 42
-0.032808878
 10
1075.416998208869
 20
455.9923361164932
 42
-0.03044317
 10
1075.826888208869
 20
456.7900861164932
 42
-0.027895097
 10
1076.32711820887
 20
457.5351161164932
 42
-0.025377711
 10
1076.903158208869
 20
458.2221261164931
 42
-0.023117342
 10
1077.54353820887
 20
458.8507261164931
 42
-0.021113315
 10
1078.237228208869
 20
459.4206261164932
 42
-0.019360642
 10
1078.97390820887
 20
459.9320861164932
 42
-0.017915674
 10
1079.747428208869
 20
460.3878061164931
 42
-0.016693981
 10
1080.550828208868
 20
460.7890961164931
 42
-0.015678793
 10
1081.378488208869
 20
461.1376061164931
 42
-0.014848616
 10
1082.225878208869
 20
461.4350161164932
 42
-0.014179824
 10
1083.089118208869
 20
461.6828061164932
 42
-0.013652765
 10
1083.964858208869
 20
461.8822261164931
 42
-0.013251861
 10
1084.850078208869
 20
462.0342961164932
  0
LWPOLYLINE
  5
837E
330
18
100
AcDbEntity
  8
DRAW2
100
AcDbPolyline
 90
       15
 70
     0
 43
0.0
 10
1075.14522225288
 20
453.1398461164928
 42
-0.0285596663011422
 10
1075.417608208869
 20
453.8710561164931
 42
-0.030443274
 10
1075.827498208868
 20
454.6688061164931
 42
-0.027895236
 10
1076.327728208869
 20
455.4138461164932
 42
-0.025377859
 10
1076.90376820887
 20
456.1008461164932
 42
-0.023117483
 10
1077.54414820887
 20
456.7294461164932
 42
-0.02111344
 10
1078.237838208869
 20
457.2993461164932
 42
-0.019360746
 10
1078.974508208869
 20
457.8108061164932
 42
-0.017915758
 10
1079.748038208869
 20
458.2665161164931
 42
-0.016694044
 10
1080.55143820887
 20
458.667806116493
 42
-0.015678837
 10
1081.37909820887
 20
459.0163161164931
 42
-0.014848642
 10
1082.226488208869
 20
459.3137261164931
 42
-0.014179833
 10
1083.08972820887
 20
459.5615161164931
 42
-0.013652758
 10
1083.965468208869
 20
459.7609261164931
 42
-0.01325184
 10
1084.850688208869
 20
459.9129961164932
  0
LWPOLYLINE
  5
837F
330
18
100
AcDbEntity
  8
DRAW2
100
AcDbPolyline
 90
       17
 70
     0
 43
0.0
 10
1074.863808208869
 20
466.1079861164932
 42
-0.035781046
 10
1074.928008208869
 20
467.0023161164931
 42
-0.034735064
 10
1075.11752820887
 20
467.8790461164932
 42
-0.032808804
 10
1075.42320820887
 20
468.7214561164932
 42
-0.030443153
 10
1075.833108208869
 20
469.5192061164931
 42
-0.027895124
 10
1076.33333820887
 20
470.2642461164932
 42
-0.02537777
 10
1076.909378208869
 20
470.9512461164932
 42
-0.023117419
 10
1077.54975820887
 20
471.5798561164931
 42
-0.021113402
 10
1078.24343820887
 20
472.1497561164932
 42
-0.019360733
 10
1078.98011820887
 20
472.6612161164931
 42
-0.017915764
 10
1079.753648208868
 20
473.1169361164931
 42
-0.016694069
 10
1080.557048208869
 20
473.5182261164931
 42
-0.015678877
 10
1081.384708208869
 20
473.8667361164931
 42
-0.014848697
 10
1082.232098208869
 20
474.1641461164931
 42
-0.0141799
 10
1083.095338208869
 20
474.4119361164932
 42
-0.013652836
 10
1083.971068208869
 20
474.6113561164929
 42
-0.013251928
 10
1084.85629820887
 20
474.7634161164931
  0
LWPOLYLINE
  5
8380
330
18
100
AcDbEntity
  8
DRAW2
100
AcDbPolyline
 90
       17
 70
     0
 43
0.0
 10
1074.86319820887
 20
468.2292561164931
 42
-0.035781241
 10
1074.927398208868
 20
469.1235861164931
 42
-0.034735204
 10
1075.11691820887
 20
470.0003161164929
 42
-0.032808878
 10
1075.42260820887
 20
470.8427361164931
 42
-0.03044317
 10
1075.83249820887
 20
471.6404861164932
 42
-0.027895097
 10
1076.332728208869
 20
472.3855161164931
 42
-0.025377711
 10
1076.90876820887
 20
473.0725161164931
 42
-0.023117342
 10
1077.549148208869
 20
473.7011261164931
 42
-0.021113315
 10
1078.24283820887
 20
474.2710261164931
 42
-0.019360642
 10
1078.979518208869
 20
474.7824861164931
 42
-0.017915674
 10
1079.753038208868
 20
475.2381961164932
 42
-0.016693981
 10
1080.556438208869
 20
475.6394861164931
 42
-0.015678793
 10
1081.38409820887
 20
475.9880061164932
 42
-0.014848616
 10
1082.231488208869
 20
476.2854161164931
 42
-0.014179824
 10
1083.094728208869
 20
476.5332061164931
 42
-0.013652765
 10
1083.970458208869
 20
476.7326261164932
 42
-0.013251861
 10
1084.85567820887
 20
476.884686116493
  0
ARC
  5
8381
330
18
100
AcDbEntity
  8
DRAW2
100
AcDbCircle
 10
1087.359418208869
 20
468.9414981015397
 30
0.0
 40
13.19834801495315
100
AcDbArc
 50
18.72179935082566
 51
161.2782006491776
  0
LINE
  5
8382
330
18
100
AcDbEntity
  8
DRAW2
100
AcDbLine
 10
1045.85941820887
 20
453.1398461164928
 30
0.0
 11
1128.85941820887
 21
453.1398461164928
 31
0.0
  0
LINE
  5
8383
330
18
100
AcDbEntity
  8
DRAW2
100
AcDbLine
 10
1074.859418208869
 20
453.1398461164928
 30
0.0
 11
1074.859418208869
 21
473.1778161164929
 31
0.0
  0
LINE
  5
8384
330
18
100
AcDbEntity
  8
DRAW2
100
AcDbLine
 10
1076.357588208868
 20
455.4539361164932
 30
0.0
 11
1076.357588208868
 21
457.5752761164931
 31
0.0
  0
LINE
  5
8385
330
18
100
AcDbEntity
  8
DRAW2
100
AcDbLine
 10
1076.356978208869
 20
460.4037061164931
 30
0.0
 11
1076.356978208869
 21
462.5250761164929
 31
0.0
  0
LINE
  5
8386
330
18
100
AcDbEntity
  8
DRAW2
100
AcDbLine
 10
1076.356368208869
 20
465.3534761164931
 30
0.0
 11
1076.356368208869
 21
467.4748061164931
 31
0.0
  0
LINE
  5
8387
330
18
100
AcDbEntity
  8
DRAW2
100
AcDbLine
 10
1076.35575820887
 20
470.3032361164932
 30
0.0
 11
1076.35575820887
 21
472.4246061164931
 31
0.0
  0
LWPOLYLINE
  5
8388
330
18
100
AcDbEntity
  8
DRAW2
100
AcDbPolyline
 90
       17
 70
     0
 43
0.0
 10
1099.86862820887
 20
466.1079861164932
 42
0.035781046
 10
1099.804418208869
 20
467.0023161164931
 42
0.034735064
 10
1099.614898208868
 20
467.8790461164932
 42
0.032808804
 10
1099.309218208869
 20
468.7214561164932
 42
0.030443153
 10
1098.899328208869
 20
469.5192061164931
 42
0.027895124
 10
1098.399088208869
 20
470.2642461164932
 42
0.02537777
 10
1097.823058208869
 20
470.9512461164932
 42
0.023117419
 10
1097.18267820887
 20
471.5798561164931
 42
0.021113402
 10
1096.488988208869
 20
472.1497561164932
 42
0.019360733
 10
1095.752308208868
 20
472.6612161164931
 42
0.017915764
 10
1094.978788208869
 20
473.1169361164931
 42
0.016694069
 10
1094.17538820887
 20
473.5182261164931
 42
0.015678877
 10
1093.34772820887
 20
473.8667361164931
 42
0.014848697
 10
1092.500338208868
 20
474.1641461164931
 42
0.0141799
 10
1091.637088208869
 20
474.4119361164932
 42
0.013652836
 10
1090.761358208869
 20
474.6113561164929
 42
0.013251928
 10
1089.876138208869
 20
474.7634161164931
  0
LWPOLYLINE
  5
8389
330
18
100
AcDbEntity
  8
DRAW2
100
AcDbPolyline
 90
       17
 70
     0
 43
0.0
 10
1099.869298208868
 20
468.2292561164931
 42
0.035781241
 10
1099.805088208869
 20
469.1235861164931
 42
0.034735204
 10
1099.615568208869
 20
470.0003161164929
 42
0.032808878
 10
1099.309888208869
 20
470.8427361164931
 42
0.03044317
 10
1098.899988208869
 20
471.6404861164932
 42
0.027895097
 10
1098.399758208869
 20
472.3855161164931
 42
0.025377711
 10
1097.823718208869
 20
473.0725161164931
 42
0.023117342
 10
1097.183338208868
 20
473.7011261164931
 42
0.021113315
 10
1096.48965820887
 20
474.2710261164931
 42
0.019360642
 10
1095.75297820887
 20
474.7824861164931
 42
0.017915674
 10
1094.979448208869
 20
475.2381961164932
 42
0.016693981
 10
1094.176058208869
 20
475.6394861164931
 42
0.015678793
 10
1093.348398208868
 20
475.9880061164932
 42
0.014848616
 10
1092.50100820887
 20
476.2854161164931
 42
0.014179824
 10
1091.637758208868
 20
476.5332061164931
 42
0.013652765
 10
1090.762028208869
 20
476.7326261164932
 42
0.013251861
 10
1089.87680820887
 20
476.884686116493
  0
LINE
  5
838A
330
18
100
AcDbEntity
  8
DRAW2
100
AcDbLine
 10
1099.859418208869
 20
453.1398461164928
 30
0.0
 11
1099.859418208869
 21
473.1778161164929
 31
0.0
  0
LWPOLYLINE
  5
838B
330
18
100
AcDbEntity
  8
DRAW2
100
AcDbPolyline
 90
       17
 70
     0
 43
0.0
 10
1099.86179820887
 20
458.3286361164931
 42
0.035781241
 10
1099.797588208869
 20
459.2229561164931
 42
0.034735204
 10
1099.608068208869
 20
460.0996961164931
 42
0.032808878
 10
1099.302388208869
 20
460.9421061164931
 42
0.03044317
 10
1098.892488208869
 20
461.7398561164931
 42
0.027895097
 10
1098.392258208868
 20
462.4848861164931
 42
0.025377711
 10
1097.816218208869
 20
463.1718861164931
 42
0.023117342
 10
1097.17583820887
 20
463.8004961164932
 42
0.021113315
 10
1096.482148208868
 20
464.3703961164932
 42
0.019360642
 10
1095.745478208868
 20
464.8818561164931
 42
0.017915674
 10
1094.971948208869
 20
465.3375761164929
 42
0.016693981
 10
1094.168548208869
 20
465.7388661164929
 42
0.015678793
 10
1093.340888208869
 20
466.0873761164931
 42
0.014848616
 10
1092.493508208869
 20
466.3847861164931
 42
0.014179824
 10
1091.630258208869
 20
466.6325761164931
 42
0.013652765
 10
1090.754528208869
 20
466.8319961164931
 42
0.013251861
 10
1089.869308208869
 20
466.9840661164932
  0
LWPOLYLINE
  5
838C
330
18
100
AcDbEntity
  8
DRAW2
100
AcDbPolyline
 90
       17
 70
     0
 43
0.0
 10
1099.861248208869
 20
456.2073561164931
 42
0.035781046
 10
1099.797038208869
 20
457.1016861164931
 42
0.034735135
 10
1099.60751820887
 20
457.9784161164931
 42
0.032808914
 10
1099.301838208869
 20
458.8208261164931
 42
0.030443274
 10
1098.89194820887
 20
459.6185761164931
 42
0.027895236
 10
1098.391708208868
 20
460.3636061164929
 42
0.025377859
 10
1097.815678208869
 20
461.0506161164932
 42
0.023117483
 10
1097.175288208869
 20
461.6792161164932
 42
0.02111344
 10
1096.481608208868
 20
462.2491161164931
 42
0.019360746
 10
1095.74492820887
 20
462.7605761164931
 42
0.017915758
 10
1094.97139820887
 20
463.2162861164931
 42
0.016694044
 10
1094.168008208868
 20
463.6175761164931
 42
0.015678837
 10
1093.340348208869
 20
463.9660861164931
 42
0.014848642
 10
1092.492958208868
 20
464.2634961164932
 42
0.014179833
 10
1091.62970820887
 20
464.5112861164931
 42
0.013652758
 10
1090.753978208869
 20
464.7106961164931
 42
0.01325184
 10
1089.868758208868
 20
464.8627561164931
  0
LWPOLYLINE
  5
838D
330
18
100
AcDbEntity
  8
DRAW2
100
AcDbPolyline
 90
       17
 70
     0
 43
0.0
 10
1099.861248208869
 20
453.3788661164932
 42
0.035781241
 10
1099.797048208869
 20
454.2731961164931
 42
0.034735204
 10
1099.607528208869
 20
455.1499261164932
 42
0.032808878
 10
1099.301838208869
 20
455.9923361164932
 42
0.03044317
 10
1098.891948208869
 20
456.7900861164932
 42
0.027895097
 10
1098.39171820887
 20
457.5351161164932
 42
0.025377711
 10
1097.815678208869
 20
458.2221261164931
 42
0.023117342
 10
1097.175298208868
 20
458.8507261164931
 42
0.021113315
 10
1096.481608208868
 20
459.4206261164932
 42
0.019360642
 10
1095.74492820887
 20
459.9320861164932
 42
0.017915674
 10
1094.971408208869
 20
460.3878061164931
 42
0.016693981
 10
1094.168008208868
 20
460.7890961164931
 42
0.015678793
 10
1093.340348208869
 20
461.1376061164931
 42
0.014848616
 10
1092.492958208868
 20
461.4350161164932
 42
0.014179824
 10
1091.629718208869
 20
461.6828061164932
 42
0.013652765
 10
1090.753978208869
 20
461.8822261164931
 42
0.013251861
 10
1089.868758208868
 20
462.0342961164932
  0
LWPOLYLINE
  5
838E
330
18
100
AcDbEntity
  8
DRAW2
100
AcDbPolyline
 90
       15
 70
     0
 43
0.0
 10
1099.573605435229
 20
453.1398461164928
 42
0.0285596634692916
 10
1099.301228208869
 20
453.8710561164931
 42
0.030443274
 10
1098.891338208868
 20
454.6688061164931
 42
0.027895236
 10
1098.391098208868
 20
455.4138461164932
 42
0.025377859
 10
1097.81506820887
 20
456.1008461164932
 42
0.023117483
 10
1097.17467820887
 20
456.7294461164932
 42
0.02111344
 10
1096.480998208869
 20
457.2993461164932
 42
0.019360746
 10
1095.744318208869
 20
457.8108061164932
 42
0.017915758
 10
1094.970788208869
 20
458.2665161164931
 42
0.016694044
 10
1094.167398208868
 20
458.667806116493
 42
0.015678837
 10
1093.33973820887
 20
459.0163161164931
 42
0.014848642
 10
1092.492348208869
 20
459.3137261164931
 42
0.014179833
 10
1091.629098208868
 20
459.5615161164931
 42
0.013652758
 10
1090.753368208869
 20
459.7609261164931
 42
0.01325184
 10
1089.868148208869
 20
459.9129961164932
  0
LWPOLYLINE
  5
838F
330
18
100
AcDbEntity
  8
DRAW2
100
AcDbPolyline
 90
       12
 70
     0
 43
0.0
 10
1097.935658409354
 20
453.1398461164928
 42
0.0050685916155143
 10
1097.81505820887
 20
453.2723561164931
 42
0.023117342
 10
1097.17467820887
 20
453.9009661164931
 42
0.021113315
 10
1096.480988208869
 20
454.4708561164931
 42
0.019360642
 10
1095.744318208869
 20
454.9823161164932
 42
0.017915674
 10
1094.970788208869
 20
455.4380361164931
 42
0.016693981
 10
1094.167388208868
 20
455.8393261164932
 42
0.015678793
 10
1093.33973820887
 20
456.1878361164931
 42
0.014848616
 10
1092.492348208869
 20
456.4852561164931
 42
0.014179824
 10
1091.629098208868
 20
456.7330361164931
 42
0.013652765
 10
1090.753368208869
 20
456.9324561164932
 42
0.013251861
 10
1089.868148208869
 20
457.0845261164931
  0
LWPOLYLINE
  5
8390
330
18
100
AcDbEntity
  8
DRAW2
100
AcDbPolyline
 90
        8
 70
     0
 43
0.0
 10
1095.28570724333
 20
453.1398461164928
 42
0.007216711592663
 10
1094.970178208869
 20
453.3167561164931
 42
0.016694044
 10
1094.166788208869
 20
453.7180361164931
 42
0.015678837
 10
1093.33912820887
 20
454.0665461164931
 42
0.014848642
 10
1092.491738208869
 20
454.3639561164932
 42
0.014179833
 10
1091.628488208868
 20
454.6117461164932
 42
0.013652758
 10
1090.752758208868
 20
454.8111661164931
 42
0.01325184
 10
1089.86753820887
 20
454.9632261164931
  0
LINE
  5
8391
330
18
100
AcDbEntity
  8
DRAW2
100
AcDbLine
 10
1089.86063820887
 20
454.9642861164929
 30
0.0
 11
1089.86063820887
 21
457.0856161164932
 31
0.0
  0
LINE
  5
8392
330
18
100
AcDbEntity
  8
DRAW2
100
AcDbLine
 10
1084.85819820887
 20
454.9642861164929
 30
0.0
 11
1084.85819820887
 21
457.0856161164932
 31
0.0
  0
LINE
  5
8393
330
18
100
AcDbEntity
  8
DRAW2
100
AcDbLine
 10
1098.36124820887
 20
455.4539361164932
 30
0.0
 11
1098.36124820887
 21
457.5752761164931
 31
0.0
  0
LWPOLYLINE
  5
8394
330
18
100
AcDbEntity
  8
DRAW2
100
AcDbPolyline
 90
       17
 70
     0
 43
0.0
 10
1099.862468208869
 20
463.2783961164931
 42
0.035781241
 10
1099.798258208869
 20
464.1727261164931
 42
0.034735204
 10
1099.608738208869
 20
465.0494561164931
 42
0.032808878
 10
1099.303058208869
 20
465.891876116493
 42
0.03044317
 10
1098.893158208869
 20
466.6896261164931
 42
0.027895097
 10
1098.392928208869
 20
467.4346561164931
 42
0.025377711
 10
1097.816888208869
 20
468.1216561164932
 42
0.023117342
 10
1097.176508208869
 20
468.7502661164931
 42
0.021113315
 10
1096.48282820887
 20
469.3201661164931
 42
0.019360642
 10
1095.746148208869
 20
469.8316261164931
 42
0.017915674
 10
1094.972618208869
 20
470.2873361164932
 42
0.016693981
 10
1094.169228208869
 20
470.6886261164931
 42
0.015678793
 10
1093.341568208868
 20
471.0371461164932
 42
0.014848616
 10
1092.494178208869
 20
471.3345561164932
 42
0.014179824
 10
1091.630928208868
 20
471.5823461164931
 42
0.013652765
 10
1090.755198208869
 20
471.7817661164931
 42
0.013251861
 10
1089.86997820887
 20
471.9338261164931
  0
LWPOLYLINE
  5
8395
330
18
100
AcDbEntity
  8
DRAW2
100
AcDbPolyline
 90
       17
 70
     0
 43
0.0
 10
1099.86179820887
 20
461.1571261164931
 42
0.035781046
 10
1099.797588208869
 20
462.0514561164931
 42
0.034735064
 10
1099.608068208869
 20
462.9281861164932
 42
0.032808804
 10
1099.302388208869
 20
463.7705961164932
 42
0.030443153
 10
1098.892498208869
 20
464.5683461164932
 42
0.027895124
 10
1098.392258208868
 20
465.3133861164932
 42
0.02537777
 10
1097.81622820887
 20
466.0003861164931
 42
0.023117419
 10
1097.17584820887
 20
466.6289961164931
 42
0.021113402
 10
1096.482158208869
 20
467.1988961164932
 42
0.019360733
 10
1095.745478208868
 20
467.7103561164931
 42
0.017915764
 10
1094.971958208869
 20
468.1660761164931
 42
0.016694069
 10
1094.168558208868
 20
468.5673661164933
 42
0.015678877
 10
1093.34089820887
 20
468.9158761164931
 42
0.014848697
 10
1092.493508208869
 20
469.2132861164931
 42
0.0141799
 10
1091.630258208869
 20
469.4610761164932
 42
0.013652836
 10
1090.754528208869
 20
469.6604961164931
 42
0.013251928
 10
1089.869308208869
 20
469.8125561164931
  0
LINE
  5
8396
330
18
100
AcDbEntity
  8
DRAW2
100
AcDbLine
 10
1089.86118820887
 20
459.9140461164932
 30
0.0
 11
1089.86118820887
 21
462.0353861164931
 31
0.0
  0
LINE
  5
8397
330
18
100
AcDbEntity
  8
DRAW2
100
AcDbLine
 10
1089.862468208869
 20
469.8135861164931
 30
0.0
 11
1089.862468208869
 21
471.9349261164929
 31
0.0
  0
LINE
  5
8398
330
18
100
AcDbEntity
  8
DRAW2
100
AcDbLine
 10
1089.861858208869
 20
464.8638161164932
 30
0.0
 11
1089.861858208869
 21
466.985156116493
 31
0.0
  0
LINE
  5
8399
330
18
100
AcDbEntity
  8
DRAW2
100
AcDbLine
 10
1084.85758820887
 20
459.9140461164932
 30
0.0
 11
1084.85758820887
 21
462.0353861164931
 31
0.0
  0
LINE
  5
839A
330
18
100
AcDbEntity
  8
DRAW2
100
AcDbLine
 10
1084.85629820887
 20
469.8135861164931
 30
0.0
 11
1084.85629820887
 21
471.9349261164929
 31
0.0
  0
LINE
  5
839B
330
18
100
AcDbEntity
  8
DRAW2
100
AcDbLine
 10
1084.856978208869
 20
464.8638161164932
 30
0.0
 11
1084.856978208869
 21
466.985156116493
 31
0.0
  0
LINE
  5
839C
330
18
100
AcDbEntity
  8
DRAW2
100
AcDbLine
 10
1098.361858208869
 20
460.4037061164931
 30
0.0
 11
1098.361858208869
 21
462.5250761164929
 31
0.0
  0
LINE
  5
839D
330
18
100
AcDbEntity
  8
DRAW2
100
AcDbLine
 10
1098.362468208869
 20
465.3534761164931
 30
0.0
 11
1098.362468208869
 21
467.4748061164931
 31
0.0
  0
LINE
  5
839E
330
18
100
AcDbEntity
  8
DRAW2
100
AcDbLine
 10
1098.36307820887
 20
470.3032361164932
 30
0.0
 11
1098.36307820887
 21
472.4246061164931
 31
0.0
  0
LINE
  5
839F
330
18
100
AcDbEntity
  8
DRAW2
100
AcDbLine
 10
1089.86929820887
 20
474.764446116493
 30
0.0
 11
1089.86929820887
 21
476.8857861164931
 31
0.0
  0
LINE
  5
83A0
330
18
100
AcDbEntity
  8
DRAW2
100
AcDbLine
 10
1084.86312820887
 20
474.764446116493
 30
0.0
 11
1084.86312820887
 21
476.8857861164931
 31
0.0
  0
LINE
  5
83A1
330
18
100
AcDbEntity
  8
DRAW2
100
AcDbLine
 10
1223.359418208869
 20
445.6398461164928
 30
0.0
 11
1203.359418208869
 21
445.6398461164928
 31
0.0
  0
LINE
  5
83A2
330
18
100
AcDbEntity
  8
DRAW2
100
AcDbLine
 10
1193.359418208869
 20
453.1398461164928
 30
0.0
 11
1203.359418208869
 21
453.1398461164928
 31
0.0
  0
LINE
  5
83A3
330
18
100
AcDbEntity
  8
DRAW2
100
AcDbLine
 10
1223.359418208869
 20
445.6398461164928
 30
0.0
 11
1225.359418208869
 21
443.6398461164928
 31
0.0
  0
VIEWPORT
  5
BD5
330
15
100
AcDbEntity
 67
     1
  8
0
100
AcDbViewport
 10
420.4950122070313
 20
296.9950000476836
 30
0.0
 40
893.9779679990738
 41
598.5171102661597
 68
     1
 69
     1
 12
420.4950122070313
 22
296.9950000476836
 13
0.0
 23
0.0
 14
10.0
 24
10.0
 15
10.0
 25
10.0
 16
0.0
 26
0.0
 36
1.0
 17
0.0
 27
0.0
 37
0.0
 42
50.0
 43
0.0
 44
0.0
 45
598.5171102661597
 50
0.0
 51
0.0
 72
   100
 90
    32768
  1

281
     0
 71
     1
 74
     0
110
0.0
120
0.0
130
0.0
111
1.0
121
0.0
131
0.0
112
0.0
122
1.0
132
0.0
 79
     0
146
0.0
  0
ENDSEC
  0
SECTION
  2
OBJECTS
  0
DICTIONARY
  5
C
330
0
100
AcDbDictionary
281
     1
  3
ACAD_GROUP
350
D
  3
ACAD_LAYOUT
350
61A4
  3
ACAD_MLINESTYLE
350
E
  3
ACAD_PLOTSETTINGS
350
61A5
  3
ACAD_PLOTSTYLENAME
350
61A2
  0
DICTIONARY
  5
D
102
{ACAD_REACTORS
330
C
102
}
330
C
100
AcDbDictionary
281
     1
  0
DICTIONARY
  5
61A4
102
{ACAD_REACTORS
330
C
102
}
330
C
100
AcDbDictionary
281
     1
  3
Model
350
61A6
  3
ﾚｲｱｳﾄ1
350
61A7
  0
DICTIONARY
  5
E
102
{ACAD_REACTORS
330
C
102
}
330
C
100
AcDbDictionary
281
     1
  3
STANDARD
350
1B
  0
DICTIONARY
  5
61A5
102
{ACAD_REACTORS
330
C
102
}
330
C
100
AcDbDictionary
281
     1
  3
AdobePDF_A1
350
61AC
  0
ACDBDICTIONARYWDFLT
  5
61A2
102
{ACAD_REACTORS
330
C
102
}
330
C
100
AcDbDictionary
281
     1
  3
Normal
350
61A3
100
AcDbDictionaryWithDefault
340
61A3
  0
LAYOUT
  5
61A6
102
{ACAD_REACTORS
330
61A4
102
}
330
61A4
100
AcDbPlotSettings
  1

  2
Acrobat Distiller
  4

  6

 40
0.0
 41
0.0
 42
0.0
 43
0.0
 44
0.0
 45
0.0
 46
0.0
 47
0.0
 48
0.0
 49
0.0
140
0.0
141
0.0
142
1.0
143
1.0
 70
  1712
 72
     0
 73
     0
 74
     0
  7

 75
     0
147
1.0
148
0.0
149
0.0
100
AcDbLayout
  1
Model
 70
     1
 71
     0
 10
0.0
 20
0.0
 11
12.0
 21
9.0
 12
0.0
 22
0.0
 32
0.0
 14
0.0
 24
0.0
 34
0.0
 15
0.0
 25
0.0
 35
0.0
146
0.0
 13
0.0
 23
0.0
 33
0.0
 16
1.0
 26
0.0
 36
0.0
 17
0.0
 27
1.0
 37
0.0
 76
     0
330
18
  0
LAYOUT
  5
61A7
102
{ACAD_REACTORS
330
61A4
102
}
330
61A4
100
AcDbPlotSettings
  1
AdobePDF_A1
  2
Adobe PDF
  4
User120
  6
A1
 40
3.174999952316283
 41
3.174999952316283
 42
3.17498779296875
 43
3.17498779296875
 44
594.0
 45
841.0
 46
-3.169999999999998
 47
-3.169999999999998
 48
0.0
 49
0.0
140
841.0
141
594.0
142
1.0
143
1.0
 70
   692
 72
     1
 73
     1
 74
     4
  7
LineScale_10.ctb
 75
    16
147
1.0
148
0.0
149
0.0
100
AcDbLayout
  1
ﾚｲｱｳﾄ1
 70
     1
 71
     1
 10
-0.0049877929687501
 20
-0.0049999523162843
 11
840.9950122070311
 21
593.9950000476836
 12
0.0
 22
0.0
 32
0.0
 14
1.000000000000000E+20
 24
1.000000000000000E+20
 34
1.000000000000000E+20
 15
-1.000000000000000E+20
 25
-1.000000000000000E+20
 35
-1.000000000000000E+20
146
0.0
 13
0.0
 23
0.0
 33
0.0
 16
1.0
 26
0.0
 36
0.0
 17
0.0
 27
1.0
 37
0.0
 76
     0
330
15
331
BD5
  0
MLINESTYLE
  5
1B
102
{ACAD_REACTORS
330
E
102
}
330
E
100
AcDbMlineStyle
  2
STANDARD
 70
     0
  3

 62
     0
 51
90.0
 52
90.0
 71
     2
 49
0.5
 62
   256
  6
BYLAYER
 49
-0.5
 62
   256
  6
BYLAYER
  0
PLOTSETTINGS
  5
61AC
102
{ACAD_REACTORS
330
61A5
102
}
330
61A5
100
AcDbPlotSettings
  1
AdobePDF_A1
  2
Adobe PDF
  4
User120
  6
A1
 40
3.174999952316283
 41
3.174999952316283
 42
3.17498779296875
 43
3.17498779296875
 44
594.0
 45
841.0
 46
-3.169999999999998
 47
-3.169999999999998
 48
0.0
 49
0.0
140
841.0
141
594.0
142
1.0
143
1.0
 70
   692
 72
     1
 73
     1
 74
     4
  7
LineScale_10.ctb
 75
    16
147
1.0
148
0.0
149
0.0
  0
ACDBPLACEHOLDER
  5
61A3
102
{ACAD_REACTORS
330
61A2
102
}
330
61A2
  0
ENDSEC
  0
EOF
