  0
SECTION
  2
HEADER
  9
$ACADVER
  1
AC1015
  9
$ACADMAINTVER
 70
     6
  9
$DWGCODEPAGE
  3
ANSI_932
  9
$INSBASE
 10
0.0
 20
0.0
 30
0.0
  9
$EXTMIN
 10
1024.960737687932
 20
33.10691273787643
 30
-0.0000000100021362
  9
$EXTMAX
 10
1850.306164408089
 20
673.7935931090582
 30
0.0000000100021363
  9
$LIMMIN
 10
-841.0
 20
-594.0
  9
$LIMMAX
 10
841.0
 20
594.0
  9
$ORTHOMODE
 70
     1
  9
$REGENMODE
 70
     1
  9
$FILLMODE
 70
     1
  9
$QTEXTMODE
 70
     0
  9
$MIRRTEXT
 70
     0
  9
$LTSCALE
 40
7.0
  9
$ATTMODE
 70
     1
  9
$TEXTSIZE
 40
3.2
  9
$TRACEWID
 40
1.0
  9
$TEXTSTYLE
  7
DIMFONT
  9
$CLAYER
  8
DRAW2
  9
$CELTYPE
  6
BYLAYER
  9
$CECOLOR
 62
   256
  9
$CELTSCALE
 40
1.0
  9
$DISPSILH
 70
     0
  9
$DIMSCALE
 40
2.0
  9
$DIMASZ
 40
3.0
  9
$DIMEXO
 40
0.0
  9
$DIMDLI
 40
10.0
  9
$DIMRND
 40
0.0
  9
$DIMDLE
 40
0.0
  9
$DIMEXE
 40
1.0
  9
$DIMTP
 40
0.0
  9
$DIMTM
 40
0.0
  9
$DIMTXT
 40
3.2
  9
$DIMCEN
 40
0.0
  9
$DIMTSZ
 40
0.0
  9
$DIMTOL
 70
     0
  9
$DIMLIM
 70
     0
  9
$DIMTIH
 70
     0
  9
$DIMTOH
 70
     0
  9
$DIMSE1
 70
     0
  9
$DIMSE2
 70
     0
  9
$DIMTAD
 70
     3
  9
$DIMZIN
 70
     8
  9
$DIMBLK
  1

  9
$DIMASO
 70
     1
  9
$DIMSHO
 70
     1
  9
$DIMPOST
  1

  9
$DIMAPOST
  1

  9
$DIMALT
 70
     0
  9
$DIMALTD
 70
     2
  9
$DIMALTF
 40
25.4
  9
$DIMLFAC
 40
1.0
  9
$DIMTOFL
 70
     1
  9
$DIMTVP
 40
0.0
  9
$DIMTIX
 70
     0
  9
$DIMSOXD
 70
     0
  9
$DIMSAH
 70
     1
  9
$DIMBLK1
  1
OPEN
  9
$DIMBLK2
  1
OPEN
  9
$DIMSTYLE
  2
1_2
  9
$DIMCLRD
 70
     0
  9
$DIMCLRE
 70
     0
  9
$DIMCLRT
 70
     0
  9
$DIMTFAC
 40
0.75
  9
$DIMGAP
 40
1.0
  9
$DIMJUST
 70
     0
  9
$DIMSD1
 70
     0
  9
$DIMSD2
 70
     0
  9
$DIMTOLJ
 70
     1
  9
$DIMTZIN
 70
     8
  9
$DIMALTZ
 70
     0
  9
$DIMALTTZ
 70
     0
  9
$DIMUPT
 70
     0
  9
$DIMDEC
 70
     4
  9
$DIMTDEC
 70
     4
  9
$DIMALTU
 70
     2
  9
$DIMALTTD
 70
     2
  9
$DIMTXSTY
  7
DIMFONT
  9
$DIMAUNIT
 70
     0
  9
$DIMADEC
 70
     2
  9
$DIMALTRND
 40
0.0
  9
$DIMAZIN
 70
     2
  9
$DIMDSEP
 70
    46
  9
$DIMATFIT
 70
     1
  9
$DIMFRAC
 70
     0
  9
$DIMLDRBLK
  1
OPEN
  9
$DIMLUNIT
 70
     2
  9
$DIMLWD
 70
    -2
  9
$DIMLWE
 70
    -2
  9
$DIMTMOVE
 70
     0
  9
$LUNITS
 70
     2
  9
$LUPREC
 70
     4
  9
$SKETCHINC
 40
1.0
  9
$FILLETRAD
 40
33.0
  9
$AUNITS
 70
     0
  9
$AUPREC
 70
     4
  9
$MENU
  1
acad
  9
$ELEVATION
 40
0.0
  9
$PELEVATION
 40
0.0
  9
$THICKNESS
 40
0.0
  9
$LIMCHECK
 70
     0
  9
$CHAMFERA
 40
1.0
  9
$CHAMFERB
 40
1.0
  9
$CHAMFERC
 40
0.0
  9
$CHAMFERD
 40
0.0
  9
$SKPOLY
 70
     0
  9
$TDCREATE
 40
2452311.864408912
  9
$TDUCREATE
 40
2452311.489408912
  9
$TDUPDATE
 40
2454973.583362269
  9
$TDUUPDATE
 40
2454973.208362269
  9
$TDINDWG
 40
1.2341907639
  9
$TDUSRTIMER
 40
1.2341904745
  9
$USRTIMER
 70
     1
  9
$ANGBASE
 50
0.0
  9
$ANGDIR
 70
     0
  9
$PDMODE
 70
    35
  9
$PDSIZE
 40
0.5
  9
$PLINEWID
 40
0.0
  9
$SPLFRAME
 70
     0
  9
$SPLINETYPE
 70
     6
  9
$SPLINESEGS
 70
     8
  9
$HANDSEED
  5
1097B
  9
$SURFTAB1
 70
     6
  9
$SURFTAB2
 70
     6
  9
$SURFTYPE
 70
     6
  9
$SURFU
 70
     6
  9
$SURFV
 70
     6
  9
$UCSBASE
  2

  9
$UCSNAME
  2

  9
$UCSORG
 10
0.0
 20
0.0
 30
0.0
  9
$UCSXDIR
 10
1.0
 20
0.0
 30
0.0
  9
$UCSYDIR
 10
0.0
 20
1.0
 30
0.0
  9
$UCSORTHOREF
  2

  9
$UCSORTHOVIEW
 70
     0
  9
$UCSORGTOP
 10
0.0
 20
0.0
 30
0.0
  9
$UCSORGBOTTOM
 10
0.0
 20
0.0
 30
0.0
  9
$UCSORGLEFT
 10
0.0
 20
0.0
 30
0.0
  9
$UCSORGRIGHT
 10
0.0
 20
0.0
 30
0.0
  9
$UCSORGFRONT
 10
0.0
 20
0.0
 30
0.0
  9
$UCSORGBACK
 10
0.0
 20
0.0
 30
0.0
  9
$PUCSBASE
  2

  9
$PUCSNAME
  2

  9
$PUCSORG
 10
0.0
 20
0.0
 30
0.0
  9
$PUCSXDIR
 10
1.0
 20
0.0
 30
0.0
  9
$PUCSYDIR
 10
0.0
 20
1.0
 30
0.0
  9
$PUCSORTHOREF
  2

  9
$PUCSORTHOVIEW
 70
     0
  9
$PUCSORGTOP
 10
0.0
 20
0.0
 30
0.0
  9
$PUCSORGBOTTOM
 10
0.0
 20
0.0
 30
0.0
  9
$PUCSORGLEFT
 10
0.0
 20
0.0
 30
0.0
  9
$PUCSORGRIGHT
 10
0.0
 20
0.0
 30
0.0
  9
$PUCSORGFRONT
 10
0.0
 20
0.0
 30
0.0
  9
$PUCSORGBACK
 10
0.0
 20
0.0
 30
0.0
  9
$USERI1
 70
     0
  9
$USERI2
 70
     0
  9
$USERI3
 70
     0
  9
$USERI4
 70
     0
  9
$USERI5
 70
     0
  9
$USERR1
 40
0.0
  9
$USERR2
 40
0.0
  9
$USERR3
 40
0.0
  9
$USERR4
 40
0.0
  9
$USERR5
 40
0.0
  9
$WORLDVIEW
 70
     1
  9
$SHADEDGE
 70
     3
  9
$SHADEDIF
 70
    70
  9
$TILEMODE
 70
     1
  9
$MAXACTVP
 70
    48
  9
$PINSBASE
 10
0.0
 20
0.0
 30
0.0
  9
$PLIMCHECK
 70
     0
  9
$PEXTMIN
 10
1.000000000000000E+20
 20
1.000000000000000E+20
 30
1.000000000000000E+20
  9
$PEXTMAX
 10
-1.000000000000000E+20
 20
-1.000000000000000E+20
 30
-1.000000000000000E+20
  9
$PLIMMIN
 10
-0.0049877929687501
 20
-0.0049999523162843
  9
$PLIMMAX
 10
593.9950122070312
 20
419.9950000476837
  9
$UNITMODE
 70
     0
  9
$VISRETAIN
 70
     0
  9
$PLINEGEN
 70
     1
  9
$PSLTSCALE
 70
     1
  9
$TREEDEPTH
 70
  3020
  9
$CMLSTYLE
  2
STANDARD
  9
$CMLJUST
 70
     0
  9
$CMLSCALE
 40
20.0
  9
$PROXYGRAPHICS
 70
     1
  9
$MEASUREMENT
 70
     1
  9
$CELWEIGHT
370
    -1
  9
$ENDCAPS
280
     0
  9
$JOINSTYLE
280
     0
  9
$LWDISPLAY
290
     0
  9
$INSUNITS
 70
     0
  9
$HYPERLINKBASE
  1

  9
$STYLESHEET
  1

  9
$XEDIT
290
     1
  9
$CEPSNTYPE
380
     0
  9
$PSTYLEMODE
290
     1
  9
$FINGERPRINTGUID
  2
{7FD28A7C-F8BA-11D3-9BCC-00A0C977751D}
  9
$VERSIONGUID
  2
{9F99A170-AE2A-4609-AF03-21B2FA6BD8AC}
  9
$EXTNAMES
290
     1
  9
$PSVPSCALE
 40
0.0
  9
$OLESTARTUP
290
     0
  0
ENDSEC
  0
SECTION
  2
CLASSES
  0
CLASS
  1
LWPOLYLINE
  2
AcDbPolyline
  3
AutoCAD 2000
 90
    32768
280
     0
281
     1
  0
CLASS
  1
ACDBDICTIONARYWDFLT
  2
AcDbDictionaryWithDefault
  3
AutoCAD 2000
 90
        0
280
     0
281
     0
  0
CLASS
  1
ACDBPLACEHOLDER
  2
AcDbPlaceHolder
  3
AutoCAD 2000
 90
        0
280
     0
281
     0
  0
CLASS
  1
LAYOUT
  2
AcDbLayout
  3
AutoCAD 2000
 90
        0
280
     0
281
     0
  0
CLASS
  1
PLOTSETTINGS
  2
AcDbPlotSettings
  3
AutoCAD 2000
 90
        0
280
     0
281
     0
  0
CLASS
  1
RASTERVARIABLES
  2
AcDbRasterVariables
  3
ISM
 90
        0
280
     0
281
     0
  0
ENDSEC
  0
SECTION
  2
TABLES
  0
TABLE
  2
VPORT
  5
8
330
0
100
AcDbSymbolTable
 70
     2
  0
VPORT
  5
1097A
330
8
100
AcDbSymbolTableRecord
100
AcDbViewportTableRecord
  2
*Active
 70
     0
 10
0.0
 20
0.0
 11
1.0
 21
1.0
 12
1437.63345104801
 22
353.4502529234673
 13
0.0
 23
0.0
 14
5.0
 24
5.0
 15
10.0
 25
10.0
 16
0.0
 26
0.0
 36
1.0
 17
0.0
 27
0.0
 37
0.0
 40
645.5588224272364
 41
1.493654822335025
 42
50.0
 43
0.0
 44
0.0
 50
0.0
 51
0.0
 71
     0
 72
   100
 73
     1
 74
     0
 75
     0
 76
     0
 77
     0
 78
     1
281
     0
 65
     1
110
0.0
120
0.0
130
0.0
111
1.0
121
0.0
131
0.0
112
0.0
122
1.0
132
0.0
 79
     0
146
0.0
  0
ENDTAB
  0
TABLE
  2
LTYPE
  5
5
330
0
100
AcDbSymbolTable
 70
     2
  0
LTYPE
  5
12
330
5
100
AcDbSymbolTableRecord
100
AcDbLinetypeTableRecord
  2
BYBLOCK
 70
     0
  3

 72
    65
 73
     0
 40
0.0
  0
LTYPE
  5
13
330
5
100
AcDbSymbolTableRecord
100
AcDbLinetypeTableRecord
  2
BYLAYER
 70
     0
  3

 72
    65
 73
     0
 40
0.0
  0
LTYPE
  5
14
330
5
100
AcDbSymbolTableRecord
100
AcDbLinetypeTableRecord
  2
CONTINUOUS
 70
     0
  3
Solid line
 72
    65
 73
     0
 40
0.0
  0
LTYPE
  5
23
330
5
100
AcDbSymbolTableRecord
100
AcDbLinetypeTableRecord
  2
HIDDEN
 70
     0
  3
__ __ __ __ __ __ __ __ __ __ __ __ __ __ __ __
 72
    65
 73
     2
 40
0.375
 49
0.25
 74
     0
 49
-0.125
 74
     0
  0
ENDTAB
  0
TABLE
  2
LAYER
  5
2
330
0
100
AcDbSymbolTable
 70
     6
  0
LAYER
  5
E
330
2
100
AcDbSymbolTableRecord
100
AcDbLayerTableRecord
  2
0
 70
     0
 62
     7
  6
CONTINUOUS
370
    -3
390
1AC
  0
LAYER
  5
29
330
2
100
AcDbSymbolTableRecord
100
AcDbLayerTableRecord
  2
DRAW2
 70
     0
 62
     4
  6
CONTINUOUS
370
    -3
390
1AC
  0
LAYER
  5
2A
330
2
100
AcDbSymbolTableRecord
100
AcDbLayerTableRecord
  2
DRAW3
 70
     0
 62
     1
  6
CONTINUOUS
370
    -3
390
1AC
  0
LAYER
  5
2B
330
2
100
AcDbSymbolTableRecord
100
AcDbLayerTableRecord
  2
DRAW4
 70
     0
 62
     2
  6
CONTINUOUS
370
    -3
390
1AC
  0
LAYER
  5
2C
330
2
100
AcDbSymbolTableRecord
100
AcDbLayerTableRecord
  2
HIDDEN
 70
     0
 62
     7
  6
HIDDEN
370
    -3
390
1AC
  0
LAYER
  5
133
330
2
100
AcDbSymbolTableRecord
100
AcDbLayerTableRecord
  2
DEFPOINTS
 70
     0
 62
     7
  6
CONTINUOUS
290
     0
370
    -3
390
1AC
  0
ENDTAB
  0
TABLE
  2
STYLE
  5
3
330
0
100
AcDbSymbolTable
 70
     2
  0
STYLE
  5
F
330
3
100
AcDbSymbolTableRecord
100
AcDbTextStyleTableRecord
  2
STANDARD
 70
     0
 40
0.0
 41
1.0
 50
0.0
 71
     0
 42
2.5
  3
txt
  4

  0
STYLE
  5
30
330
3
100
AcDbSymbolTableRecord
100
AcDbTextStyleTableRecord
  2
DIMFONT
 70
     0
 40
0.0
 41
1.0
 50
10.0
 71
     0
 42
3.2
  3
romans.shx
  4
extfont.shx
  0
ENDTAB
  0
TABLE
  2
VIEW
  5
6
330
0
100
AcDbSymbolTable
 70
     5
  0
VIEW
  5
C27
330
6
100
AcDbSymbolTableRecord
100
AcDbViewTableRecord
  2
View1
 70
     0
 40
1250.0
 10
0.0
 20
0.0
 41
2066.420664206642
 11
0.0
 21
0.0
 31
1.0
 12
0.0
 22
0.0
 32
0.0
 42
50.0
 43
0.0
 44
0.0
 50
0.0
 71
     0
281
     0
 72
     1
110
0.0
120
0.0
130
0.0
111
1.0
121
0.0
131
0.0
112
0.0
122
1.0
132
0.0
 79
     0
146
0.0
  0
VIEW
  5
C2A
330
6
100
AcDbSymbolTableRecord
100
AcDbViewTableRecord
  2
A4
 70
     1
 40
314.2148930664061
 10
103.8222427368164
 20
144.5197510242462
 41
519.4401184271216
 11
0.0
 21
0.0
 31
1.0
 12
0.0
 22
0.0
 32
0.0
 42
50.0
 43
0.0
 44
0.0
 50
0.0
 71
     0
281
     0
 72
     1
110
0.0
120
0.0
130
0.0
111
1.0
121
0.0
131
0.0
112
0.0
122
1.0
132
0.0
 79
     0
146
0.0
  0
VIEW
  5
C2B
330
6
100
AcDbSymbolTableRecord
100
AcDbViewTableRecord
  2
A3
 70
     1
 40
314.2148930664061
 10
205.819491624832
 20
151.3197510242461
 41
519.4401184271216
 11
0.0
 21
0.0
 31
1.0
 12
0.0
 22
0.0
 32
0.0
 42
50.0
 43
0.0
 44
0.0
 50
0.0
 71
     0
281
     0
 72
     1
110
0.0
120
0.0
130
0.0
111
1.0
121
0.0
131
0.0
112
0.0
122
1.0
132
0.0
 79
     0
146
0.0
  0
VIEW
  5
C2C
330
6
100
AcDbSymbolTableRecord
100
AcDbViewTableRecord
  2
A2
 70
     1
 40
444.348344177246
 10
293.3145020008086
 20
213.319491624832
 41
734.5684804110931
 11
0.0
 21
0.0
 31
1.0
 12
0.0
 22
0.0
 32
0.0
 42
50.0
 43
0.0
 44
0.0
 50
0.0
 71
     0
281
     0
 72
     1
110
0.0
120
0.0
130
0.0
111
1.0
121
0.0
131
0.0
112
0.0
122
1.0
132
0.0
 79
     0
146
0.0
  0
VIEW
  5
C2D
330
6
100
AcDbSymbolTableRecord
100
AcDbViewTableRecord
  2
A1
 70
     1
 40
628.2954051513671
 10
422.5084997558592
 20
293.4384954071043
 41
1038.658086744695
 11
0.0
 21
0.0
 31
1.0
 12
0.0
 22
0.0
 32
0.0
 42
50.0
 43
0.0
 44
0.0
 50
0.0
 71
     0
281
     0
 72
     1
110
0.0
120
0.0
130
0.0
111
1.0
121
0.0
131
0.0
112
0.0
122
1.0
132
0.0
 79
     0
146
0.0
  0
ENDTAB
  0
TABLE
  2
UCS
  5
7
330
0
100
AcDbSymbolTable
 70
     0
  0
ENDTAB
  0
TABLE
  2
APPID
  5
9
330
0
100
AcDbSymbolTable
 70
     1
  0
APPID
  5
10
330
9
100
AcDbSymbolTableRecord
100
AcDbRegAppTableRecord
  2
ACAD
 70
     0
  0
ENDTAB
  0
TABLE
  2
DIMSTYLE
  5
A
330
0
100
AcDbSymbolTable
 70
     2
100
AcDbDimStyleTable
 71
     1
340
4B
  0
DIMSTYLE
105
4B
330
A
100
AcDbSymbolTableRecord
100
AcDbDimStyleTableRecord
  2
1_2
 70
     0
 40
2.0
 41
3.0
 42
0.0
 43
10.0
 44
1.0
 73
     0
 74
     0
 77
     3
 78
     8
 79
     2
140
3.2
141
0.0
146
0.75
147
1.0
172
     1
173
     1
179
     2
284
     8
289
     1
340
30
341
125
343
125
344
125
  0
DIMSTYLE
105
26A3
330
A
100
AcDbSymbolTableRecord
100
AcDbDimStyleTableRecord
  2
STANDARD
 70
     0
340
F
  0
ENDTAB
  0
TABLE
  2
BLOCK_RECORD
  5
1
330
0
100
AcDbSymbolTable
 70
     1
  0
BLOCK_RECORD
  5
18
330
1
100
AcDbSymbolTableRecord
100
AcDbBlockTableRecord
  2
*MODEL_SPACE
340
1AF
  0
BLOCK_RECORD
  5
15
330
1
100
AcDbSymbolTableRecord
100
AcDbBlockTableRecord
  2
*PAPER_SPACE
340
1B0
  0
BLOCK_RECORD
  5
125
330
1
100
AcDbSymbolTableRecord
100
AcDbBlockTableRecord
  2
_OPEN
340
0
102
{BLKREFS
331
2665
331
2666
331
2671
331
2672
331
267D
331
267E
331
DBF2
331
DBF3
331
DBE6
331
DBE7
331
DC22
331
DC23
331
DBCE
331
DBCF
331
DBDA
331
DBDB
331
DC0A
331
DC0B
331
DBFE
331
DBFF
331
DC16
331
DC17
331
107A0
331
107A1
331
107DD
331
107DE
331
107F3
331
107F4
331
10805
331
10806
331
10820
331
10821
331
10829
331
1082A
331
1083B
331
1083C
331
10844
331
10845
331
1084D
331
1084E
331
10871
331
10872
331
1087A
331
1087B
331
1089E
331
1089F
331
108B0
331
108B1
331
108DD
331
108DE
331
108E6
331
108E7
331
10917
331
10918
331
10923
331
10924
331
1093E
331
1093F
331
10950
331
10951
102
}
  0
ENDTAB
  0
ENDSEC
  0
SECTION
  2
BLOCKS
  0
BLOCK
  5
19
330
18
100
AcDbEntity
  8
0
100
AcDbBlockBegin
  2
*MODEL_SPACE
 70
     0
 10
0.0
 20
0.0
 30
0.0
  3
*MODEL_SPACE
  1

  0
ENDBLK
  5
1A
330
18
100
AcDbEntity
  8
0
100
AcDbBlockEnd
  0
BLOCK
  5
16
330
15
100
AcDbEntity
 67
     1
  8
0
100
AcDbBlockBegin
  2
*PAPER_SPACE
 70
     0
 10
0.0
 20
0.0
 30
0.0
  3
*PAPER_SPACE
  1

  0
ENDBLK
  5
17
330
15
100
AcDbEntity
 67
     1
  8
0
100
AcDbBlockEnd
  0
BLOCK
  5
126
330
125
100
AcDbEntity
  8
0
100
AcDbBlockBegin
  2
_OPEN
 70
     0
 10
0.0
 20
0.0
 30
0.0
  3
_OPEN
  1

  0
LINE
  5
127
330
125
100
AcDbEntity
  8
0
  6
ByBlock
 62
     0
100
AcDbLine
 10
-1.0
 20
0.1666666666666666
 30
0.0
 11
0.0
 21
0.0
 31
0.0
  0
LINE
  5
128
330
125
100
AcDbEntity
  8
0
  6
ByBlock
 62
     0
100
AcDbLine
 10
0.0
 20
0.0
 30
0.0
 11
-1.0
 21
-0.1666666666666666
 31
0.0
  0
LINE
  5
129
330
125
100
AcDbEntity
  8
0
  6
ByBlock
 62
     0
100
AcDbLine
 10
0.0
 20
0.0
 30
0.0
 11
-1.0
 21
0.0
 31
0.0
  0
ENDBLK
  5
12A
330
125
100
AcDbEntity
  8
0
100
AcDbBlockEnd
  0
ENDSEC
  0
SECTION
  2
ENTITIES
  0
TEXT
  5
2783
330
18
100
AcDbEntity
  8
0
100
AcDbText
 10
289.9791188454981
 20
596.5343442442899
 30
0.0
 40
3.2
  1

 51
10.0
  7
DIMFONT
100
AcDbText
  0
TEXT
  5
2791
330
18
100
AcDbEntity
  8
0
100
AcDbText
 10
399.046620988657
 20
559.3598774521149
 30
0.0
 40
3.2
  1

 51
10.0
  7
DIMFONT
100
AcDbText
  0
LINE
  5
100BB
330
18
100
AcDbEntity
  8
DRAW2
100
AcDbLine
 10
1225.96483194829
 20
53.32958598704909
 30
0.0
 11
1228.837091948291
 21
34.1812059870491
 31
0.0
  0
LINE
  5
100BC
330
18
100
AcDbEntity
  8
DRAW2
100
AcDbLine
 10
1261.964891948291
 20
53.32912598704911
 30
0.0
 11
1259.092641948291
 21
34.18077598704906
 31
0.0
  0
LINE
  5
100BD
330
18
100
AcDbEntity
  8
DRAW2
100
AcDbLine
 10
1099.964951948291
 20
53.32954598704907
 30
0.0
 11
1097.092701948291
 21
34.1812059870491
 31
0.0
  0
LINE
  5
100BE
330
18
100
AcDbEntity
  8
DRAW2
100
AcDbLine
 10
1063.96495194829
 20
53.32906598704902
 30
0.0
 11
1066.837211948291
 21
34.18074598704902
 31
0.0
  0
LINE
  5
100C1
330
18
100
AcDbEntity
  8
DRAW2
100
AcDbLine
 10
1067.82726194829
 20
33.32976598704908
 30
0.0
 11
1096.104851948291
 21
33.32976598704908
 31
0.0
  0
ARC
  5
100C2
330
18
100
AcDbEntity
  8
DRAW2
100
AcDbCircle
 10
1067.826891948291
 20
34.32933598704902
 30
0.0
 40
1.0
100
AcDbArc
 50
188.5308100000029
 51
269.9999099999974
  0
ARC
  5
100C3
330
18
100
AcDbEntity
  8
DRAW2
100
AcDbCircle
 10
1096.104421948291
 20
34.32921598704911
 30
0.0
 40
1.0
100
AcDbArc
 50
269.9999199999983
 51
351.4689499999949
  0
LINE
  5
100C4
330
18
100
AcDbEntity
  8
DRAW2
100
AcDbLine
 10
1258.102531948291
 20
33.32976598704908
 30
0.0
 11
1229.824941948291
 21
33.32976598704908
 31
0.0
  0
ARC
  5
100C5
330
18
100
AcDbEntity
  8
DRAW2
100
AcDbCircle
 10
1229.825371948291
 20
34.32921598704911
 30
0.0
 40
1.0
100
AcDbArc
 50
188.5310200000004
 51
270.0000499999985
  0
ARC
  5
100C6
330
18
100
AcDbEntity
  8
DRAW2
100
AcDbCircle
 10
1258.102891948291
 20
34.32933598704902
 30
0.0
 40
1.0
100
AcDbArc
 50
270.0000700000005
 51
351.4691799999948
  0
ELLIPSE
  5
100C7
330
18
100
AcDbEntity
  8
DRAW2
100
AcDbEllipse
 10
1163.166431949312
 20
494.9530851115528
 30
0.0
 11
-30.0
 21
0.0
 31
0.0
210
0.0
220
0.0
230
1.0
 40
0.5000004147659753
 41
2.865446269584484
 42
6.559331691184857
  0
ELLIPSE
  5
100C8
330
18
100
AcDbEntity
  8
DRAW2
100
AcDbEllipse
 10
1162.96550194829
 20
247.9777629614396
 30
0.0
 11
-30.0
 21
0.0
 31
0.0
210
0.0
220
0.0
230
1.0
 40
0.8660255430061521
 41
4.8125564015444
 42
10.89540686640086
  0
ELLIPSE
  5
100C9
330
18
100
AcDbEntity
  8
DRAW2
100
AcDbEllipse
 10
1163.166431949322
 20
472.9184817086997
 30
0.0
 11
-5.461324999999987
 21
0.0
 31
0.0
210
0.0
220
0.0
230
1.0
 40
0.5
 41
2.152343274395362
 42
7.272434686374015
  0
SPLINE
  5
100CA
330
18
100
AcDbEntity
  8
DRAW3
100
AcDbSpline
210
0.0
220
0.0
230
1.0
 70
     8
 71
     3
 72
    10
 73
     6
 74
     4
 42
0.0000000001
 43
0.0000000001
 44
0.0000000001
 40
0.0
 40
0.0
 40
0.0
 40
0.0
 40
1.972684243528778
 40
4.621558289201876
 40
6.679776794359209
 40
6.679776794359209
 40
6.679776794359209
 40
6.679776794359209
 10
1160.166431949323
 20
452.9484676800399
 30
0.0
 10
1160.742703946797
 20
453.4080124670754
 30
0.0
 10
1162.092780440539
 20
454.4846231951991
 30
0.0
 10
1164.275330177028
 20
452.2041746360559
 30
0.0
 10
1165.591099842541
 20
453.4180155601803
 30
0.0
 10
1166.166431949323
 20
453.9487784090879
 30
0.0
 11
1160.166431949323
 21
452.9484676800399
 31
0.0
 11
1161.924393997607
 21
453.8434830773709
 31
0.0
 11
1164.397947154609
 21
452.8958183216023
 31
0.0
 11
1166.166431949323
 21
453.9487784090879
 31
0.0
  0
ELLIPSE
  5
100CB
330
18
100
AcDbEntity
  8
DRAW2
100
AcDbEllipse
 10
1163.166431949312
 20
492.73567837007
 30
0.0
 11
-27.75
 21
0.0
 31
0.0
210
0.0
220
0.0
230
1.0
 40
0.5
 41
1.788114850849958
 42
7.636663109920212
  0
ELLIPSE
  5
100CC
330
18
100
AcDbEntity
  8
DRAW2
100
AcDbEllipse
 10
1163.166431949312
 20
494.4677291776388
 30
0.0
 11
-29.75
 21
0.0
 31
0.0
210
0.0
220
0.0
230
1.0
 40
0.5
 41
2.477730005301193
 42
6.947047955467209
  0
ELLIPSE
  5
100CD
330
18
100
AcDbEntity
  8
DRAW2
100
AcDbEllipse
 10
1144.979898469839
 20
487.48567837007
 30
0.0
 11
-5.5
 21
0.0
 31
0.0
210
0.0
220
0.0
230
1.0
 40
0.5
 41
0.0
 42
6.283185307179585
  0
ELLIPSE
  5
100CE
330
18
100
AcDbEntity
  8
DRAW2
100
AcDbEllipse
 10
1144.979898469839
 20
487.48567837007
 30
0.0
 11
-5.0
 21
0.0
 31
0.0
210
0.0
220
0.0
230
1.0
 40
0.5
 41
0.0
 42
6.283185307179585
  0
ELLIPSE
  5
100CF
330
18
100
AcDbEntity
  8
DRAW2
100
AcDbEllipse
 10
1181.352965428785
 20
487.48567837007
 30
0.0
 11
5.0
 21
0.0
 31
0.0
210
0.0
220
0.0
230
-1.0
 40
0.5
 41
0.0
 42
6.283185307179585
  0
ELLIPSE
  5
100D0
330
18
100
AcDbEntity
  8
DRAW2
100
AcDbEllipse
 10
1181.352965428785
 20
487.48567837007
 30
0.0
 11
5.5
 21
0.0
 31
0.0
210
0.0
220
0.0
230
-1.0
 40
0.5
 41
0.0
 42
6.283185307179585
  0
ELLIPSE
  5
100D1
330
18
100
AcDbEntity
  8
DRAW2
100
AcDbEllipse
 10
1163.166431949312
 20
503.2356783700699
 30
0.0
 11
5.5
 21
0.0
 31
0.0
210
0.0
220
0.0
230
-1.0
 40
0.5
 41
0.0
 42
6.283185307179585
  0
ELLIPSE
  5
100D2
330
18
100
AcDbEntity
  8
DRAW2
100
AcDbEllipse
 10
1163.166431949312
 20
503.2356783700699
 30
0.0
 11
5.0
 21
0.0
 31
0.0
210
0.0
220
0.0
230
-1.0
 40
0.5
 41
0.0
 42
6.283185307179585
  0
ELLIPSE
  5
100D3
330
18
100
AcDbEntity
  8
DRAW2
100
AcDbEllipse
 10
1163.166431949322
 20
473.3514944105918
 30
0.0
 11
-5.75
 21
0.0
 31
0.0
210
0.0
220
0.0
230
1.0
 40
0.5
 41
2.729778632910154
 42
6.694999327859224
  0
ELLIPSE
  5
100D4
330
18
100
AcDbEntity
  8
DRAW2
100
AcDbEllipse
 10
1163.166431949322
 20
475.5165579200529
 30
0.0
 11
-5.75
 21
0.0
 31
0.0
210
0.0
220
0.0
230
1.0
 40
0.5
 41
3.141592653589792
 42
6.283185307179585
  0
ELLIPSE
  5
100D5
330
18
100
AcDbEntity
  8
DRAW2
100
AcDbEllipse
 10
1163.166431949322
 20
472.9184817086997
 30
0.0
 11
-3.0
 21
0.0
 31
0.0
210
0.0
220
0.0
230
1.0
 40
0.5
 41
3.141592653589792
 42
6.283185307179585
  0
ELLIPSE
  5
100D6
330
18
100
AcDbEntity
  8
DRAW2
100
AcDbEllipse
 10
1163.166431949322
 20
482.0117484484362
 30
0.0
 11
-5.0
 21
0.0
 31
0.0
210
0.0
220
0.0
230
1.0
 40
0.5
 41
3.783165113152113
 42
5.641612847617263
  0
ELLIPSE
  5
100D7
330
18
100
AcDbEntity
  8
DRAW2
100
AcDbEllipse
 10
1163.166431949322
 20
485.6834181663276
 30
0.0
 11
-4.200000000000044
 21
0.0
 31
0.0
210
0.0
220
0.0
230
1.0
 40
0.5
 41
3.141592653589792
 42
6.283185307179585
  0
ELLIPSE
  5
100D8
330
18
100
AcDbEntity
  8
DRAW2
100
AcDbEllipse
 10
1163.166431949322
 20
483.3655011730985
 30
0.0
 11
-5.0
 21
0.0
 31
0.0
210
0.0
220
0.0
230
1.0
 40
0.5
 41
3.103130457090569
 42
6.321647503678809
  0
ELLIPSE
  5
100D9
330
18
100
AcDbEntity
  8
DRAW2
100
AcDbEllipse
 10
1163.166431949322
 20
495.2356783700698
 30
0.0
 11
-4.863999999999946
 21
0.0
 31
0.0
210
0.0
220
0.0
230
1.0
 40
0.5000000000000088
 41
3.141592653589792
 42
6.283185307179585
  0
ELLIPSE
  5
100DA
330
18
100
AcDbEntity
  8
DRAW2
100
AcDbEllipse
 10
1162.96550194829
 20
249.1136809420678
 30
0.0
 11
-27.75
 21
0.0
 31
0.0
210
0.0
220
0.0
230
1.0
 40
0.866025403784439
 41
4.820708786897811
 42
10.88725448104715
  0
ELLIPSE
  5
100DB
330
18
100
AcDbEntity
  8
DRAW2
100
AcDbEllipse
 10
1162.96550194829
 20
248.1136809420679
 30
0.0
 11
-29.75
 21
0.0
 31
0.0
210
0.0
220
0.0
230
1.0
 40
0.8660254037844378
 41
4.813401007085075
 42
10.89456226086016
  0
ELLIPSE
  5
100DC
330
18
100
AcDbEntity
  8
DRAW2
100
AcDbEllipse
 10
1144.778968468818
 20
240.0204142023312
 30
0.0
 11
-5.5
 21
0.0
 31
0.0
210
0.0
220
0.0
230
1.0
 40
0.8660254037844506
 41
0.0
 42
6.283185307179585
  0
ELLIPSE
  5
100DD
330
18
100
AcDbEntity
  8
DRAW2
100
AcDbEllipse
 10
1144.778968468818
 20
240.0204142023312
 30
0.0
 11
-5.0
 21
0.0
 31
0.0
210
0.0
220
0.0
230
1.0
 40
0.8660254037844424
 41
0.0
 42
6.283185307179585
  0
ELLIPSE
  5
100DE
330
18
100
AcDbEntity
  8
DRAW2
100
AcDbEllipse
 10
1162.96550194829
 20
267.3002144215411
 30
0.0
 11
5.0
 21
0.0
 31
0.0
210
0.0
220
0.0
230
-1.0
 40
0.8660254037844424
 41
5.355890089191746
 42
5.838101449685109
  0
ELLIPSE
  5
100DF
330
18
100
AcDbEntity
  8
DRAW2
100
AcDbEllipse
 10
1162.96550194829
 20
267.3002144215411
 30
0.0
 11
5.5
 21
0.0
 31
0.0
210
0.0
220
0.0
230
-1.0
 40
0.8660254037844506
 41
5.28932032563309
 42
6.230127006388833
  0
ELLIPSE
  5
100E0
330
18
100
AcDbEntity
  8
DRAW2
100
AcDbEllipse
 10
1181.152035427765
 20
240.0204142023312
 30
0.0
 11
5.0
 21
0.0
 31
0.0
210
0.0
220
0.0
230
-1.0
 40
0.8660254037844424
 41
0.0
 42
6.283185307179585
  0
ELLIPSE
  5
100E1
330
18
100
AcDbEntity
  8
DRAW2
100
AcDbEllipse
 10
1181.152035427765
 20
240.0204142023312
 30
0.0
 11
5.5
 21
0.0
 31
0.0
210
0.0
220
0.0
230
-1.0
 40
0.8660254037844506
 41
0.0
 42
6.283185307179585
  0
ELLIPSE
  5
100E2
330
18
100
AcDbEntity
  8
DRAW2
100
AcDbEllipse
 10
1162.965501948346
 20
266.32864746099
 30
0.0
 11
-5.461324999999987
 21
0.0
 31
0.0
210
0.0
220
0.0
230
1.0
 40
0.8660254037844396
 41
5.293935927985153
 42
10.41402733996381
  0
ELLIPSE
  5
100E3
330
18
100
AcDbEntity
  8
DRAW2
100
AcDbEllipse
 10
1162.965501948346
 20
266.07864746099
 30
0.0
 11
-5.75
 21
0.0
 31
0.0
210
0.0
220
0.0
230
1.0
 40
0.8660254037844346
 41
5.261277252027785
 42
10.44668601592116
  0
ELLIPSE
  5
100E4
330
18
100
AcDbEntity
  8
DRAW2
100
AcDbEllipse
 10
1162.965501948346
 20
264.8286474609899
 30
0.0
 11
-5.75
 21
0.0
 31
0.0
210
0.0
220
0.0
230
1.0
 40
0.8660254037844346
 41
0.0
 42
3.141592653589792
  0
ELLIPSE
  5
100E5
330
18
100
AcDbEntity
  8
DRAW2
100
AcDbEllipse
 10
1162.965501948346
 20
260.29705796099
 30
0.0
 11
-5.0
 21
0.0
 31
0.0
210
0.0
220
0.0
230
1.0
 40
0.8660254037844424
 41
0.7035366731929298
 42
1.434698935854689
  0
ELLIPSE
  5
100E6
330
18
100
AcDbEntity
  8
DRAW2
100
AcDbEllipse
 10
1162.965501948346
 20
260.29705796099
 30
0.0
 11
-5.0
 21
0.0
 31
0.0
210
0.0
220
0.0
230
1.0
 40
0.8660254037844424
 41
1.706893717735101
 42
2.438055980396863
  0
ELLIPSE
  5
100E7
330
18
100
AcDbEntity
  8
DRAW2
100
AcDbEllipse
 10
1162.965501948346
 20
266.32864746099
 30
0.0
 11
-3.0
 21
0.0
 31
0.0
210
0.0
220
0.0
230
1.0
 40
0.8660254037844197
 41
0.0
 42
3.141592653589792
  0
SPLINE
  5
100E8
330
18
100
AcDbEntity
  8
DRAW3
100
AcDbSpline
210
0.0
220
0.0
230
1.0
 70
     8
 71
     3
 72
    10
 73
     6
 74
     4
 42
0.0000000001
 43
0.0000000001
 44
0.0000000001
 40
0.0
 40
0.0
 40
0.0
 40
0.0
 40
2.136487950602449
 40
5.752229164667872
 40
8.931709943888556
 40
8.931709943888556
 40
8.931709943888556
 40
8.931709943888556
 10
1159.965501948346
 20
283.9846561719136
 30
0.0
 10
1160.293265261734
 20
284.8612782799067
 30
0.0
 10
1161.175727383672
 20
287.2214747203166
 30
0.0
 10
1163.95078937889
 20
281.8456667536201
 30
0.0
 10
1165.323303374981
 20
284.6250248324683
 30
0.0
 10
1165.965501948345
 20
285.925485008604
 30
0.0
 11
1159.965501948346
 21
283.9846561719136
 31
0.0
 11
1161.073603068047
 21
285.8113177912581
 31
0.0
 11
1163.877172619126
 21
283.5279907670773
 31
0.0
 11
1165.965501948345
 21
285.925485008604
 31
0.0
  0
ELLIPSE
  5
100E9
330
18
100
AcDbEntity
  8
DRAW2
100
AcDbEllipse
 10
1162.965501948346
 20
258.95880796099
 30
0.0
 11
-4.200000000000044
 21
0.0
 31
0.0
210
0.0
220
0.0
230
1.0
 40
0.8660254037844483
 41
0.4078566933202482
 42
2.733735960269544
  0
ELLIPSE
  5
100EA
330
18
100
AcDbEntity
  8
DRAW2
100
AcDbEllipse
 10
1162.965501948346
 20
253.44380796099
 30
0.0
 11
-4.863999999999946
 21
0.0
 31
0.0
210
0.0
220
0.0
230
1.0
 40
0.8660254037844405
 41
0.192199434928695
 42
2.949393218660974
  0
ELLIPSE
  5
100EB
330
18
100
AcDbEntity
  8
DRAW2
100
AcDbEllipse
 10
1162.96550194829
 20
267.3002144215411
 30
0.0
 11
5.5
 21
0.0
 31
0.0
210
0.0
220
0.0
230
-1.0
 40
0.8660254037844506
 41
9.477836261482067
 42
10.41864294233976
  0
ELLIPSE
  5
100EC
330
18
100
AcDbEntity
  8
DRAW2
100
AcDbEllipse
 10
1162.96550194829
 20
267.3002144215411
 30
0.0
 11
5.0
 21
0.0
 31
0.0
210
0.0
220
0.0
230
-1.0
 40
0.8660254037844424
 41
9.86986181818542
 42
10.35207317878475
  0
ELLIPSE
  5
100ED
330
18
100
AcDbEntity
  8
DRAW2
100
AcDbEllipse
 10
1172.965501947848
 20
138.5856797910119
 30
0.0
 11
-4.963678470068186
 21
0.0000000000000789
 31
0.0
210
0.0
220
0.0
230
-1.0
 40
0.7204413249924393
 41
0.0
 42
3.14159272642895
  0
ELLIPSE
  5
100EE
330
18
100
AcDbEntity
  8
DRAW2
100
AcDbEllipse
 10
1172.96550194829
 20
136.3892886381169
 30
0.0
 11
-4.963678470068186
 21
0.0000000000000789
 31
0.0
210
0.0
220
0.0
230
-1.0
 40
0.7204413249924393
 41
0.0
 42
6.283185307179585
  0
ELLIPSE
  5
100EF
330
18
100
AcDbEntity
  8
DRAW2
100
AcDbEllipse
 10
1152.965501948733
 20
138.5856797910119
 30
0.0
 11
4.963678470068186
 21
0.0000000000000789
 31
0.0
210
0.0
220
0.0
230
1.0
 40
0.7204413249924393
 41
0.0
 42
3.14159272642895
  0
ELLIPSE
  5
100F0
330
18
100
AcDbEntity
  8
DRAW2
100
AcDbEllipse
 10
1152.96550194829
 20
136.3892886381169
 30
0.0
 11
4.963678470068186
 21
0.0000000000000789
 31
0.0
210
0.0
220
0.0
230
1.0
 40
0.7204413249924393
 41
0.0
 42
6.283185307179585
  0
LINE
  5
100F1
330
18
100
AcDbEntity
  8
DRAW2
100
AcDbLine
 10
1142.278968468817
 20
241.2704142023311
 30
0.0
 11
1144.778968468818
 21
242.5204142023312
 31
0.0
  0
LINE
  5
100F2
330
18
100
AcDbEntity
  8
DRAW2
100
AcDbLine
 10
1142.278968468817
 20
238.7704142023312
 30
0.0
 11
1144.778968468818
 21
237.5204142023312
 31
0.0
  0
LINE
  5
100F4
330
18
100
AcDbEntity
  8
DRAW2
100
AcDbLine
 10
1119.965501948291
 20
328.330315987049
 30
0.0
 11
1205.96550194829
 21
328.330315987049
 31
0.0
  0
LINE
  5
100F5
330
18
100
AcDbEntity
  8
DRAW2
100
AcDbLine
 10
1119.965501948291
 20
74.32993598704911
 30
0.0
 11
1205.96550194829
 21
74.32993598704911
 31
0.0
  0
LINE
  5
100F6
330
18
100
AcDbEntity
  8
DRAW2
100
AcDbLine
 10
1119.965501948291
 20
106.329935987049
 30
0.0
 11
1205.96550194829
 21
106.329935987049
 31
0.0
  0
LINE
  5
100F8
330
18
100
AcDbEntity
  8
DRAW2
100
AcDbLine
 10
1119.965501948291
 20
296.3303159870489
 30
0.0
 11
1205.96550194829
 21
296.3303159870489
 31
0.0
  0
LINE
  5
100FA
330
18
100
AcDbEntity
  8
DRAW2
100
AcDbLine
 10
1121.465501948291
 20
290.3301259870492
 30
0.0
 11
1204.465501948291
 21
290.330125987049
 31
0.0
  0
LINE
  5
100FB
330
18
100
AcDbEntity
  8
DRAW2
100
AcDbLine
 10
1121.465501948291
 20
112.330125987049
 30
0.0
 11
1204.465501948291
 21
112.330125987049
 31
0.0
  0
LINE
  5
100FD
330
18
100
AcDbEntity
  8
DRAW2
100
AcDbLine
 10
1056.964891948291
 20
53.32970598704912
 30
0.0
 11
1268.964891948291
 21
53.32970598704912
 31
0.0
  0
LINE
  5
100FE
330
18
100
AcDbEntity
  8
DRAW2
100
AcDbLine
 10
1056.964891948291
 20
69.32988598704901
 30
0.0
 11
1268.964891948291
 21
69.32988598704901
 31
0.0
  0
CIRCLE
  5
100FF
330
18
100
AcDbEntity
  8
DRAW2
100
AcDbCircle
 10
1137.965501948291
 20
181.330125987049
 30
0.0
 40
10.5
  0
CIRCLE
  5
10100
330
18
100
AcDbEntity
  8
DRAW2
100
AcDbCircle
 10
1137.965501948291
 20
181.330125987049
 30
0.0
 40
7.0
  0
CIRCLE
  5
10101
330
18
100
AcDbEntity
  8
DRAW2
100
AcDbCircle
 10
1137.965501948291
 20
181.330125987049
 30
0.0
 40
5.694887103024191
  0
CIRCLE
  5
10102
330
18
100
AcDbEntity
  8
DRAW3
100
AcDbCircle
 10
1137.965501948291
 20
181.330125987049
 30
0.0
 40
6.578500006249994
  0
CIRCLE
  5
10103
330
18
100
AcDbEntity
  8
DRAW2
100
AcDbCircle
 10
1137.965501948291
 20
181.330125987049
 30
0.0
 40
11.0
  0
LINE
  5
10105
330
18
100
AcDbEntity
  8
DRAW2
100
AcDbLine
 10
1119.965501948291
 20
111.3301259870491
 30
0.0
 11
1119.965501948291
 21
291.3303159870491
 31
0.0
  0
LINE
  5
10106
330
18
100
AcDbEntity
  8
DRAW2
100
AcDbLine
 10
1056.96550194829
 20
111.3301259870491
 30
0.0
 11
1056.96550194829
 21
291.3301269870489
 31
0.0
  0
LINE
  5
10107
330
18
100
AcDbEntity
  8
DRAW2
100
AcDbLine
 10
1121.465501948291
 20
112.330125987049
 30
0.0
 11
1121.465501948291
 21
290.3301259870492
 31
0.0
  0
LINE
  5
10109
330
18
100
AcDbEntity
  8
DRAW2
100
AcDbLine
 10
1026.964101948291
 20
142.829396487049
 30
0.0
 11
1026.964101948291
 21
121.829396487049
 31
0.0
  0
LINE
  5
1010A
330
18
100
AcDbEntity
  8
DRAW2
100
AcDbLine
 10
1024.964651948291
 20
140.8290964870491
 30
0.0
 11
1024.964651948291
 21
123.829096487049
 31
0.0
  0
LINE
  5
1010B
330
18
100
AcDbEntity
  8
DRAW2
100
AcDbLine
 10
1071.465501947346
 20
89.329885987049
 30
0.0
 11
1092.465501947346
 21
89.329885987049
 31
0.0
  0
LINE
  5
1010C
330
18
100
AcDbEntity
  8
DRAW2
100
AcDbLine
 10
1073.465471947346
 20
91.32988598704901
 30
0.0
 11
1090.465501947345
 21
91.32988598704901
 31
0.0
  0
LINE
  5
1010D
330
18
100
AcDbEntity
  8
DRAW2
100
AcDbLine
 10
1056.96550194829
 20
69.32993598704911
 30
0.0
 11
1119.965501948291
 21
69.32993598704911
 31
0.0
  0
LINE
  5
1010E
330
18
100
AcDbEntity
  8
DRAW2
100
AcDbLine
 10
1056.96550194829
 20
111.3299359870491
 30
0.0
 11
1119.965501948291
 21
111.3299359870491
 31
0.0
  0
LINE
  5
1010F
330
18
100
AcDbEntity
  8
DRAW2
100
AcDbLine
 10
1071.465501947346
 20
89.329885987049
 30
0.0
 11
1071.465501947346
 21
69.32988598704901
 31
0.0
  0
LINE
  5
10110
330
18
100
AcDbEntity
  8
DRAW2
100
AcDbLine
 10
1056.96550194829
 20
69.32993598704911
 30
0.0
 11
1056.96550194829
 21
111.3299359870491
 31
0.0
  0
LINE
  5
10111
330
18
100
AcDbEntity
  8
DRAW2
100
AcDbLine
 10
1056.964891948291
 20
69.32988598704901
 30
0.0
 11
1056.964891948291
 21
53.32970598704912
 31
0.0
  0
LINE
  5
10112
330
18
100
AcDbEntity
  8
DRAW2
100
AcDbLine
 10
1026.965571948291
 20
121.829856487049
 30
0.0
 11
1046.965571948291
 21
121.829856487049
 31
0.0
  0
LINE
  5
10114
330
18
100
AcDbEntity
  8
DRAW2
100
AcDbLine
 10
1024.965141948291
 20
123.8288164870491
 30
0.0
 11
1026.965141948291
 21
121.8288164870491
 31
0.0
  0
LINE
  5
10115
330
18
100
AcDbEntity
  8
DRAW2
100
AcDbLine
 10
1071.465501947346
 20
89.32976598704909
 30
0.0
 11
1073.465441947346
 21
91.32976598704908
 31
0.0
  0
LINE
  5
10116
330
18
100
AcDbEntity
  8
DRAW2
100
AcDbLine
 10
1092.465501947346
 20
89.329885987049
 30
0.0
 11
1092.465501947346
 21
69.32988598704901
 31
0.0
  0
LINE
  5
10117
330
18
100
AcDbEntity
  8
DRAW2
100
AcDbLine
 10
1119.965501948291
 20
69.32993598704911
 30
0.0
 11
1119.965501948291
 21
111.3299359870491
 31
0.0
  0
LINE
  5
10118
330
18
100
AcDbEntity
  8
DRAW2
100
AcDbLine
 10
1090.465561947346
 20
91.32982598704893
 30
0.0
 11
1092.465501947346
 21
89.3299259870489
 31
0.0
  0
LINE
  5
10119
330
18
100
AcDbEntity
  8
DRAW2
100
AcDbLine
 10
1119.965384997213
 20
128.330160573687
 30
0.0
 11
1121.46541499721
 21
128.3301581705335
 31
0.0
  0
LINE
  5
1011A
330
18
100
AcDbEntity
  8
DRAW2
100
AcDbLine
 10
1026.965501948291
 20
142.8299164870491
 30
0.0
 11
1046.96550194829
 21
142.8299164870491
 31
0.0
  0
LINE
  5
1011B
330
18
100
AcDbEntity
  8
DRAW2
100
AcDbLine
 10
1026.964101948291
 20
142.8305564870489
 30
0.0
 11
1024.964161948291
 21
140.830586487049
 31
0.0
  0
LINE
  5
1011C
330
18
100
AcDbEntity
  8
DRAW2
100
AcDbLine
 10
1026.965501948291
 20
211.8303164870489
 30
0.0
 11
1046.96550194829
 21
211.8303164870489
 31
0.0
  0
LINE
  5
1011D
330
18
100
AcDbEntity
  8
DRAW2
100
AcDbLine
 10
1026.965501948291
 20
190.8299164870491
 30
0.0
 11
1046.96550194829
 21
190.8299164870491
 31
0.0
  0
LINE
  5
1011E
330
18
100
AcDbEntity
  8
DRAW2
100
AcDbLine
 10
1026.964101948291
 20
201.3308664870489
 30
0.0
 11
1026.964101948291
 21
211.8308664870489
 31
0.0
  0
LINE
  5
1011F
330
18
100
AcDbEntity
  8
DRAW2
100
AcDbLine
 10
1024.965081948291
 20
209.8314764870489
 30
0.0
 11
1026.965141948291
 21
211.8315364870491
 31
0.0
  0
LINE
  5
10120
330
18
100
AcDbEntity
  8
DRAW2
100
AcDbLine
 10
1024.964651948291
 20
201.331166487049
 30
0.0
 11
1024.964651948291
 21
209.831166487049
 31
0.0
  0
LINE
  5
10121
330
18
100
AcDbEntity
  8
DRAW2
100
AcDbLine
 10
1024.965201948291
 20
192.8288464870489
 30
0.0
 11
1026.965201948291
 21
190.8287864870489
 31
0.0
  0
LINE
  5
10122
330
18
100
AcDbEntity
  8
DRAW2
100
AcDbLine
 10
1026.964101948291
 20
201.329396487049
 30
0.0
 11
1026.964101948291
 21
190.8293964870489
 31
0.0
  0
LINE
  5
10123
330
18
100
AcDbEntity
  8
DRAW2
100
AcDbLine
 10
1024.964651948291
 20
201.3290964870491
 30
0.0
 11
1024.964651948291
 21
192.8290964870491
 31
0.0
  0
CIRCLE
  5
10125
330
18
100
AcDbEntity
  8
DRAW2
100
AcDbCircle
 10
1137.965501948291
 20
181.330125987049
 30
0.0
 40
2.5
  0
LINE
  5
10126
330
18
100
AcDbEntity
  8
DRAW2
100
AcDbLine
 10
1131.257298015792
 20
183.3301259870495
 30
0.0
 11
1127.657737884246
 21
183.3301259870495
 31
0.0
  0
LINE
  5
10127
330
18
100
AcDbEntity
  8
DRAW2
100
AcDbLine
 10
1131.257298015792
 20
179.3301259870494
 30
0.0
 11
1127.657737884246
 21
179.3301259870494
 31
0.0
  0
LINE
  5
10129
330
18
100
AcDbEntity
  8
DRAW2
100
AcDbLine
 10
1056.96550194829
 20
333.330315987049
 30
0.0
 11
1119.965501948291
 21
333.3303159870491
 31
0.0
  0
LINE
  5
1012A
330
18
100
AcDbEntity
  8
DRAW2
100
AcDbLine
 10
1056.96550194829
 20
291.330315987049
 30
0.0
 11
1119.965501948291
 21
291.3303159870491
 31
0.0
  0
LINE
  5
1012B
330
18
100
AcDbEntity
  8
DRAW2
100
AcDbLine
 10
1026.965571948291
 20
280.830436487049
 30
0.0
 11
1046.965571948291
 21
280.830436487049
 31
0.0
  0
LINE
  5
1012C
330
18
100
AcDbEntity
  8
DRAW2
100
AcDbLine
 10
1026.965501948291
 20
259.830316487049
 30
0.0
 11
1046.96550194829
 21
259.830316487049
 31
0.0
  0
LINE
  5
1012E
330
18
100
AcDbEntity
  8
DRAW2
100
AcDbLine
 10
1026.964041948291
 20
259.8297664870489
 30
0.0
 11
1024.964101948291
 21
261.8297064870491
 31
0.0
  0
LINE
  5
1012F
330
18
100
AcDbEntity
  8
DRAW2
100
AcDbLine
 10
1026.964101948291
 20
259.830866487049
 30
0.0
 11
1026.964101948291
 21
280.8308664870489
 31
0.0
  0
LINE
  5
10130
330
18
100
AcDbEntity
  8
DRAW2
100
AcDbLine
 10
1024.965141948291
 20
278.8313564870491
 30
0.0
 11
1026.965141948291
 21
280.8313564870491
 31
0.0
  0
LINE
  5
10131
330
18
100
AcDbEntity
  8
DRAW2
100
AcDbLine
 10
1024.964651948291
 20
261.831166487049
 30
0.0
 11
1024.964651948291
 21
278.831166487049
 31
0.0
  0
LINE
  5
10132
330
18
100
AcDbEntity
  8
DRAW2
100
AcDbLine
 10
1056.96550194829
 20
333.330315987049
 30
0.0
 11
1056.96550194829
 21
291.330315987049
 31
0.0
  0
LINE
  5
10133
330
18
100
AcDbEntity
  8
DRAW2
100
AcDbLine
 10
1133.215501948291
 20
244.6136809420679
 30
0.0
 11
1133.215501948291
 21
248.1136809420679
 31
0.0
  0
LINE
  5
10134
330
18
100
AcDbEntity
  8
DRAW2
100
AcDbLine
 10
1142.278968468817
 20
238.7704142023312
 30
0.0
 11
1142.278968468817
 21
241.2704142023311
 31
0.0
  0
LINE
  5
10135
330
18
100
AcDbEntity
  8
DRAW2
100
AcDbLine
 10
1119.965501948291
 20
274.3300938035644
 30
0.0
 11
1121.465531948291
 21
274.3300938035644
 31
0.0
  0
LINE
  5
10136
330
18
100
AcDbEntity
  8
DRAW2
100
AcDbLine
 10
1119.965501948291
 20
333.3303159870491
 30
0.0
 11
1119.965501948291
 21
291.330315987049
 31
0.0
  0
LINE
  5
10137
330
18
100
AcDbEntity
  8
DRAW2
100
AcDbLine
 10
1075.965991948291
 20
362.330375987049
 30
0.0
 11
1087.965991948291
 21
362.330375987049
 31
0.0
  0
LINE
  5
10138
330
18
100
AcDbEntity
  8
DRAW2
100
AcDbLine
 10
1073.966051948291
 20
360.330375987049
 30
0.0
 11
1089.966051948291
 21
360.330375987049
 31
0.0
  0
LINE
  5
10139
330
18
100
AcDbEntity
  8
DRAW2
100
AcDbLine
 10
1073.96477194829
 20
343.3310459870489
 30
0.0
 11
1073.96477194829
 21
360.331045987049
 31
0.0
  0
LINE
  5
1013A
330
18
100
AcDbEntity
  8
DRAW2
100
AcDbLine
 10
1073.965441948291
 20
360.331535987049
 30
0.0
 11
1075.965441948291
 21
362.331535987049
 31
0.0
  0
LINE
  5
1013B
330
18
100
AcDbEntity
  8
DRAW2
100
AcDbLine
 10
1089.964891948291
 20
343.3312859870491
 30
0.0
 11
1089.964891948291
 21
360.3312859870491
 31
0.0
  0
LINE
  5
1013C
330
18
100
AcDbEntity
  8
DRAW2
100
AcDbLine
 10
1089.964951948291
 20
360.330195987049
 30
0.0
 11
1087.965021948291
 21
362.3301259870491
 31
0.0
  0
LINE
  5
1013D
330
18
100
AcDbEntity
  8
DRAW2
100
AcDbLine
 10
1205.96550194829
 20
111.3301259870491
 30
0.0
 11
1205.96550194829
 21
291.3303159870491
 31
0.0
  0
LINE
  5
1013E
330
18
100
AcDbEntity
  8
DRAW2
100
AcDbLine
 10
1268.965501948291
 20
111.3301259870491
 30
0.0
 11
1268.965501948291
 21
291.3301269870489
 31
0.0
  0
LINE
  5
1013F
330
18
100
AcDbEntity
  8
DRAW2
100
AcDbLine
 10
1204.465501948291
 20
290.330125987049
 30
0.0
 11
1204.465501948291
 21
112.330125987049
 31
0.0
  0
LINE
  5
10142
330
18
100
AcDbEntity
  8
DRAW2
100
AcDbLine
 10
1319.165761948291
 20
110.8299359870491
 30
0.0
 11
1268.965501948291
 21
110.8299359870491
 31
0.0
  0
LINE
  5
10143
330
18
100
AcDbEntity
  8
DRAW2
100
AcDbLine
 10
1319.165761948291
 20
69.82993598704921
 30
0.0
 11
1268.965501948291
 21
69.82993598704911
 31
0.0
  0
LINE
  5
10147
330
18
100
AcDbEntity
  8
DRAW2
100
AcDbLine
 10
1205.96550194829
 20
69.32993598704911
 30
0.0
 11
1268.965501948291
 21
69.32993598704911
 31
0.0
  0
LINE
  5
10148
330
18
100
AcDbEntity
  8
DRAW2
100
AcDbLine
 10
1205.96550194829
 20
111.3299359870491
 30
0.0
 11
1268.965501948291
 21
111.3299359870491
 31
0.0
  0
LINE
  5
10149
330
18
100
AcDbEntity
  8
DRAW2
100
AcDbLine
 10
1205.96550194829
 20
69.32993598704911
 30
0.0
 11
1205.96550194829
 21
111.3299359870491
 31
0.0
  0
LINE
  5
1014A
330
18
100
AcDbEntity
  8
DRAW2
100
AcDbLine
 10
1177.75852028636
 20
135.4596459462045
 30
0.0
 11
1168.172483610221
 21
135.4596459462045
 31
0.0
  0
LINE
  5
1014B
330
18
100
AcDbEntity
  8
DRAW2
100
AcDbLine
 10
1148.17248361022
 20
135.4596459462045
 30
0.0
 11
1157.75852028636
 21
135.4596459462045
 31
0.0
  0
LINE
  5
1014D
330
18
100
AcDbEntity
  8
DRAW2
100
AcDbLine
 10
1205.965618899369
 20
128.330160573687
 30
0.0
 11
1204.465588899371
 21
128.3301581705335
 31
0.0
  0
LINE
  5
1014E
330
18
100
AcDbEntity
  8
DRAW2
100
AcDbLine
 10
1233.465501949235
 20
89.32993598704909
 30
0.0
 11
1233.465501949235
 21
69.32993598704911
 31
0.0
  0
LINE
  5
1014F
330
18
100
AcDbEntity
  8
DRAW2
100
AcDbLine
 10
1254.465501949235
 20
89.32993598704909
 30
0.0
 11
1254.465501949235
 21
69.32993598704911
 31
0.0
  0
LINE
  5
10150
330
18
100
AcDbEntity
  8
DRAW2
100
AcDbLine
 10
1268.965501948291
 20
111.3299359870491
 30
0.0
 11
1268.965501948291
 21
69.32993598704911
 31
0.0
  0
LINE
  5
10151
330
18
100
AcDbEntity
  8
DRAW2
100
AcDbLine
 10
1268.964891948291
 20
69.32988598704901
 30
0.0
 11
1268.964891948291
 21
53.32909598704907
 31
0.0
  0
LINE
  5
10152
330
18
100
AcDbEntity
  8
DRAW2
100
AcDbLine
 10
1235.465471949235
 20
91.32993598704912
 30
0.0
 11
1252.465501949235
 21
91.32993598704912
 31
0.0
  0
LINE
  5
10153
330
18
100
AcDbEntity
  8
DRAW2
100
AcDbLine
 10
1233.465501949235
 20
89.32993598704909
 30
0.0
 11
1254.465501949235
 21
89.32993598704909
 31
0.0
  0
LINE
  5
10154
330
18
100
AcDbEntity
  8
DRAW2
100
AcDbLine
 10
1233.465501949235
 20
89.32981598704918
 30
0.0
 11
1235.465441949236
 21
91.32981598704921
 31
0.0
  0
LINE
  5
10155
330
18
100
AcDbEntity
  8
DRAW2
100
AcDbLine
 10
1252.465561949236
 20
91.32987598704906
 30
0.0
 11
1254.465501949235
 21
89.32997598704901
 31
0.0
  0
CIRCLE
  5
10156
330
18
100
AcDbEntity
  8
DRAW2
100
AcDbCircle
 10
1187.96550194829
 20
181.330125987049
 30
0.0
 40
5.694887103024191
  0
CIRCLE
  5
10157
330
18
100
AcDbEntity
  8
DRAW3
100
AcDbCircle
 10
1187.96550194829
 20
181.330125987049
 30
0.0
 40
6.578500006249994
  0
CIRCLE
  5
10158
330
18
100
AcDbEntity
  8
DRAW2
100
AcDbCircle
 10
1187.96550194829
 20
181.330125987049
 30
0.0
 40
7.0
  0
CIRCLE
  5
10159
330
18
100
AcDbEntity
  8
DRAW2
100
AcDbCircle
 10
1187.96550194829
 20
181.330125987049
 30
0.0
 40
11.0
  0
CIRCLE
  5
1015A
330
18
100
AcDbEntity
  8
DRAW2
100
AcDbCircle
 10
1187.96550194829
 20
181.330125987049
 30
0.0
 40
10.5
  0
LINE
  5
1015D
330
18
100
AcDbEntity
  8
DRAW2
100
AcDbLine
 10
1177.883398794909
 20
136.8738595085777
 30
0.0
 11
1168.047605101673
 21
136.8738595085777
 31
0.0
  0
LINE
  5
1015E
330
18
100
AcDbEntity
  8
DRAW2
100
AcDbLine
 10
1148.001823478665
 20
138.5856797910117
 30
0.0
 11
1148.001823478222
 21
136.6118245500435
 31
0.0
  0
LINE
  5
1015F
330
18
100
AcDbEntity
  8
DRAW2
100
AcDbLine
 10
1157.9291804188
 20
138.585679791012
 30
0.0
 11
1157.929180418359
 21
136.611824548843
 31
0.0
  0
LINE
  5
10160
330
18
100
AcDbEntity
  8
DRAW2
100
AcDbLine
 10
1148.047605101673
 20
136.8738595085777
 30
0.0
 11
1157.883398794909
 21
136.8738595085777
 31
0.0
  0
LINE
  5
10162
330
18
100
AcDbEntity
  8
DRAW2
100
AcDbLine
 10
1168.001823477781
 20
138.585679791012
 30
0.0
 11
1168.001823478223
 21
136.611824548843
 31
0.0
  0
LINE
  5
10163
330
18
100
AcDbEntity
  8
DRAW2
100
AcDbLine
 10
1144.67370588079
 20
179.3301259870494
 30
0.0
 11
1148.273266012336
 21
179.3301259870494
 31
0.0
  0
LINE
  5
10164
330
18
100
AcDbEntity
  8
DRAW2
100
AcDbLine
 10
1144.67370588079
 20
183.3301259870495
 30
0.0
 11
1148.273266012335
 21
183.3301259870495
 31
0.0
  0
LINE
  5
10165
330
18
100
AcDbEntity
  8
DRAW2
100
AcDbLine
 10
1177.929180417917
 20
138.5856797910117
 30
0.0
 11
1177.929180418358
 21
136.6118245500435
 31
0.0
  0
LINE
  5
10166
330
18
100
AcDbEntity
  8
DRAW2
100
AcDbLine
 10
1181.257298015792
 20
179.3301259870494
 30
0.0
 11
1177.657737884246
 21
179.3301259870494
 31
0.0
  0
LINE
  5
10167
330
18
100
AcDbEntity
  8
DRAW2
100
AcDbLine
 10
1181.257298015792
 20
183.3301259870495
 30
0.0
 11
1177.657737884246
 21
183.3301259870495
 31
0.0
  0
CIRCLE
  5
10168
330
18
100
AcDbEntity
  8
DRAW2
100
AcDbCircle
 10
1187.96550194829
 20
181.330125987049
 30
0.0
 40
2.5
  0
LINE
  5
10169
330
18
100
AcDbEntity
  8
DRAW2
100
AcDbLine
 10
1194.673705880791
 20
179.3301259870494
 30
0.0
 11
1198.273266012334
 21
179.3301259870494
 31
0.0
  0
LINE
  5
1016A
330
18
100
AcDbEntity
  8
DRAW2
100
AcDbLine
 10
1194.67370588079
 20
183.3301259870495
 30
0.0
 11
1198.273266012334
 21
183.3301259870495
 31
0.0
  0
LINE
  5
1016B
330
18
100
AcDbEntity
  8
DRAW2
100
AcDbLine
 10
1323.165761948291
 20
90.3299359870491
 30
0.0
 11
1323.165761948291
 21
140.3299359870491
 31
0.0
  0
LINE
  5
1016C
330
18
100
AcDbEntity
  8
DRAW2
100
AcDbLine
 10
1321.165761948291
 20
90.3299359870491
 30
0.0
 11
1321.165761948291
 21
140.3299359870491
 31
0.0
  0
LINE
  5
1016D
330
18
100
AcDbEntity
  8
DRAW2
100
AcDbLine
 10
1319.165761948291
 20
90.3299359870491
 30
0.0
 11
1319.165761948291
 21
140.3299359870491
 31
0.0
  0
LINE
  5
1016E
330
18
100
AcDbEntity
  8
DRAW2
100
AcDbLine
 10
1338.165761948291
 20
40.3299359870491
 30
0.0
 11
1338.165761948291
 21
140.3299359870491
 31
0.0
  0
LINE
  5
1016F
330
18
100
AcDbEntity
  8
DRAW2
100
AcDbLine
 10
1298.966911948291
 20
142.8293959870491
 30
0.0
 11
1298.966911948291
 21
121.829395987049
 31
0.0
  0
LINE
  5
10170
330
18
100
AcDbEntity
  8
DRAW2
100
AcDbLine
 10
1300.966361948291
 20
140.829095987049
 30
0.0
 11
1300.966361948291
 21
123.829095987049
 31
0.0
  0
LINE
  5
10173
330
18
100
AcDbEntity
  8
DRAW2
100
AcDbLine
 10
1323.165761948291
 20
40.3299359870491
 30
0.0
 11
1323.165761948291
 21
90.3299359870491
 31
0.0
  0
LINE
  5
10174
330
18
100
AcDbEntity
  8
DRAW2
100
AcDbLine
 10
1321.165761948291
 20
40.3299359870491
 30
0.0
 11
1321.165761948291
 21
90.3299359870491
 31
0.0
  0
LINE
  5
10175
330
18
100
AcDbEntity
  8
DRAW2
100
AcDbLine
 10
1319.165761948291
 20
40.3299359870491
 30
0.0
 11
1319.165761948291
 21
90.3299359870491
 31
0.0
  0
LINE
  5
10176
330
18
100
AcDbEntity
  8
DRAW2
100
AcDbLine
 10
1338.165761948291
 20
40.3299359870491
 30
0.0
 11
1319.165761948291
 21
40.3299359870491
 31
0.0
  0
LINE
  5
10177
330
18
100
AcDbEntity
  8
DRAW2
100
AcDbLine
 10
1298.965441948291
 20
121.829855987049
 30
0.0
 11
1278.965441948291
 21
121.829855987049
 31
0.0
  0
LINE
  5
10178
330
18
100
AcDbEntity
  8
DRAW2
100
AcDbLine
 10
1300.965931948291
 20
123.828815987049
 30
0.0
 11
1298.965931948291
 21
121.828785987049
 31
0.0
  0
LINE
  5
10179
330
18
100
AcDbEntity
  8
DRAW2
100
AcDbLine
 10
1298.965501948291
 20
142.829915987049
 30
0.0
 11
1278.965501948291
 21
142.829915987049
 31
0.0
  0
LINE
  5
1017A
330
18
100
AcDbEntity
  8
DRAW2
100
AcDbLine
 10
1298.966911948291
 20
142.8305559870491
 30
0.0
 11
1300.966851948291
 21
140.8306159870491
 31
0.0
  0
LINE
  5
1017B
330
18
100
AcDbEntity
  8
DRAW2
100
AcDbLine
 10
1338.165761948291
 20
140.3299359870491
 30
0.0
 11
1319.165761948291
 21
140.3299359870491
 31
0.0
  0
LINE
  5
1017C
330
18
100
AcDbEntity
  8
DRAW2
100
AcDbLine
 10
1298.966911948291
 20
201.3308659870489
 30
0.0
 11
1298.966911948291
 21
211.8308659870489
 31
0.0
  0
LINE
  5
1017D
330
18
100
AcDbEntity
  8
DRAW2
100
AcDbLine
 10
1300.965871948291
 20
209.8314759870489
 30
0.0
 11
1298.965871948291
 21
211.8314759870489
 31
0.0
  0
LINE
  5
1017E
330
18
100
AcDbEntity
  8
DRAW2
100
AcDbLine
 10
1298.965501948291
 20
190.8299159870489
 30
0.0
 11
1278.965501948291
 21
190.8299159870489
 31
0.0
  0
LINE
  5
10180
330
18
100
AcDbEntity
  8
DRAW2
100
AcDbLine
 10
1300.966361948291
 20
201.331165987049
 30
0.0
 11
1300.966361948291
 21
209.831165987049
 31
0.0
  0
LINE
  5
10181
330
18
100
AcDbEntity
  8
DRAW2
100
AcDbLine
 10
1300.965871948291
 20
192.828845987049
 30
0.0
 11
1298.965811948291
 21
190.8287559870491
 31
0.0
  0
LINE
  5
10182
330
18
100
AcDbEntity
  8
DRAW2
100
AcDbLine
 10
1298.966911948291
 20
201.329395987049
 30
0.0
 11
1298.966911948291
 21
190.8293959870491
 31
0.0
  0
LINE
  5
10183
330
18
100
AcDbEntity
  8
DRAW2
100
AcDbLine
 10
1300.966361948291
 20
201.3290959870489
 30
0.0
 11
1300.966361948291
 21
192.8290959870489
 31
0.0
  0
LINE
  5
10184
330
18
100
AcDbEntity
  8
DRAW2
100
AcDbLine
 10
1298.965501948291
 20
211.8303159870489
 30
0.0
 11
1278.965501948291
 21
211.8303159870489
 31
0.0
  0
LINE
  5
10185
330
18
100
AcDbEntity
  8
DRAW2
100
AcDbLine
 10
1319.165761948291
 20
291.8303159870491
 30
0.0
 11
1268.965501948291
 21
291.830315987049
 31
0.0
  0
LINE
  5
10186
330
18
100
AcDbEntity
  8
DRAW2
100
AcDbLine
 10
1319.165761948291
 20
332.830315987049
 30
0.0
 11
1268.965501948291
 21
332.830315987049
 31
0.0
  0
LINE
  5
10189
330
18
100
AcDbEntity
  8
DRAW2
100
AcDbLine
 10
1205.96550194829
 20
333.3303159870491
 30
0.0
 11
1268.965501948291
 21
333.330315987049
 31
0.0
  0
LINE
  5
1018A
330
18
100
AcDbEntity
  8
DRAW2
100
AcDbLine
 10
1205.96550194829
 20
291.3303159870491
 30
0.0
 11
1268.965501948291
 21
291.330315987049
 31
0.0
  0
LINE
  5
1018B
330
18
100
AcDbEntity
  8
DRAW2
100
AcDbLine
 10
1165.965501948345
 20
266.32864746099
 30
0.0
 11
1165.965501948345
 21
285.925485008604
 31
0.0
  0
LINE
  5
1018C
330
18
100
AcDbEntity
  8
DRAW2
100
AcDbLine
 10
1156.982269056234
 20
261.3841610881229
 30
0.0
 11
1162.965501948346
 21
258.5421192062554
 31
0.0
  0
LINE
  5
1018D
330
18
100
AcDbEntity
  8
DRAW2
100
AcDbLine
 10
1162.965501948346
 20
258.5421192062554
 30
0.0
 11
1168.948734840458
 21
261.3841610881229
 31
0.0
  0
LINE
  5
1018E
330
18
100
AcDbEntity
  8
DRAW2
100
AcDbLine
 10
1156.982269056234
 20
258.5267782561031
 30
0.0
 11
1156.982269056234
 21
261.3841610881229
 31
0.0
  0
LINE
  5
1018F
330
18
100
AcDbEntity
  8
DRAW2
100
AcDbLine
 10
1168.948734840458
 20
258.5267782561031
 30
0.0
 11
1168.948734840458
 21
261.3841610881229
 31
0.0
  0
LINE
  5
10190
330
18
100
AcDbEntity
  8
DRAW2
100
AcDbLine
 10
1156.982269056234
 20
258.5267782561031
 30
0.0
 11
1162.965501948346
 21
255.6847363742356
 31
0.0
  0
LINE
  5
10191
330
18
100
AcDbEntity
  8
DRAW2
100
AcDbLine
 10
1159.648877157991
 20
254.6286809420677
 30
0.0
 11
1166.2821267387
 21
254.6286809420677
 31
0.0
  0
LINE
  5
10192
330
18
100
AcDbEntity
  8
DRAW2
100
AcDbLine
 10
1159.648877157991
 20
251.6286809420678
 30
0.0
 11
1166.2821267387
 21
251.6286809420678
 31
0.0
  0
LINE
  5
10193
330
18
100
AcDbEntity
  8
DRAW2
100
AcDbLine
 10
1147.278968468818
 20
241.2704142023311
 30
0.0
 11
1147.278968468818
 21
238.7704142023312
 31
0.0
  0
LINE
  5
10194
330
18
100
AcDbEntity
  8
DRAW2
100
AcDbLine
 10
1144.778968468818
 20
242.5204142023312
 30
0.0
 11
1147.278968468818
 21
241.2704142023311
 31
0.0
  0
LINE
  5
10195
330
18
100
AcDbEntity
  8
DRAW2
100
AcDbLine
 10
1144.778968468818
 20
237.5204142023312
 30
0.0
 11
1147.278968468818
 21
238.7704142023312
 31
0.0
  0
LINE
  5
10196
330
18
100
AcDbEntity
  8
DRAW2
100
AcDbLine
 10
1157.965501948345
 20
255.7955232225583
 30
0.0
 11
1157.965501948345
 21
258.0597416039452
 31
0.0
  0
LINE
  5
10197
330
18
100
AcDbEntity
  8
DRAW2
100
AcDbLine
 10
1157.965501948345
 20
255.7955232225583
 30
0.0
 11
1159.648877157991
 21
254.6286809420677
 31
0.0
  0
LINE
  5
10198
330
18
100
AcDbEntity
  8
DRAW2
100
AcDbLine
 10
1157.965501948345
 20
252.7955232225583
 30
0.0
 11
1159.648877157991
 21
251.6286809420678
 31
0.0
  0
LINE
  5
10199
330
18
100
AcDbEntity
  8
DRAW2
100
AcDbLine
 10
1157.965501948345
 20
255.7955232225583
 30
0.0
 11
1157.965501948345
 21
252.7955232225583
 31
0.0
  0
LINE
  5
1019A
330
18
100
AcDbEntity
  8
DRAW2
100
AcDbLine
 10
1159.648877157991
 20
254.6286809420677
 30
0.0
 11
1159.648877157991
 21
251.6286809420678
 31
0.0
  0
LINE
  5
1019B
330
18
100
AcDbEntity
  8
DRAW2
100
AcDbLine
 10
1162.965501948346
 20
255.6847363742356
 30
0.0
 11
1162.965501948346
 21
258.5421192062554
 31
0.0
  0
LINE
  5
1019C
330
18
100
AcDbEntity
  8
DRAW2
100
AcDbLine
 10
1162.965501948346
 20
255.6847363742356
 30
0.0
 11
1168.948734840458
 21
258.5267782561031
 31
0.0
  0
LINE
  5
1019D
330
18
100
AcDbEntity
  8
DRAW2
100
AcDbLine
 10
1167.965501948346
 20
255.7955232225584
 30
0.0
 11
1167.965501948346
 21
258.0597416039452
 31
0.0
  0
LINE
  5
1019E
330
18
100
AcDbEntity
  8
DRAW2
100
AcDbLine
 10
1167.965501948346
 20
255.7955232225583
 30
0.0
 11
1166.282126738701
 21
254.6286809420677
 31
0.0
  0
LINE
  5
1019F
330
18
100
AcDbEntity
  8
DRAW2
100
AcDbLine
 10
1167.965501948346
 20
252.7955232225583
 30
0.0
 11
1166.282126738701
 21
251.6286809420678
 31
0.0
  0
LINE
  5
101A0
330
18
100
AcDbEntity
  8
DRAW2
100
AcDbLine
 10
1166.2821267387
 20
254.6286809420677
 30
0.0
 11
1166.282126738701
 21
251.6286809420678
 31
0.0
  0
LINE
  5
101A1
330
18
100
AcDbEntity
  8
DRAW2
100
AcDbLine
 10
1167.965501948346
 20
255.7955232225584
 30
0.0
 11
1167.965501948346
 21
252.7955232225583
 31
0.0
  0
LINE
  5
101A2
330
18
100
AcDbEntity
  8
DRAW2
100
AcDbLine
 10
1157.215501948345
 20
264.8286474609899
 30
0.0
 11
1157.215501948345
 21
266.07864746099
 31
0.0
  0
LINE
  5
101A3
330
18
100
AcDbEntity
  8
DRAW2
100
AcDbLine
 10
1156.982269056234
 20
261.3841610881229
 30
0.0
 11
1156.982269056234
 21
267.273133833857
 31
0.0
  0
LINE
  5
101A4
330
18
100
AcDbEntity
  8
DRAW2
100
AcDbLine
 10
1157.465347422144
 20
267.5305772598861
 30
0.0
 11
1156.982269056234
 21
267.273133833857
 31
0.0
  0
LINE
  5
101A5
330
18
100
AcDbEntity
  8
DRAW2
100
AcDbLine
 10
1168.715501948345
 20
266.07864746099
 30
0.0
 11
1168.715501948345
 21
264.8286474609899
 31
0.0
  0
LINE
  5
101A6
330
18
100
AcDbEntity
  8
DRAW2
100
AcDbLine
 10
1168.948734840458
 20
267.273133833857
 30
0.0
 11
1168.948734840458
 21
261.3841610881229
 31
0.0
  0
LINE
  5
101A7
330
18
100
AcDbEntity
  8
DRAW2
100
AcDbLine
 10
1168.465656474549
 20
267.5305772598861
 30
0.0
 11
1168.948734840458
 21
267.273133833857
 31
0.0
  0
LINE
  5
101A8
330
18
100
AcDbEntity
  8
DRAW2
100
AcDbLine
 10
1159.965501948346
 20
266.32864746099
 30
0.0
 11
1159.965501948346
 21
283.9846561719138
 31
0.0
  0
LINE
  5
101A9
330
18
100
AcDbEntity
  8
DRAW2
100
AcDbLine
 10
1192.71550194829
 20
248.1136809420679
 30
0.0
 11
1192.71550194829
 21
244.6136809420679
 31
0.0
  0
LINE
  5
101AA
330
18
100
AcDbEntity
  8
DRAW2
100
AcDbLine
 10
1183.652035427765
 20
238.7704142023312
 30
0.0
 11
1183.652035427765
 21
241.2704142023311
 31
0.0
  0
LINE
  5
101AB
330
18
100
AcDbEntity
  8
DRAW2
100
AcDbLine
 10
1178.652035427764
 20
241.2704142023311
 30
0.0
 11
1178.652035427764
 21
238.7704142023312
 31
0.0
  0
LINE
  5
101AC
330
18
100
AcDbEntity
  8
DRAW2
100
AcDbLine
 10
1181.152035427765
 20
237.5204142023312
 30
0.0
 11
1178.652035427764
 21
238.7704142023312
 31
0.0
  0
LINE
  5
101AD
330
18
100
AcDbEntity
  8
DRAW2
100
AcDbLine
 10
1183.652035427765
 20
238.7704142023312
 30
0.0
 11
1181.152035427765
 21
237.5204142023312
 31
0.0
  0
LINE
  5
101AE
330
18
100
AcDbEntity
  8
DRAW2
100
AcDbLine
 10
1181.152035427765
 20
242.5204142023312
 30
0.0
 11
1178.652035427764
 21
241.2704142023311
 31
0.0
  0
LINE
  5
101AF
330
18
100
AcDbEntity
  8
DRAW2
100
AcDbLine
 10
1183.652035427765
 20
241.2704142023311
 30
0.0
 11
1181.152035427765
 21
242.5204142023312
 31
0.0
  0
LINE
  5
101B0
330
18
100
AcDbEntity
  8
DRAW2
100
AcDbLine
 10
1205.96550194829
 20
274.3300938035644
 30
0.0
 11
1204.465471948291
 21
274.3300938035644
 31
0.0
  0
LINE
  5
101B1
330
18
100
AcDbEntity
  8
DRAW2
100
AcDbLine
 10
1205.96550194829
 20
333.3303159870491
 30
0.0
 11
1205.96550194829
 21
291.330315987049
 31
0.0
  0
LINE
  5
101B2
330
18
100
AcDbEntity
  8
DRAW2
100
AcDbLine
 10
1268.965501948291
 20
291.330315987049
 30
0.0
 11
1268.965501948291
 21
333.330315987049
 31
0.0
  0
LINE
  5
101B3
330
18
100
AcDbEntity
  8
DRAW2
100
AcDbLine
 10
1237.96611194829
 20
362.330375987049
 30
0.0
 11
1249.966111948291
 21
362.330375987049
 31
0.0
  0
LINE
  5
101B4
330
18
100
AcDbEntity
  8
DRAW2
100
AcDbLine
 10
1235.966171948291
 20
360.330375987049
 30
0.0
 11
1251.966171948291
 21
360.330375987049
 31
0.0
  0
LINE
  5
101B5
330
18
100
AcDbEntity
  8
DRAW2
100
AcDbLine
 10
1235.964891948291
 20
343.3310459870489
 30
0.0
 11
1235.964891948291
 21
360.331045987049
 31
0.0
  0
LINE
  5
101B6
330
18
100
AcDbEntity
  8
DRAW2
100
AcDbLine
 10
1235.965501948291
 20
360.331655987049
 30
0.0
 11
1237.96550194829
 21
362.331655987049
 31
0.0
  0
LINE
  5
101B7
330
18
100
AcDbEntity
  8
DRAW2
100
AcDbLine
 10
1251.965021948291
 20
343.3312859870491
 30
0.0
 11
1251.965021948291
 21
360.3312859870491
 31
0.0
  0
LINE
  5
101B8
330
18
100
AcDbEntity
  8
DRAW2
100
AcDbLine
 10
1251.965081948291
 20
360.330125987049
 30
0.0
 11
1249.96514194829
 21
362.3301259870491
 31
0.0
  0
LINE
  5
101B9
330
18
100
AcDbEntity
  8
DRAW2
100
AcDbLine
 10
1323.165761948291
 20
312.330315987049
 30
0.0
 11
1323.165761948291
 21
362.330315987049
 31
0.0
  0
LINE
  5
101BA
330
18
100
AcDbEntity
  8
DRAW2
100
AcDbLine
 10
1321.165761948291
 20
312.330315987049
 30
0.0
 11
1321.165761948291
 21
362.330315987049
 31
0.0
  0
LINE
  5
101BB
330
18
100
AcDbEntity
  8
DRAW2
100
AcDbLine
 10
1319.165761948291
 20
312.330315987049
 30
0.0
 11
1319.165761948291
 21
362.330315987049
 31
0.0
  0
LINE
  5
101BC
330
18
100
AcDbEntity
  8
DRAW2
100
AcDbLine
 10
1338.165761948291
 20
262.330315987049
 30
0.0
 11
1338.165761948291
 21
362.330315987049
 31
0.0
  0
LINE
  5
101BE
330
18
100
AcDbEntity
  8
DRAW2
100
AcDbLine
 10
1323.165761948291
 20
262.330315987049
 30
0.0
 11
1323.165761948291
 21
312.330315987049
 31
0.0
  0
LINE
  5
101BF
330
18
100
AcDbEntity
  8
DRAW2
100
AcDbLine
 10
1321.165761948291
 20
262.330315987049
 30
0.0
 11
1321.165761948291
 21
312.330315987049
 31
0.0
  0
LINE
  5
101C0
330
18
100
AcDbEntity
  8
DRAW2
100
AcDbLine
 10
1319.165761948291
 20
262.330315987049
 30
0.0
 11
1319.165761948291
 21
312.330315987049
 31
0.0
  0
LINE
  5
101C1
330
18
100
AcDbEntity
  8
DRAW2
100
AcDbLine
 10
1298.966911948291
 20
259.8297059870491
 30
0.0
 11
1300.966851948291
 21
261.829645987049
 31
0.0
  0
LINE
  5
101C2
330
18
100
AcDbEntity
  8
DRAW2
100
AcDbLine
 10
1298.966911948291
 20
259.8308659870489
 30
0.0
 11
1298.966911948291
 21
280.830865987049
 31
0.0
  0
LINE
  5
101C3
330
18
100
AcDbEntity
  8
DRAW2
100
AcDbLine
 10
1298.965501948291
 20
259.830315987049
 30
0.0
 11
1278.965501948291
 21
259.830315987049
 31
0.0
  0
LINE
  5
101C4
330
18
100
AcDbEntity
  8
DRAW2
100
AcDbLine
 10
1298.965441948291
 20
280.830435987049
 30
0.0
 11
1278.965441948291
 21
280.830435987049
 31
0.0
  0
LINE
  5
101C5
330
18
100
AcDbEntity
  8
DRAW2
100
AcDbLine
 10
1300.965931948291
 20
278.8314159870491
 30
0.0
 11
1298.965871948291
 21
280.8314759870489
 31
0.0
  0
LINE
  5
101C6
330
18
100
AcDbEntity
  8
DRAW2
100
AcDbLine
 10
1300.966361948291
 20
261.8311659870489
 30
0.0
 11
1300.966361948291
 21
278.8311659870489
 31
0.0
  0
LINE
  5
101C7
330
18
100
AcDbEntity
  8
DRAW2
100
AcDbLine
 10
1338.165761948291
 20
262.330315987049
 30
0.0
 11
1319.165761948291
 21
262.330315987049
 31
0.0
  0
LINE
  5
101C9
330
18
100
AcDbEntity
  8
DRAW2
100
AcDbLine
 10
1338.165761948291
 20
362.330315987049
 30
0.0
 11
1319.165761948291
 21
362.330315987049
 31
0.0
  0
LINE
  5
101CA
330
18
100
AcDbEntity
  8
DRAW2
100
AcDbLine
 10
1157.183199057211
 20
477.7549013480457
 30
0.0
 11
1121.666431948291
 21
477.7549013480457
 31
0.0
  0
LINE
  5
101CB
330
18
100
AcDbEntity
  8
DRAW2
100
AcDbLine
 10
1142.479898469839
 20
488.207366206557
 30
0.0
 11
1144.979898469839
 21
488.9290540430439
 31
0.0
  0
LINE
  5
101CC
330
18
100
AcDbEntity
  8
DRAW2
100
AcDbLine
 10
1142.479898469839
 20
486.7639905335828
 30
0.0
 11
1144.979898469839
 21
486.0423026970958
 31
0.0
  0
LINE
  5
101CD
330
18
100
AcDbEntity
  8
DRAW2
100
AcDbLine
 10
1121.666431948291
 20
616.7792843415776
 30
0.0
 11
1204.666431948291
 21
616.7792843415776
 31
0.0
  0
LINE
  5
101CE
330
18
100
AcDbEntity
  8
DRAW2
100
AcDbLine
 10
1121.666431948291
 20
534.7305183545137
 30
0.0
 11
1204.666431948291
 21
534.7305183545137
 31
0.0
  0
LINE
  5
101CF
330
18
100
AcDbEntity
  8
DRAW2
100
AcDbLine
 10
1204.666431948291
 20
673.7549013480457
 30
0.0
 11
1121.666431948291
 21
673.7549013480457
 31
0.0
  0
LINE
  5
101D1
330
18
100
AcDbEntity
  8
DRAW2
100
AcDbLine
 10
1206.165761948291
 20
591.7549013480456
 30
0.0
 11
1120.16576194829
 21
591.7549013480456
 31
0.0
  0
LINE
  5
101D2
330
18
100
AcDbEntity
  8
DRAW2
100
AcDbLine
 10
1206.165761948291
 20
559.7549013480456
 30
0.0
 11
1120.16576194829
 21
559.7549013480456
 31
0.0
  0
LINE
  5
101D3
330
18
100
AcDbEntity
  8
DRAW2
100
AcDbLine
 10
1148.666431948291
 20
460.7549013480457
 30
0.0
 11
1127.666431948291
 21
460.7549013480457
 31
0.0
  0
LINE
  5
101D4
330
18
100
AcDbEntity
  8
DRAW2
100
AcDbLine
 10
1047.166431948291
 20
673.7549013480457
 30
0.0
 11
1047.166431948291
 21
477.7549013480457
 31
0.0
  0
LINE
  5
101D5
330
18
100
AcDbEntity
  8
DRAW2
100
AcDbLine
 10
1057.166431948291
 20
673.7549013480457
 30
0.0
 11
1057.166431948291
 21
477.7549013480457
 31
0.0
  0
LINE
  5
101D6
330
18
100
AcDbEntity
  8
DRAW2
100
AcDbLine
 10
1057.165761948291
 20
477.7549013480457
 30
0.0
 11
1057.165761948291
 21
673.7549013480457
 31
0.0
  0
LINE
  5
101D7
330
18
100
AcDbEntity
  8
DRAW2
100
AcDbLine
 10
1120.16576194829
 20
477.7549013480457
 30
0.0
 11
1120.16576194829
 21
673.7549013480457
 31
0.0
  0
LINE
  5
101D8
330
18
100
AcDbEntity
  8
DRAW2
100
AcDbLine
 10
1121.666431948291
 20
591.7549013480456
 30
0.0
 11
1121.666431948291
 21
673.7549013480457
 31
0.0
  0
LINE
  5
101D9
330
18
100
AcDbEntity
  8
DRAW2
100
AcDbLine
 10
1025.16558194829
 20
544.2540891438301
 30
0.0
 11
1025.16558194829
 21
527.2540891438301
 31
0.0
  0
LINE
  5
101DA
330
18
100
AcDbEntity
  8
DRAW2
100
AcDbLine
 10
1027.165031948291
 20
546.25438914383
 30
0.0
 11
1027.165031948291
 21
525.2543891438302
 31
0.0
  0
LINE
  5
101DB
330
18
100
AcDbEntity
  8
DRAW2
100
AcDbLine
 10
1121.666431948291
 20
477.7549013480457
 30
0.0
 11
1121.666431948291
 21
559.7549013480456
 31
0.0
  0
LINE
  5
101DC
330
18
100
AcDbEntity
  8
DRAW2
100
AcDbLine
 10
1057.165761948291
 20
618.7549013480456
 30
0.0
 11
1057.165761948291
 21
532.7549013480457
 31
0.0
  0
LINE
  5
101DD
330
18
100
AcDbEntity
  8
DRAW2
100
AcDbLine
 10
1120.16576194829
 20
532.7549013480457
 30
0.0
 11
1120.16576194829
 21
618.7549013480456
 31
0.0
  0
LINE
  5
101DE
330
18
100
AcDbEntity
  8
DRAW2
100
AcDbLine
 10
1057.165761948291
 20
477.7549013480457
 30
0.0
 11
1120.16576194829
 21
477.7549013480457
 31
0.0
  0
LINE
  5
101DF
330
18
100
AcDbEntity
  8
DRAW2
100
AcDbLine
 10
1057.165761948291
 20
532.7549013480457
 30
0.0
 11
1120.16576194829
 21
532.7549013480457
 31
0.0
  0
LINE
  5
101E0
330
18
100
AcDbEntity
  8
DRAW2
100
AcDbLine
 10
1057.166431948291
 20
477.7549013480457
 30
0.0
 11
1047.166431948291
 21
477.7549013480457
 31
0.0
  0
LINE
  5
101E1
330
18
100
AcDbEntity
  8
DRAW2
100
AcDbLine
 10
1027.16650194829
 20
485.2548413480454
 30
0.0
 11
1047.16650194829
 21
485.2548413480454
 31
0.0
  0
LINE
  5
101E2
330
18
100
AcDbEntity
  8
DRAW2
100
AcDbLine
 10
1027.166431948291
 20
506.2549013480456
 30
0.0
 11
1047.166431948291
 21
506.2549013480456
 31
0.0
  0
LINE
  5
101E4
330
18
100
AcDbEntity
  8
DRAW2
100
AcDbLine
 10
1027.16650194829
 20
525.2548491438301
 30
0.0
 11
1047.16650194829
 21
525.2548491438301
 31
0.0
  0
LINE
  5
101E5
330
18
100
AcDbEntity
  8
DRAW2
100
AcDbLine
 10
1027.165031948291
 20
506.2543813480456
 30
0.0
 11
1027.165031948291
 21
485.2543813480456
 31
0.0
  0
LINE
  5
101E6
330
18
100
AcDbEntity
  8
DRAW2
100
AcDbLine
 10
1025.16558194829
 20
504.2540813480456
 30
0.0
 11
1025.16558194829
 21
487.2540813480456
 31
0.0
  0
LINE
  5
101E7
330
18
100
AcDbEntity
  8
DRAW2
100
AcDbLine
 10
1025.166071948291
 20
487.2538013480457
 30
0.0
 11
1027.166071948291
 21
485.2538013480456
 31
0.0
  0
LINE
  5
101E8
330
18
100
AcDbEntity
  8
DRAW2
100
AcDbLine
 10
1027.165031948291
 20
506.2555413480456
 30
0.0
 11
1025.165091948291
 21
504.2555713480456
 31
0.0
  0
LINE
  5
101E9
330
18
100
AcDbEntity
  8
DRAW2
100
AcDbLine
 10
1025.166071948291
 20
527.2538091438303
 30
0.0
 11
1027.166071948291
 21
525.2538091438301
 31
0.0
  0
LINE
  5
101EA
330
18
100
AcDbEntity
  8
DRAW2
100
AcDbLine
 10
1127.666431948291
 20
477.7549013480457
 30
0.0
 11
1127.666431948291
 21
460.7549013480457
 31
0.0
  0
LINE
  5
101EB
330
18
100
AcDbEntity
  8
DRAW2
100
AcDbLine
 10
1133.416431949312
 20
494.4677291776388
 30
0.0
 11
1133.416431949312
 21
496.885539818802
 31
0.0
  0
LINE
  5
101EC
330
18
100
AcDbEntity
  8
DRAW2
100
AcDbLine
 10
1142.479898469839
 20
486.7639905335828
 30
0.0
 11
1142.479898469839
 21
488.207366206557
 31
0.0
  0
LINE
  5
101ED
330
18
100
AcDbEntity
  8
DRAW2
100
AcDbLine
 10
1057.165761948291
 20
614.5363402073764
 30
0.0
 11
1120.16576194829
 21
614.5363402073764
 31
0.0
  0
LINE
  5
101EE
330
18
100
AcDbEntity
  8
DRAW2
100
AcDbLine
 10
1057.165761948291
 20
536.9734624887151
 30
0.0
 11
1120.16576194829
 21
536.9734624887151
 31
0.0
  0
LINE
  5
101EF
330
18
100
AcDbEntity
  8
DRAW2
100
AcDbLine
 10
1120.16576194829
 20
618.7549013480456
 30
0.0
 11
1057.165761948291
 21
618.7549013480456
 31
0.0
  0
CIRCLE
  5
101F0
330
18
100
AcDbEntity
  8
DRAW2
100
AcDbCircle
 10
1082.16576194829
 20
602.7549013480457
 30
0.0
 40
6.0
  0
CIRCLE
  5
101F1
330
18
100
AcDbEntity
  8
DRAW2
100
AcDbCircle
 10
1082.16576194829
 20
602.7549013480457
 30
0.0
 40
8.0
  0
CIRCLE
  5
101F2
330
18
100
AcDbEntity
  8
DRAW2
100
AcDbCircle
 10
1082.16576194829
 20
548.7549013480457
 30
0.0
 40
8.0
  0
CIRCLE
  5
101F3
330
18
100
AcDbEntity
  8
DRAW2
100
AcDbCircle
 10
1082.16576194829
 20
548.7549013480457
 30
0.0
 40
6.0
  0
LINE
  5
101F4
330
18
100
AcDbEntity
  8
DRAW2
100
AcDbLine
 10
1057.165761948291
 20
613.2549013480456
 30
0.0
 11
1057.165761948291
 21
538.2549013480456
 31
0.0
  0
LINE
  5
101F6
330
18
100
AcDbEntity
  8
DRAW2
100
AcDbLine
 10
1027.166431948291
 20
546.2549091438302
 30
0.0
 11
1047.166431948291
 21
546.2549091438302
 31
0.0
  0
LINE
  5
101F7
330
18
100
AcDbEntity
  8
DRAW2
100
AcDbLine
 10
1027.165031948291
 20
546.25554914383
 30
0.0
 11
1025.165091948291
 21
544.2555791438301
 31
0.0
  0
LINE
  5
101F8
330
18
100
AcDbEntity
  8
DRAW2
100
AcDbLine
 10
1057.166431948291
 20
534.7305183545137
 30
0.0
 11
1047.166431948291
 21
534.7305183545137
 31
0.0
  0
LINE
  5
101FA
330
18
100
AcDbEntity
  8
DRAW2
100
AcDbLine
 10
1027.16650194829
 20
605.2548485421573
 30
0.0
 11
1047.16650194829
 21
605.2548485421573
 31
0.0
  0
LINE
  5
101FB
330
18
100
AcDbEntity
  8
DRAW2
100
AcDbLine
 10
1027.166431948291
 20
626.2549085421575
 30
0.0
 11
1047.166431948291
 21
626.2549085421575
 31
0.0
  0
LINE
  5
101FC
330
18
100
AcDbEntity
  8
DRAW2
100
AcDbLine
 10
1025.16558194829
 20
624.2540885421576
 30
0.0
 11
1025.16558194829
 21
607.2540885421575
 31
0.0
  0
LINE
  5
101FD
330
18
100
AcDbEntity
  8
DRAW2
100
AcDbLine
 10
1027.165031948291
 20
626.2543885421575
 30
0.0
 11
1027.165031948291
 21
605.2543885421575
 31
0.0
  0
LINE
  5
101FE
330
18
100
AcDbEntity
  8
DRAW2
100
AcDbLine
 10
1025.166071948291
 20
607.2538085421576
 30
0.0
 11
1027.166071948291
 21
605.2538085421575
 31
0.0
  0
LINE
  5
101FF
330
18
100
AcDbEntity
  8
DRAW2
100
AcDbLine
 10
1027.165031948291
 20
626.2555485421573
 30
0.0
 11
1025.165091948291
 21
624.2555785421573
 31
0.0
  0
LINE
  5
10200
330
18
100
AcDbEntity
  8
DRAW2
100
AcDbLine
 10
1057.166431948291
 20
616.7792843415777
 30
0.0
 11
1047.166431948291
 21
616.7792843415777
 31
0.0
  0
LINE
  5
10201
330
18
100
AcDbEntity
  8
DRAW2
100
AcDbLine
 10
1120.16576194829
 20
538.2549013480456
 30
0.0
 11
1120.16576194829
 21
613.2549013480456
 31
0.0
  0
LINE
  5
10202
330
18
100
AcDbEntity
  8
DRAW2
100
AcDbLine
 10
1057.165761948291
 20
673.7549013480457
 30
0.0
 11
1120.16576194829
 21
673.7549013480457
 31
0.0
  0
LINE
  5
10204
330
18
100
AcDbEntity
  8
DRAW2
100
AcDbLine
 10
1027.16650194829
 20
645.2548413480456
 30
0.0
 11
1047.16650194829
 21
645.2548413480456
 31
0.0
  0
LINE
  5
10205
330
18
100
AcDbEntity
  8
DRAW2
100
AcDbLine
 10
1027.166431948291
 20
666.2549013480457
 30
0.0
 11
1047.166431948291
 21
666.2549013480457
 31
0.0
  0
LINE
  5
10206
330
18
100
AcDbEntity
  8
DRAW2
100
AcDbLine
 10
1025.16558194829
 20
664.2540813480457
 30
0.0
 11
1025.16558194829
 21
647.2540813480456
 31
0.0
  0
LINE
  5
10207
330
18
100
AcDbEntity
  8
DRAW2
100
AcDbLine
 10
1027.165031948291
 20
666.2543813480456
 30
0.0
 11
1027.165031948291
 21
645.2543813480456
 31
0.0
  0
LINE
  5
10208
330
18
100
AcDbEntity
  8
DRAW2
100
AcDbLine
 10
1025.166071948291
 20
647.2538013480457
 30
0.0
 11
1027.166071948291
 21
645.2538013480457
 31
0.0
  0
LINE
  5
10209
330
18
100
AcDbEntity
  8
DRAW2
100
AcDbLine
 10
1027.165031948291
 20
666.2555413480456
 30
0.0
 11
1025.165091948291
 21
664.2555713480454
 31
0.0
  0
LINE
  5
1020A
330
18
100
AcDbEntity
  8
DRAW2
100
AcDbLine
 10
1057.166431948291
 20
673.7549013480457
 30
0.0
 11
1047.166431948291
 21
673.7549013480457
 31
0.0
  0
LINE
  5
1020B
330
18
100
AcDbEntity
  8
DRAW2
100
AcDbLine
 10
1269.166441948291
 20
673.7549013480457
 30
0.0
 11
1269.166441948291
 21
477.7549013480457
 31
0.0
  0
LINE
  5
1020C
330
18
100
AcDbEntity
  8
DRAW2
100
AcDbLine
 10
1279.166441948291
 20
673.7549013480457
 30
0.0
 11
1279.166441948291
 21
477.7549013480457
 31
0.0
  0
LINE
  5
1020D
330
18
100
AcDbEntity
  8
DRAW2
100
AcDbLine
 10
1269.167111948291
 20
477.7549013480457
 30
0.0
 11
1269.167111948291
 21
673.7549013480457
 31
0.0
  0
LINE
  5
1020E
330
18
100
AcDbEntity
  8
DRAW2
100
AcDbLine
 10
1206.167111948291
 20
477.7549013480457
 30
0.0
 11
1206.167111948291
 21
673.7549013480457
 31
0.0
  0
LINE
  5
1020F
330
18
100
AcDbEntity
  8
DRAW2
100
AcDbLine
 10
1204.666431948291
 20
591.7549013480456
 30
0.0
 11
1204.666431948291
 21
673.7549013480457
 31
0.0
  0
LINE
  5
10211
330
18
100
AcDbEntity
  8
DRAW2
100
AcDbLine
 10
1269.166441948291
 20
477.7549013480457
 30
0.0
 11
1279.166441948291
 21
477.7549013480457
 31
0.0
  0
LINE
  5
10213
330
18
100
AcDbEntity
  8
DRAW2
100
AcDbLine
 10
1269.166441948291
 20
534.7305183545137
 30
0.0
 11
1279.166441948291
 21
534.7305183545137
 31
0.0
  0
LINE
  5
10215
330
18
100
AcDbEntity
  8
DRAW2
100
AcDbLine
 10
1269.166441948291
 20
616.7792843415777
 30
0.0
 11
1279.166441948291
 21
616.7792843415777
 31
0.0
  0
LINE
  5
10216
330
18
100
AcDbEntity
  8
DRAW2
100
AcDbLine
 10
1204.666431948291
 20
477.7549013480457
 30
0.0
 11
1204.666431948291
 21
559.7549013480456
 31
0.0
  0
LINE
  5
10217
330
18
100
AcDbEntity
  8
DRAW2
100
AcDbLine
 10
1269.165761948291
 20
618.7549013480456
 30
0.0
 11
1269.165761948291
 21
532.7549013480457
 31
0.0
  0
LINE
  5
10218
330
18
100
AcDbEntity
  8
DRAW2
100
AcDbLine
 10
1206.165761948291
 20
618.7549013480456
 30
0.0
 11
1206.165761948291
 21
532.7549013480457
 31
0.0
  0
LINE
  5
10219
330
18
100
AcDbEntity
  8
DRAW2
100
AcDbLine
 10
1269.167111948291
 20
477.7549013480457
 30
0.0
 11
1206.167111948291
 21
477.7549013480457
 31
0.0
  0
LINE
  5
1021A
330
18
100
AcDbEntity
  8
DRAW2
100
AcDbLine
 10
1206.165761948291
 20
532.7549013480457
 30
0.0
 11
1269.165761948291
 21
532.7549013480457
 31
0.0
  0
LINE
  5
1021B
330
18
100
AcDbEntity
  8
DRAW2
100
AcDbLine
 10
1163.166431949322
 20
484.4724834334421
 30
0.0
 11
1169.149664841436
 21
483.0317155655706
 31
0.0
  0
LINE
  5
1021C
330
18
100
AcDbEntity
  8
DRAW2
100
AcDbLine
 10
1163.166431949322
 20
479.5233511917088
 30
0.0
 11
1163.166431949322
 21
484.4724834334421
 31
0.0
  0
LINE
  5
1021D
330
18
100
AcDbEntity
  8
DRAW2
100
AcDbLine
 10
1157.183199057211
 20
483.0317155655706
 30
0.0
 11
1163.166431949322
 21
484.4724834334421
 31
0.0
  0
LINE
  5
1021E
330
18
100
AcDbEntity
  8
DRAW2
100
AcDbLine
 10
1158.166431949323
 20
483.2684789313185
 30
0.0
 11
1158.166431949323
 21
487.3417305615053
 31
0.0
  0
LINE
  5
1021F
330
18
100
AcDbEntity
  8
DRAW2
100
AcDbLine
 10
1168.166431949323
 20
483.2684789313185
 30
0.0
 11
1168.166431949323
 21
487.3417305615053
 31
0.0
  0
LINE
  5
10220
330
18
100
AcDbEntity
  8
DRAW2
100
AcDbLine
 10
1204.666431948291
 20
477.7549013480457
 30
0.0
 11
1169.149664841436
 21
477.7549013480457
 31
0.0
  0
LINE
  5
10221
330
18
100
AcDbEntity
  8
DRAW2
100
AcDbLine
 10
1160.166431949323
 20
472.9184817086997
 30
0.0
 11
1160.166431949323
 21
452.9484676800398
 31
0.0
  0
LINE
  5
10222
330
18
100
AcDbEntity
  8
DRAW2
100
AcDbLine
 10
1166.166431949323
 20
472.9184817086997
 30
0.0
 11
1166.166431949323
 21
453.9487784090878
 31
0.0
  0
LINE
  5
10223
330
18
100
AcDbEntity
  8
DRAW2
100
AcDbLine
 10
1157.183199057211
 20
478.0825833238373
 30
0.0
 11
1163.166431949322
 21
479.5233511917088
 31
0.0
  0
LINE
  5
10224
330
18
100
AcDbEntity
  8
DRAW2
100
AcDbLine
 10
1157.416431949322
 20
473.3514944105918
 30
0.0
 11
1157.416431949322
 21
475.5165579200529
 31
0.0
  0
LINE
  5
10225
330
18
100
AcDbEntity
  8
DRAW2
100
AcDbLine
 10
1157.183199057211
 20
474.6825833238373
 30
0.0
 11
1157.183199057211
 21
478.0825833238373
 31
0.0
  0
LINE
  5
10226
330
18
100
AcDbEntity
  8
DRAW2
100
AcDbLine
 10
1157.183199057211
 20
474.6825833238373
 30
0.0
 11
1157.416431949322
 21
474.6023902704149
 31
0.0
  0
LINE
  5
10227
330
18
100
AcDbEntity
  8
DRAW2
100
AcDbLine
 10
1157.183199057211
 20
478.0825833238373
 30
0.0
 11
1157.183199057211
 21
483.0317155655706
 31
0.0
  0
LINE
  5
10228
330
18
100
AcDbEntity
  8
DRAW2
100
AcDbLine
 10
1148.666431948291
 20
477.7549013480457
 30
0.0
 11
1148.666431948291
 21
460.7549013480457
 31
0.0
  0
LINE
  5
10229
330
18
100
AcDbEntity
  8
DRAW2
100
AcDbLine
 10
1168.916431949323
 20
475.5165579200529
 30
0.0
 11
1168.916431949323
 21
473.3514944105918
 31
0.0
  0
LINE
  5
1022A
330
18
100
AcDbEntity
  8
DRAW2
100
AcDbLine
 10
1169.149664841436
 20
478.0825833238373
 30
0.0
 11
1169.149664841436
 21
474.6825833238373
 31
0.0
  0
LINE
  5
1022B
330
18
100
AcDbEntity
  8
DRAW2
100
AcDbLine
 10
1163.166431949322
 20
479.5233511917088
 30
0.0
 11
1169.149664841436
 21
478.0825833238373
 31
0.0
  0
LINE
  5
1022C
330
18
100
AcDbEntity
  8
DRAW2
100
AcDbLine
 10
1168.916431949323
 20
474.6036437619541
 30
0.0
 11
1169.149664841436
 21
474.6825833238373
 31
0.0
  0
LINE
  5
1022D
330
18
100
AcDbEntity
  8
DRAW2
100
AcDbLine
 10
1169.149664841436
 20
478.0825833238373
 30
0.0
 11
1169.149664841436
 21
483.0317155655706
 31
0.0
  0
LINE
  5
1022E
330
18
100
AcDbEntity
  8
DRAW2
100
AcDbLine
 10
1198.666431948291
 20
460.7549013480457
 30
0.0
 11
1177.666431948291
 21
460.7549013480457
 31
0.0
  0
LINE
  5
1022F
330
18
100
AcDbEntity
  8
DRAW2
100
AcDbLine
 10
1177.666431948291
 20
477.7549013480457
 30
0.0
 11
1177.666431948291
 21
460.7549013480457
 31
0.0
  0
LINE
  5
10230
330
18
100
AcDbEntity
  8
DRAW2
100
AcDbLine
 10
1198.666431948291
 20
477.7549013480457
 30
0.0
 11
1198.666431948291
 21
460.7549013480457
 31
0.0
  0
LINE
  5
10231
330
18
100
AcDbEntity
  8
DRAW2
100
AcDbLine
 10
1166.483056739678
 20
488.1834181663275
 30
0.0
 11
1159.849807158968
 21
488.1834181663275
 31
0.0
  0
LINE
  5
10232
330
18
100
AcDbEntity
  8
DRAW2
100
AcDbLine
 10
1166.483056739678
 20
493.3795705890343
 30
0.0
 11
1159.849807158968
 21
493.3795705890341
 31
0.0
  0
LINE
  5
10233
330
18
100
AcDbEntity
  8
DRAW2
100
AcDbLine
 10
1147.479898469839
 20
488.207366206557
 30
0.0
 11
1147.479898469839
 21
486.7639905335828
 31
0.0
  0
LINE
  5
10234
330
18
100
AcDbEntity
  8
DRAW2
100
AcDbLine
 10
1144.979898469839
 20
488.9290540430439
 30
0.0
 11
1147.479898469839
 21
488.207366206557
 31
0.0
  0
LINE
  5
10235
330
18
100
AcDbEntity
  8
DRAW2
100
AcDbLine
 10
1144.979898469839
 20
486.0423026970958
 30
0.0
 11
1147.479898469839
 21
486.7639905335828
 31
0.0
  0
LINE
  5
10236
330
18
100
AcDbEntity
  8
DRAW2
100
AcDbLine
 10
1158.966431949322
 20
485.6834181663276
 30
0.0
 11
1158.966431949322
 21
484.7219671697236
 31
0.0
  0
LINE
  5
10237
330
18
100
AcDbEntity
  8
DRAW2
100
AcDbLine
 10
1159.849807158968
 20
488.1834181663275
 30
0.0
 11
1158.166431949323
 21
487.3417305615053
 31
0.0
  0
LINE
  5
10238
330
18
100
AcDbEntity
  8
DRAW2
100
AcDbLine
 10
1159.849807158968
 20
493.3795705890343
 30
0.0
 11
1158.166431949323
 21
492.5378829842118
 31
0.0
  0
LINE
  5
10239
330
18
100
AcDbEntity
  8
DRAW2
100
AcDbLine
 10
1158.166431949323
 20
492.5378829842118
 30
0.0
 11
1158.166431949323
 21
487.3417305615053
 31
0.0
  0
LINE
  5
1023A
330
18
100
AcDbEntity
  8
DRAW2
100
AcDbLine
 10
1159.849807158968
 20
493.3795705890343
 30
0.0
 11
1159.849807158968
 21
488.1834181663275
 31
0.0
  0
LINE
  5
1023B
330
18
100
AcDbEntity
  8
DRAW2
100
AcDbLine
 10
1158.302431949323
 20
495.2356783700698
 30
0.0
 11
1158.224046392982
 21
492.5666902060411
 31
0.0
  0
LINE
  5
1023C
330
18
100
AcDbEntity
  8
DRAW2
100
AcDbLine
 10
1165.666431949312
 20
503.957366206557
 30
0.0
 11
1163.166431949312
 21
504.6790540430439
 31
0.0
  0
LINE
  5
1023D
330
18
100
AcDbEntity
  8
DRAW2
100
AcDbLine
 10
1163.166431949312
 20
504.6790540430439
 30
0.0
 11
1160.666431949312
 21
503.957366206557
 31
0.0
  0
LINE
  5
1023E
330
18
100
AcDbEntity
  8
DRAW2
100
AcDbLine
 10
1165.666431949312
 20
502.5139905335828
 30
0.0
 11
1163.166431949312
 21
501.7923026970958
 31
0.0
  0
LINE
  5
1023F
330
18
100
AcDbEntity
  8
DRAW2
100
AcDbLine
 10
1163.166431949312
 20
501.7923026970958
 30
0.0
 11
1160.666431949312
 21
502.5139905335828
 31
0.0
  0
LINE
  5
10240
330
18
100
AcDbEntity
  8
DRAW2
100
AcDbLine
 10
1165.666431949312
 20
502.5139905335828
 30
0.0
 11
1165.666431949312
 21
503.957366206557
 31
0.0
  0
LINE
  5
10241
330
18
100
AcDbEntity
  8
DRAW2
100
AcDbLine
 10
1160.666431949312
 20
503.957366206557
 30
0.0
 11
1160.666431949312
 21
502.5139905335828
 31
0.0
  0
LINE
  5
10242
330
18
100
AcDbEntity
  8
DRAW2
100
AcDbLine
 10
1167.366431949323
 20
485.6834181663276
 30
0.0
 11
1167.366431949323
 21
484.7219671697236
 31
0.0
  0
LINE
  5
10243
330
18
100
AcDbEntity
  8
DRAW2
100
AcDbLine
 10
1166.483056739678
 20
488.1834181663275
 30
0.0
 11
1168.166431949323
 21
487.3417305615053
 31
0.0
  0
LINE
  5
10244
330
18
100
AcDbEntity
  8
DRAW2
100
AcDbLine
 10
1166.483056739678
 20
493.3795705890343
 30
0.0
 11
1168.166431949323
 21
492.5378829842118
 31
0.0
  0
LINE
  5
10245
330
18
100
AcDbEntity
  8
DRAW2
100
AcDbLine
 10
1166.483056739678
 20
493.3795705890343
 30
0.0
 11
1166.483056739678
 21
488.1834181663275
 31
0.0
  0
LINE
  5
10246
330
18
100
AcDbEntity
  8
DRAW2
100
AcDbLine
 10
1168.166431949323
 20
492.5378829842118
 30
0.0
 11
1168.166431949323
 21
487.3417305615053
 31
0.0
  0
LINE
  5
10247
330
18
100
AcDbEntity
  8
DRAW2
100
AcDbLine
 10
1168.030431949323
 20
495.2356783700698
 30
0.0
 11
1168.108817505665
 21
492.5666902060411
 31
0.0
  0
LINE
  5
10248
330
18
100
AcDbEntity
  8
DRAW2
100
AcDbLine
 10
1178.852965428786
 20
488.207366206557
 30
0.0
 11
1178.852965428786
 21
486.7639905335828
 31
0.0
  0
LINE
  5
10249
330
18
100
AcDbEntity
  8
DRAW2
100
AcDbLine
 10
1183.852965428786
 20
486.7639905335828
 30
0.0
 11
1183.852965428786
 21
488.207366206557
 31
0.0
  0
LINE
  5
1024A
330
18
100
AcDbEntity
  8
DRAW2
100
AcDbLine
 10
1181.352965428785
 20
486.0423026970958
 30
0.0
 11
1178.852965428786
 21
486.7639905335828
 31
0.0
  0
LINE
  5
1024B
330
18
100
AcDbEntity
  8
DRAW2
100
AcDbLine
 10
1183.852965428786
 20
486.7639905335828
 30
0.0
 11
1181.352965428785
 21
486.0423026970958
 31
0.0
  0
LINE
  5
1024C
330
18
100
AcDbEntity
  8
DRAW2
100
AcDbLine
 10
1181.352965428785
 20
488.9290540430439
 30
0.0
 11
1178.852965428786
 21
488.207366206557
 31
0.0
  0
LINE
  5
1024D
330
18
100
AcDbEntity
  8
DRAW2
100
AcDbLine
 10
1183.852965428786
 20
488.207366206557
 30
0.0
 11
1181.352965428785
 21
488.9290540430439
 31
0.0
  0
LINE
  5
1024E
330
18
100
AcDbEntity
  8
DRAW2
100
AcDbLine
 10
1192.916431949311
 20
496.885539818802
 30
0.0
 11
1192.916431949311
 21
494.4677291776388
 31
0.0
  0
LINE
  5
1024F
330
18
100
AcDbEntity
  8
DRAW2
100
AcDbLine
 10
1269.167111948291
 20
614.5363402073764
 30
0.0
 11
1206.167111948291
 21
614.5363402073764
 31
0.0
  0
LINE
  5
10250
330
18
100
AcDbEntity
  8
DRAW2
100
AcDbLine
 10
1269.167111948291
 20
536.9734624887151
 30
0.0
 11
1206.167111948291
 21
536.9734624887151
 31
0.0
  0
LINE
  5
10251
330
18
100
AcDbEntity
  8
DRAW2
100
AcDbLine
 10
1269.165761948291
 20
618.7549013480456
 30
0.0
 11
1206.165761948291
 21
618.7549013480456
 31
0.0
  0
LINE
  5
10252
330
18
100
AcDbEntity
  8
DRAW2
100
AcDbLine
 10
1206.165761948291
 20
613.2549013480456
 30
0.0
 11
1206.165761948291
 21
538.2549013480456
 31
0.0
  0
LINE
  5
10253
330
18
100
AcDbEntity
  8
DRAW2
100
AcDbLine
 10
1269.165761948291
 20
538.2549013480456
 30
0.0
 11
1269.165761948291
 21
613.2549013480456
 31
0.0
  0
CIRCLE
  5
10254
330
18
100
AcDbEntity
  8
DRAW2
100
AcDbCircle
 10
1244.165761948291
 20
548.7549013480457
 30
0.0
 40
8.0
  0
CIRCLE
  5
10255
330
18
100
AcDbEntity
  8
DRAW2
100
AcDbCircle
 10
1244.165761948291
 20
548.7549013480457
 30
0.0
 40
6.0
  0
CIRCLE
  5
10256
330
18
100
AcDbEntity
  8
DRAW2
100
AcDbCircle
 10
1244.165761948291
 20
602.7549013480457
 30
0.0
 40
8.0
  0
CIRCLE
  5
10257
330
18
100
AcDbEntity
  8
DRAW2
100
AcDbCircle
 10
1244.165761948291
 20
602.7549013480457
 30
0.0
 40
6.0
  0
LINE
  5
10258
330
18
100
AcDbEntity
  8
DRAW2
100
AcDbLine
 10
1299.167841948291
 20
546.25438914383
 30
0.0
 11
1299.167841948291
 21
525.2543891438302
 31
0.0
  0
LINE
  5
10259
330
18
100
AcDbEntity
  8
DRAW2
100
AcDbLine
 10
1301.167291948291
 20
544.2540891438301
 30
0.0
 11
1301.167291948291
 21
527.2540891438301
 31
0.0
  0
LINE
  5
1025A
330
18
100
AcDbEntity
  8
DRAW2
100
AcDbLine
 10
1338.165761948291
 20
625.7549013480456
 30
0.0
 11
1338.165761948291
 21
525.7549013480456
 31
0.0
  0
LINE
  5
1025B
330
18
100
AcDbEntity
  8
DRAW2
100
AcDbLine
 10
1323.165761948291
 20
625.7549013480456
 30
0.0
 11
1323.165761948291
 21
525.7549013480456
 31
0.0
  0
LINE
  5
1025C
330
18
100
AcDbEntity
  8
DRAW2
100
AcDbLine
 10
1321.36669194829
 20
526.7549013480456
 30
0.0
 11
1321.36669194829
 21
575.7549013480456
 31
0.0
  0
LINE
  5
1025D
330
18
100
AcDbEntity
  8
DRAW2
100
AcDbLine
 10
1319.366691948291
 20
526.7549013480456
 30
0.0
 11
1319.366691948291
 21
575.7549013480456
 31
0.0
  0
LINE
  5
1025E
330
18
100
AcDbEntity
  8
DRAW2
100
AcDbLine
 10
1299.166371948291
 20
485.2548413480454
 30
0.0
 11
1279.166371948291
 21
485.2548413480454
 31
0.0
  0
LINE
  5
1025F
330
18
100
AcDbEntity
  8
DRAW2
100
AcDbLine
 10
1299.166441948291
 20
506.2549013480456
 30
0.0
 11
1279.166441948291
 21
506.2549013480456
 31
0.0
  0
LINE
  5
10260
330
18
100
AcDbEntity
  8
DRAW2
100
AcDbLine
 10
1301.167291948291
 20
504.2540813480456
 30
0.0
 11
1301.167291948291
 21
487.2540813480456
 31
0.0
  0
LINE
  5
10261
330
18
100
AcDbEntity
  8
DRAW2
100
AcDbLine
 10
1299.167841948291
 20
506.2543813480456
 30
0.0
 11
1299.167841948291
 21
485.2543813480456
 31
0.0
  0
LINE
  5
10262
330
18
100
AcDbEntity
  8
DRAW2
100
AcDbLine
 10
1301.166801948291
 20
487.2538013480457
 30
0.0
 11
1299.166801948291
 21
485.2538013480456
 31
0.0
  0
LINE
  5
10263
330
18
100
AcDbEntity
  8
DRAW2
100
AcDbLine
 10
1299.167841948291
 20
506.2555413480456
 30
0.0
 11
1301.167781948291
 21
504.2555713480456
 31
0.0
  0
LINE
  5
10264
330
18
100
AcDbEntity
  8
DRAW2
100
AcDbLine
 10
1299.166371948291
 20
525.2548491438301
 30
0.0
 11
1279.166371948291
 21
525.2548491438301
 31
0.0
  0
LINE
  5
10265
330
18
100
AcDbEntity
  8
DRAW2
100
AcDbLine
 10
1301.166801948291
 20
527.2538091438303
 30
0.0
 11
1299.166801948291
 21
525.2538091438301
 31
0.0
  0
LINE
  5
10266
330
18
100
AcDbEntity
  8
DRAW2
100
AcDbLine
 10
1338.165761948291
 20
525.7549013480456
 30
0.0
 11
1323.165761948291
 21
525.7549013480456
 31
0.0
  0
LINE
  5
10267
330
18
100
AcDbEntity
  8
DRAW2
100
AcDbLine
 10
1319.366691948291
 20
526.7549013480456
 30
0.0
 11
1323.165761948291
 21
526.7549013480456
 31
0.0
  0
LINE
  5
10268
330
18
100
AcDbEntity
  8
DRAW2
100
AcDbLine
 10
1321.36669194829
 20
575.7549013480456
 30
0.0
 11
1321.36669194829
 21
624.7549013480456
 31
0.0
  0
LINE
  5
10269
330
18
100
AcDbEntity
  8
DRAW2
100
AcDbLine
 10
1319.366691948291
 20
575.7549013480456
 30
0.0
 11
1319.366691948291
 21
624.7549013480456
 31
0.0
  0
LINE
  5
1026A
330
18
100
AcDbEntity
  8
DRAW2
100
AcDbLine
 10
1319.366691948291
 20
555.2549013480456
 30
0.0
 11
1279.166441948291
 21
555.2549013480456
 31
0.0
  0
LINE
  5
1026B
330
18
100
AcDbEntity
  8
DRAW2
100
AcDbLine
 10
1299.166441948291
 20
546.2549091438302
 30
0.0
 11
1279.166441948291
 21
546.2549091438302
 31
0.0
  0
LINE
  5
1026C
330
18
100
AcDbEntity
  8
DRAW2
100
AcDbLine
 10
1299.167841948291
 20
546.25554914383
 30
0.0
 11
1301.167781948291
 21
544.2555791438301
 31
0.0
  0
LINE
  5
1026D
330
18
100
AcDbEntity
  8
DRAW2
100
AcDbLine
 10
1279.166441948291
 20
596.2549013480454
 30
0.0
 11
1319.366691948291
 21
596.2549013480456
 31
0.0
  0
LINE
  5
1026E
330
18
100
AcDbEntity
  8
DRAW2
100
AcDbLine
 10
1299.167841948291
 20
626.2543885421575
 30
0.0
 11
1299.167841948291
 21
605.2543885421575
 31
0.0
  0
LINE
  5
1026F
330
18
100
AcDbEntity
  8
DRAW2
100
AcDbLine
 10
1301.167291948291
 20
624.2540885421576
 30
0.0
 11
1301.167291948291
 21
607.2540885421575
 31
0.0
  0
LINE
  5
10270
330
18
100
AcDbEntity
  8
DRAW2
100
AcDbLine
 10
1299.166371948291
 20
605.2548485421573
 30
0.0
 11
1279.166371948291
 21
605.2548485421573
 31
0.0
  0
LINE
  5
10271
330
18
100
AcDbEntity
  8
DRAW2
100
AcDbLine
 10
1301.166801948291
 20
607.2538085421576
 30
0.0
 11
1299.166801948291
 21
605.2538085421575
 31
0.0
  0
LINE
  5
10272
330
18
100
AcDbEntity
  8
DRAW2
100
AcDbLine
 10
1299.166441948291
 20
626.2549085421575
 30
0.0
 11
1279.166441948291
 21
626.2549085421575
 31
0.0
  0
LINE
  5
10273
330
18
100
AcDbEntity
  8
DRAW2
100
AcDbLine
 10
1299.167841948291
 20
626.2555485421573
 30
0.0
 11
1301.167781948291
 21
624.2555785421573
 31
0.0
  0
LINE
  5
10274
330
18
100
AcDbEntity
  8
DRAW2
100
AcDbLine
 10
1338.165761948291
 20
625.7549013480456
 30
0.0
 11
1323.165761948291
 21
625.7549013480456
 31
0.0
  0
LINE
  5
10275
330
18
100
AcDbEntity
  8
DRAW2
100
AcDbLine
 10
1319.366691948291
 20
624.7549013480456
 30
0.0
 11
1323.165761948291
 21
624.7549013480456
 31
0.0
  0
LINE
  5
10277
330
18
100
AcDbEntity
  8
DRAW2
100
AcDbLine
 10
1269.166441948291
 20
673.7549013480457
 30
0.0
 11
1279.166441948291
 21
673.7549013480457
 31
0.0
  0
LINE
  5
10278
330
18
100
AcDbEntity
  8
DRAW2
100
AcDbLine
 10
1269.167111948291
 20
673.7549013480457
 30
0.0
 11
1206.167111948291
 21
673.7549013480457
 31
0.0
  0
LINE
  5
10279
330
18
100
AcDbEntity
  8
DRAW2
100
AcDbLine
 10
1299.167841948291
 20
666.2543813480456
 30
0.0
 11
1299.167841948291
 21
645.2543813480456
 31
0.0
  0
LINE
  5
1027A
330
18
100
AcDbEntity
  8
DRAW2
100
AcDbLine
 10
1301.167291948291
 20
664.2540813480457
 30
0.0
 11
1301.167291948291
 21
647.2540813480456
 31
0.0
  0
LINE
  5
1027B
330
18
100
AcDbEntity
  8
DRAW2
100
AcDbLine
 10
1299.166371948291
 20
645.2548413480456
 30
0.0
 11
1279.166371948291
 21
645.2548413480456
 31
0.0
  0
LINE
  5
1027C
330
18
100
AcDbEntity
  8
DRAW2
100
AcDbLine
 10
1301.166801948291
 20
647.2538013480457
 30
0.0
 11
1299.166801948291
 21
645.2538013480457
 31
0.0
  0
LINE
  5
1027D
330
18
100
AcDbEntity
  8
DRAW2
100
AcDbLine
 10
1299.166441948291
 20
666.2549013480457
 30
0.0
 11
1279.166441948291
 21
666.2549013480457
 31
0.0
  0
LINE
  5
1027E
330
18
100
AcDbEntity
  8
DRAW2
100
AcDbLine
 10
1299.167841948291
 20
666.2555413480456
 30
0.0
 11
1301.167781948291
 21
664.2555713480454
 31
0.0
  0
LINE
  5
10280
330
18
100
AcDbEntity
  8
DRAW2
100
AcDbLine
 10
1664.115597048292
 20
54.32967598704976
 30
0.0
 11
1666.987847048292
 21
35.18129598704968
 31
0.0
  0
LINE
  5
10281
330
18
100
AcDbEntity
  8
DRAW2
100
AcDbLine
 10
1700.115687048292
 20
54.32933598704972
 30
0.0
 11
1697.243407048292
 21
35.18092598704969
 31
0.0
  0
LINE
  5
10282
330
18
100
AcDbEntity
  8
DRAW2
100
AcDbLine
 10
1717.115717048292
 20
37.33022598704974
 30
0.0
 11
1719.115717048292
 21
35.33022598704974
 31
0.0
  0
LINE
  5
10283
330
18
100
AcDbEntity
  8
DRAW2
100
AcDbLine
 10
1733.115197048292
 20
37.32884598704981
 30
0.0
 11
1731.115137048291
 21
35.32878598704974
 31
0.0
  0
LINE
  5
10284
330
18
100
AcDbEntity
  8
DRAW2
100
AcDbLine
 10
1771.115907048292
 20
37.32881598704965
 30
0.0
 11
1773.115907048292
 21
35.32881598704966
 31
0.0
  0
LINE
  5
10285
330
18
100
AcDbEntity
  8
DRAW2
100
AcDbLine
 10
1787.115367048292
 20
37.33019598704982
 30
0.0
 11
1785.115357048292
 21
35.33016598704965
 31
0.0
  0
LINE
  5
10286
330
18
100
AcDbEntity
  8
DRAW2
100
AcDbLine
 10
1804.115357048291
 20
54.32927598704964
 30
0.0
 11
1806.987607048291
 21
35.18092598704969
 31
0.0
  0
LINE
  5
10287
330
18
100
AcDbEntity
  8
DRAW2
100
AcDbLine
 10
1840.115417048291
 20
54.32964598704984
 30
0.0
 11
1837.243157048292
 21
35.18126598704975
 31
0.0
  0
LINE
  5
1028C
330
18
100
AcDbEntity
  8
DRAW2
100
AcDbLine
 10
1696.253387048291
 20
34.32976598704977
 30
0.0
 11
1667.975797048292
 21
34.32976598704977
 31
0.0
  0
ARC
  5
1028D
330
18
100
AcDbEntity
  8
DRAW2
100
AcDbCircle
 10
1667.976227048292
 20
35.32921598704979
 30
0.0
 40
1.0
100
AcDbArc
 50
188.5310200000004
 51
270.0000499999985
  0
ARC
  5
1028E
330
18
100
AcDbEntity
  8
DRAW2
100
AcDbCircle
 10
1696.253747048291
 20
35.32933598704971
 30
0.0
 40
1.0
100
AcDbArc
 50
270.0000700000005
 51
351.4691799999948
  0
LINE
  5
1028F
330
18
100
AcDbEntity
  8
DRAW2
100
AcDbLine
 10
1731.114647048292
 20
35.32988598704969
 30
0.0
 11
1719.114647048292
 21
35.32988598704969
 31
0.0
  0
LINE
  5
10290
330
18
100
AcDbEntity
  8
DRAW2
100
AcDbLine
 10
1773.116357048292
 20
35.32988598704969
 30
0.0
 11
1785.116357048292
 21
35.32988598704969
 31
0.0
  0
LINE
  5
10291
330
18
100
AcDbEntity
  8
DRAW2
100
AcDbLine
 10
1807.977627048292
 20
34.32976598704977
 30
0.0
 11
1836.255217048292
 21
34.32976598704977
 31
0.0
  0
ARC
  5
10292
330
18
100
AcDbEntity
  8
DRAW2
100
AcDbCircle
 10
1807.977257048292
 20
35.32933598704971
 30
0.0
 40
1.0
100
AcDbArc
 50
188.5308100000029
 51
269.9999099999974
  0
ARC
  5
10293
330
18
100
AcDbEntity
  8
DRAW2
100
AcDbCircle
 10
1836.254787048292
 20
35.32921598704979
 30
0.0
 40
1.0
100
AcDbArc
 50
269.9999400000005
 51
351.4689599999963
  0
SPLINE
  5
10294
330
18
100
AcDbEntity
  8
DRAW3
100
AcDbSpline
210
0.0
220
0.0
230
1.0
 70
     8
 71
     3
 72
    10
 73
     6
 74
     4
 42
0.0000000001
 43
0.0000000001
 44
0.0000000001
 40
0.0
 40
0.0
 40
0.0
 40
0.0
 40
0.7869075212544336
 40
1.726788435349804
 40
2.626116616137457
 40
2.626116616137457
 40
2.626116616137457
 40
2.626116616137457
 10
1509.82201853876
 20
275.7181612174984
 30
0.0
 10
1509.612292325114
 20
275.4741526297542
 30
0.0
 10
1509.152069502823
 20
274.9387006280108
 30
0.0
 10
1508.425063605852
 20
276.0605422618886
 30
0.0
 10
1507.85215621486
 20
275.6162926386289
 30
0.0
 10
1507.572018538761
 20
275.3990654584169
 30
0.0
 11
1509.82201853876
 21
275.7181612174984
 31
0.0
 11
1509.189140113803
 21
275.2505199594482
 31
0.0
 11
1508.397189966153
 21
275.7566731934768
 31
0.0
 11
1507.572018538761
 21
275.3990654584169
 31
0.0
  0
SPLINE
  5
10295
330
18
100
AcDbEntity
  8
DRAW3
100
AcDbSpline
210
0.0
220
0.0
230
1.0
 70
     8
 71
     3
 72
    10
 73
     6
 74
     4
 42
0.0000000001
 43
0.0000000001
 44
0.0000000001
 40
0.0
 40
0.0
 40
0.0
 40
0.0
 40
0.7869075212544336
 40
1.726788435349804
 40
2.626116616137457
 40
2.626116616137457
 40
2.626116616137457
 40
2.626116616137457
 10
1509.82201853876
 20
273.7181612174984
 30
0.0
 10
1509.612292325114
 20
273.4741526297542
 30
0.0
 10
1509.152069502823
 20
272.9387006280108
 30
0.0
 10
1508.425063605852
 20
274.0605422618887
 30
0.0
 10
1507.85215621486
 20
273.6162926386289
 30
0.0
 10
1507.572018538761
 20
273.3990654584169
 30
0.0
 11
1509.82201853876
 21
273.7181612174984
 31
0.0
 11
1509.189140113803
 21
273.2505199594482
 31
0.0
 11
1508.397189966153
 21
273.7566731934768
 31
0.0
 11
1507.572018538761
 21
273.3990654584169
 31
0.0
  0
SPLINE
  5
10296
330
18
100
AcDbEntity
  8
DRAW3
100
AcDbSpline
210
0.0
220
0.0
230
1.0
 70
     8
 71
     3
 72
    10
 73
     6
 74
     4
 42
0.0000000001
 43
0.0000000001
 44
0.0000000001
 40
0.0
 40
0.0
 40
0.0
 40
0.0
 40
0.3934537606269087
 40
0.8633942176752189
 40
1.202033207996327
 40
1.202033207996327
 40
1.202033207996327
 40
1.202033207996327
 10
1492.822018538752
 20
275.7181612174984
 30
0.0
 10
1492.717720583699
 20
275.5934049428149
 30
0.0
 10
1492.48884934057
 20
275.3196400002489
 30
0.0
 10
1492.146442375373
 20
275.8800732380864
 30
0.0
 10
1491.917782829893
 20
275.6535027264402
 30
0.0
 10
1491.822018538752
 20
275.5586133379576
 30
0.0
 11
1492.822018538752
 21
275.7181612174984
 31
0.0
 11
1492.505579326274
 21
275.4843405884733
 31
0.0
 11
1492.109604252448
 21
275.7374172054876
 31
0.0
 11
1491.822018538752
 21
275.5586133379576
 31
0.0
  0
SPLINE
  5
10297
330
18
100
AcDbEntity
  8
DRAW3
100
AcDbSpline
210
0.0
220
0.0
230
1.0
 70
     8
 71
     3
 72
    10
 73
     6
 74
     4
 42
0.0000000001
 43
0.0000000001
 44
0.0000000001
 40
0.0
 40
0.0
 40
0.0
 40
0.0
 40
0.3934537606269424
 40
0.8633942176745781
 40
1.429935674776079
 40
1.429935674776079
 40
1.429935674776079
 40
1.429935674776079
 10
1485.947018538753
 20
275.7181612174988
 30
0.0
 10
1485.841992707856
 20
275.5979764796143
 30
0.0
 10
1485.6115242153
 20
275.3342433090967
 30
0.0
 10
1485.218967152992
 20
275.9081717722498
 30
0.0
 10
1484.881485923163
 20
275.6821544841806
 30
0.0
 10
1484.697018538753
 20
275.558613337958
 30
0.0
 11
1485.947018538753
 21
275.7181612174988
 31
0.0
 11
1485.630579326275
 21
275.4843405884737
 31
0.0
 11
1485.23460425245
 21
275.7374172054881
 31
0.0
 11
1484.697018538753
 21
275.558613337958
 31
0.0
  0
SPLINE
  5
10298
330
18
100
AcDbEntity
  8
DRAW3
100
AcDbSpline
210
0.0
220
0.0
230
1.0
 70
     8
 71
     3
 72
    10
 73
     6
 74
     4
 42
0.0000000001
 43
0.0000000001
 44
0.0000000001
 40
0.0
 40
0.0
 40
0.0
 40
0.0
 40
0.3934537606269087
 40
0.8633942176752189
 40
1.202033207996327
 40
1.202033207996327
 40
1.202033207996327
 40
1.202033207996327
 10
1492.822018538752
 20
273.7181612174984
 30
0.0
 10
1492.717720583699
 20
273.5934049428149
 30
0.0
 10
1492.48884934057
 20
273.3196400002489
 30
0.0
 10
1492.146442375373
 20
273.8800732380865
 30
0.0
 10
1491.917782829893
 20
273.6535027264401
 30
0.0
 10
1491.822018538752
 20
273.5586133379576
 30
0.0
 11
1492.822018538752
 21
273.7181612174984
 31
0.0
 11
1492.505579326274
 21
273.4843405884733
 31
0.0
 11
1492.109604252448
 21
273.7374172054876
 31
0.0
 11
1491.822018538752
 21
273.5586133379576
 31
0.0
  0
SPLINE
  5
10299
330
18
100
AcDbEntity
  8
DRAW3
100
AcDbSpline
210
0.0
220
0.0
230
1.0
 70
     8
 71
     3
 72
    10
 73
     6
 74
     4
 42
0.0000000001
 43
0.0000000001
 44
0.0000000001
 40
0.0
 40
0.0
 40
0.0
 40
0.0
 40
0.3934537606269424
 40
0.863394217674517
 40
1.429935674775982
 40
1.429935674775982
 40
1.429935674775982
 40
1.429935674775982
 10
1485.947018538753
 20
273.7181612174988
 30
0.0
 10
1485.841992707856
 20
273.5979764796143
 30
0.0
 10
1485.6115242153
 20
273.3342433090967
 30
0.0
 10
1485.218967152993
 20
273.9081717722497
 30
0.0
 10
1484.881485923163
 20
273.6821544841805
 30
0.0
 10
1484.697018538753
 20
273.558613337958
 30
0.0
 11
1485.947018538753
 21
273.7181612174988
 31
0.0
 11
1485.630579326275
 21
273.4843405884737
 31
0.0
 11
1485.23460425245
 21
273.737417205488
 31
0.0
 11
1484.697018538753
 21
273.558613337958
 31
0.0
  0
SPLINE
  5
1029A
330
18
100
AcDbEntity
  8
DRAW3
100
AcDbSpline
210
0.0
220
0.0
230
1.0
 70
     8
 71
     3
 72
    10
 73
     6
 74
     4
 42
0.0000000001
 43
0.0000000001
 44
0.0000000001
 40
0.0
 40
0.0
 40
0.0
 40
0.0
 40
1.972684243528163
 40
4.621558289201263
 40
6.679776794358682
 40
6.679776794358682
 40
6.679776794358682
 40
6.679776794358682
 10
1571.980228969513
 20
305.753051242316
 30
0.0
 10
1572.439773756548
 20
305.1767792448417
 30
0.0
 10
1573.516384484671
 20
303.8267027511
 30
0.0
 10
1571.235935925529
 20
301.6441530146096
 30
0.0
 10
1572.449776849654
 20
300.3283833490971
 30
0.0
 10
1572.980539698562
 20
299.7530512423161
 30
0.0
 11
1571.980228969513
 21
305.753051242316
 31
0.0
 11
1572.875244366843
 21
303.9950891940321
 31
0.0
 11
1571.927579611076
 21
301.5215360370298
 31
0.0
 11
1572.980539698562
 21
299.7530512423161
 31
0.0
  0
SPLINE
  5
1029B
330
18
100
AcDbEntity
  8
DRAW3
100
AcDbSpline
210
0.0
220
0.0
230
1.0
 70
     8
 71
     3
 72
    10
 73
     6
 74
     4
 42
0.0000000001
 43
0.0000000001
 44
0.0000000001
 40
0.0
 40
0.0
 40
0.0
 40
0.0
 40
1.972684243528524
 40
4.621558289202166
 40
6.679776794359634
 40
6.679776794359634
 40
6.679776794359634
 40
6.679776794359634
 10
1573.980228969515
 20
305.7530512423156
 30
0.0
 10
1574.43977375655
 20
305.1767792448413
 30
0.0
 10
1575.516384484674
 20
303.8267027510995
 30
0.0
 10
1573.23593592553
 20
301.6441530146094
 30
0.0
 10
1574.449776849655
 20
300.3283833490967
 30
0.0
 10
1574.980539698563
 20
299.7530512423157
 30
0.0
 11
1573.980228969515
 21
305.7530512423156
 31
0.0
 11
1574.875244366846
 21
303.9950891940318
 31
0.0
 11
1573.927579611076
 21
301.5215360370294
 31
0.0
 11
1574.980539698563
 21
299.7530512423157
 31
0.0
  0
LINE
  5
1029D
330
18
100
AcDbEntity
  8
DRAW2
100
AcDbLine
 10
1662.115507048292
 20
54.33012598704976
 30
0.0
 11
1717.416803902497
 21
54.33012598704978
 31
0.0
  0
LINE
  5
1029E
330
18
100
AcDbEntity
  8
DRAW2
100
AcDbLine
 10
1664.424775745968
 20
263.5054196730449
 30
0.0
 11
1669.620928168674
 21
260.5054196730449
 31
0.0
  0
LINE
  5
1029F
330
18
100
AcDbEntity
  8
DRAW2
100
AcDbLine
 10
1671.332322726243
 20
259.4696419985509
 30
0.0
 11
1666.373635226243
 21
250.8809433096943
 31
0.0
  0
LINE
  5
102A0
330
18
100
AcDbEntity
  8
DRAW2
100
AcDbLine
 10
1669.620928168674
 20
260.5054196730449
 30
0.0
 11
1664.620928168674
 21
251.8451656352004
 31
0.0
  0
CIRCLE
  5
102A2
330
18
100
AcDbEntity
  8
DRAW2
100
AcDbCircle
 10
1672.115507048292
 20
201.330134988846
 30
0.0
 40
10.50116005149908
  0
CIRCLE
  5
102A3
330
18
100
AcDbEntity
  8
DRAW2
100
AcDbCircle
 10
1672.115507048292
 20
201.330134988846
 30
0.0
 40
8.500850000000012
  0
LINE
  5
102A5
330
18
100
AcDbEntity
  8
DRAW2
100
AcDbLine
 10
1662.115507048292
 20
69.33012598704975
 30
0.0
 11
1706.739301830138
 21
69.33012598704975
 31
0.0
  0
ARC
  5
102A6
330
18
100
AcDbEntity
  8
DRAW2
100
AcDbCircle
 10
1752.115507048292
 20
201.3301259870496
 30
0.0
 40
98.0
100
AcDbArc
 50
116.7655005767576
 51
243.2344994232423
  0
ARC
  5
102A8
330
18
100
AcDbEntity
  8
DRAW2
100
AcDbCircle
 10
1530.947018538751
 20
233.4026247892305
 30
0.0
 40
25.0
100
AcDbArc
 50
160.4757284897118
 51
180.0
  0
ARC
  5
102A9
330
18
100
AcDbEntity
  8
DRAW2
100
AcDbCircle
 10
1530.947018538751
 20
233.4026247892305
 30
0.0
 40
26.25
100
AcDbArc
 50
160.4757284897118
 51
180.0
  0
ARC
  5
102AB
330
18
100
AcDbEntity
  8
DRAW2
100
AcDbCircle
 10
1486.822018538752
 20
233.4026247892313
 30
0.0
 40
25.0
100
AcDbArc
 50
0.0
 51
19.94844358880153
  0
ARC
  5
102AC
330
18
100
AcDbEntity
  8
DRAW2
100
AcDbCircle
 10
1486.822018538752
 20
233.4026247892313
 30
0.0
 40
26.0
100
AcDbArc
 50
0.0
 51
19.94844358880153
  0
LINE
  5
102AE
330
18
100
AcDbEntity
  8
DRAW2
100
AcDbLine
 10
1492.822018538752
 20
232.4026247892316
 30
0.0
 11
1492.822018538752
 21
273.7181612174984
 31
0.0
  0
LINE
  5
102AF
330
18
100
AcDbEntity
  8
DRAW2
100
AcDbLine
 10
1491.822018538752
 20
232.4026247892316
 30
0.0
 11
1491.822018538752
 21
273.5586133379576
 31
0.0
  0
LINE
  5
102B0
330
18
100
AcDbEntity
  8
DRAW2
100
AcDbLine
 10
1485.947018538752
 20
232.4026247892315
 30
0.0
 11
1485.947018538752
 21
273.7181612174973
 31
0.0
  0
LINE
  5
102B1
330
18
100
AcDbEntity
  8
DRAW2
100
AcDbLine
 10
1484.69701853875
 20
232.4026247892315
 30
0.0
 11
1484.697018538752
 21
273.5586133379575
 31
0.0
  0
LINE
  5
102B4
330
18
100
AcDbEntity
  8
DRAW2
100
AcDbLine
 10
1504.122018538752
 20
221.4026247892317
 30
0.0
 11
1506.522018538752
 21
221.4026247892317
 31
0.0
  0
LINE
  5
102B5
330
18
100
AcDbEntity
  8
DRAW2
100
AcDbLine
 10
1501.322018538752
 20
228.4026247892318
 30
0.0
 11
1508.072018538752
 21
228.4026247892313
 31
0.0
  0
LINE
  5
102B6
330
18
100
AcDbEntity
  8
DRAW2
100
AcDbLine
 10
1502.722018538752
 20
227.9026247892317
 30
0.0
 11
1507.922018538752
 21
227.9026247892317
 31
0.0
  0
LINE
  5
102B7
330
18
100
AcDbEntity
  8
DRAW2
100
AcDbLine
 10
1502.722018538752
 20
223.9026247892318
 30
0.0
 11
1507.922018538752
 21
223.9026247892318
 31
0.0
  0
LINE
  5
102B8
330
18
100
AcDbEntity
  8
DRAW2
100
AcDbLine
 10
1501.322018538752
 20
232.4026247892313
 30
0.0
 11
1516.322018538752
 21
232.4026247892318
 31
0.0
  0
LINE
  5
102B9
330
18
100
AcDbEntity
  8
DRAW2
100
AcDbLine
 10
1504.122018538752
 20
211.4026247892318
 30
0.0
 11
1506.522018538752
 21
211.4026247892321
 31
0.0
  0
LINE
  5
102BA
330
18
100
AcDbEntity
  8
DRAW2
100
AcDbLine
 10
1488.072018538752
 20
225.4026247892321
 30
0.0
 11
1489.572018538752
 21
225.4026247892321
 31
0.0
  0
LINE
  5
102BB
330
18
100
AcDbEntity
  8
DRAW2
100
AcDbLine
 10
1481.322018538752
 20
232.4026247892313
 30
0.0
 11
1496.322018538752
 21
232.4026247892318
 31
0.0
  0
LINE
  5
102BC
330
18
100
AcDbEntity
  8
DRAW2
100
AcDbLine
 10
1487.922018538752
 20
223.9026247892318
 30
0.0
 11
1486.522018538752
 21
221.4026247892317
 31
0.0
  0
LINE
  5
102BD
330
18
100
AcDbEntity
  8
DRAW2
100
AcDbLine
 10
1482.722018538752
 20
223.9026247892318
 30
0.0
 11
1484.122018538752
 21
221.4026247892317
 31
0.0
  0
LINE
  5
102BE
330
18
100
AcDbEntity
  8
DRAW2
100
AcDbLine
 10
1484.122018538752
 20
221.4026247892317
 30
0.0
 11
1486.522018538752
 21
221.4026247892317
 31
0.0
  0
LINE
  5
102BF
330
18
100
AcDbEntity
  8
DRAW2
100
AcDbLine
 10
1488.072018538752
 20
225.4026247892321
 30
0.0
 11
1488.072018538752
 21
228.4026247892313
 31
0.0
  0
LINE
  5
102C0
330
18
100
AcDbEntity
  8
DRAW2
100
AcDbLine
 10
1487.922018538752
 20
223.9026247892318
 30
0.0
 11
1487.922018538752
 21
227.9026247892317
 31
0.0
  0
LINE
  5
102C1
330
18
100
AcDbEntity
  8
DRAW2
100
AcDbLine
 10
1482.722018538752
 20
223.9026247892318
 30
0.0
 11
1482.722018538751
 21
227.9026247892317
 31
0.0
  0
LINE
  5
102C2
330
18
100
AcDbEntity
  8
DRAW2
100
AcDbLine
 10
1486.572018538752
 20
227.9026247892321
 30
0.0
 11
1486.572018538752
 21
228.4026247892313
 31
0.0
  0
LINE
  5
102C3
330
18
100
AcDbEntity
  8
DRAW2
100
AcDbLine
 10
1484.072018538752
 20
227.9026247892321
 30
0.0
 11
1484.072018538752
 21
228.4026247892313
 31
0.0
  0
LINE
  5
102C4
330
18
100
AcDbEntity
  8
DRAW2
100
AcDbLine
 10
1481.322018538752
 20
228.4026247892318
 30
0.0
 11
1488.072018538752
 21
228.4026247892313
 31
0.0
  0
LINE
  5
102C5
330
18
100
AcDbEntity
  8
DRAW2
100
AcDbLine
 10
1482.722018538751
 20
227.9026247892317
 30
0.0
 11
1487.922018538752
 21
227.9026247892317
 31
0.0
  0
LINE
  5
102C6
330
18
100
AcDbEntity
  8
DRAW2
100
AcDbLine
 10
1482.722018538752
 20
223.9026247892318
 30
0.0
 11
1487.922018538752
 21
223.9026247892318
 31
0.0
  0
LINE
  5
102C7
330
18
100
AcDbEntity
  8
DRAW2
100
AcDbLine
 10
1481.322018538752
 20
228.4026247892318
 30
0.0
 11
1481.322018538752
 21
232.4026247892313
 31
0.0
  0
LINE
  5
102C8
330
18
100
AcDbEntity
  8
DRAW2
100
AcDbLine
 10
1484.122018538752
 20
211.4026247892318
 30
0.0
 11
1486.522018538752
 21
211.4026247892321
 31
0.0
  0
LINE
  5
102C9
330
18
100
AcDbEntity
  8
DRAW2
100
AcDbLine
 10
1486.522018538752
 20
211.4026247892318
 30
0.0
 11
1486.522018538752
 21
221.4026247892321
 31
0.0
  0
LINE
  5
102CA
330
18
100
AcDbEntity
  8
DRAW2
100
AcDbLine
 10
1484.122018538752
 20
211.4026247892318
 30
0.0
 11
1484.122018538752
 21
221.4026247892321
 31
0.0
  0
LINE
  5
102CB
330
18
100
AcDbEntity
  8
DRAW2
100
AcDbLine
 10
1502.722018538752
 20
223.9026247892318
 30
0.0
 11
1504.122018538752
 21
221.4026247892317
 31
0.0
  0
LINE
  5
102CC
330
18
100
AcDbEntity
  8
DRAW2
100
AcDbLine
 10
1504.697018538752
 20
233.4026247892309
 30
0.0
 11
1504.697018538752
 21
232.4026247892313
 31
0.0
  0
LINE
  5
102CD
330
18
100
AcDbEntity
  8
DRAW2
100
AcDbLine
 10
1496.322018538752
 20
228.4026247892318
 30
0.0
 11
1496.322018538752
 21
232.4026247892313
 31
0.0
  0
LINE
  5
102CE
330
18
100
AcDbEntity
  8
DRAW2
100
AcDbLine
 10
1501.322018538752
 20
228.4026247892318
 30
0.0
 11
1501.322018538752
 21
232.4026247892313
 31
0.0
  0
LINE
  5
102CF
330
18
100
AcDbEntity
  8
DRAW2
100
AcDbLine
 10
1494.922018538752
 20
223.9026247892318
 30
0.0
 11
1494.922018538752
 21
227.9026247892317
 31
0.0
  0
LINE
  5
102D0
330
18
100
AcDbEntity
  8
DRAW2
100
AcDbLine
 10
1502.722018538752
 20
223.9026247892318
 30
0.0
 11
1502.722018538752
 21
227.9026247892317
 31
0.0
  0
LINE
  5
102D1
330
18
100
AcDbEntity
  8
DRAW2
100
AcDbLine
 10
1504.072018538752
 20
227.9026247892321
 30
0.0
 11
1504.072018538752
 21
228.4026247892313
 31
0.0
  0
LINE
  5
102D2
330
18
100
AcDbEntity
  8
DRAW2
100
AcDbLine
 10
1489.722018538752
 20
223.9026247892318
 30
0.0
 11
1491.122018538752
 21
221.4026247892317
 31
0.0
  0
LINE
  5
102D3
330
18
100
AcDbEntity
  8
DRAW2
100
AcDbLine
 10
1491.122018538752
 20
221.4026247892317
 30
0.0
 11
1493.522018538752
 21
221.4026247892317
 31
0.0
  0
LINE
  5
102D4
330
18
100
AcDbEntity
  8
DRAW2
100
AcDbLine
 10
1489.572018538752
 20
225.4026247892321
 30
0.0
 11
1489.572018538752
 21
228.4026247892313
 31
0.0
  0
LINE
  5
102D5
330
18
100
AcDbEntity
  8
DRAW2
100
AcDbLine
 10
1489.722018538752
 20
223.9026247892318
 30
0.0
 11
1489.722018538752
 21
227.9026247892317
 31
0.0
  0
LINE
  5
102D6
330
18
100
AcDbEntity
  8
DRAW2
100
AcDbLine
 10
1493.572018538752
 20
227.9026247892321
 30
0.0
 11
1493.572018538752
 21
228.4026247892313
 31
0.0
  0
LINE
  5
102D7
330
18
100
AcDbEntity
  8
DRAW2
100
AcDbLine
 10
1491.072018538752
 20
227.9026247892321
 30
0.0
 11
1491.072018538752
 21
228.4026247892313
 31
0.0
  0
LINE
  5
102D8
330
18
100
AcDbEntity
  8
DRAW2
100
AcDbLine
 10
1494.922018538752
 20
223.9026247892318
 30
0.0
 11
1493.522018538752
 21
221.4026247892317
 31
0.0
  0
LINE
  5
102D9
330
18
100
AcDbEntity
  8
DRAW2
100
AcDbLine
 10
1489.722018538752
 20
227.9026247892317
 30
0.0
 11
1494.922018538752
 21
227.9026247892317
 31
0.0
  0
LINE
  5
102DA
330
18
100
AcDbEntity
  8
DRAW2
100
AcDbLine
 10
1489.722018538752
 20
223.9026247892318
 30
0.0
 11
1494.922018538752
 21
223.9026247892318
 31
0.0
  0
LINE
  5
102DB
330
18
100
AcDbEntity
  8
DRAW2
100
AcDbLine
 10
1496.322018538752
 20
228.4026247892318
 30
0.0
 11
1489.572018538752
 21
228.4026247892313
 31
0.0
  0
LINE
  5
102DC
330
18
100
AcDbEntity
  8
DRAW2
100
AcDbLine
 10
1491.122018538752
 20
211.4026247892318
 30
0.0
 11
1493.522018538752
 21
211.4026247892321
 31
0.0
  0
LINE
  5
102DD
330
18
100
AcDbEntity
  8
DRAW2
100
AcDbLine
 10
1491.122018538752
 20
211.4026247892318
 30
0.0
 11
1491.122018538752
 21
221.4026247892321
 31
0.0
  0
LINE
  5
102DE
330
18
100
AcDbEntity
  8
DRAW2
100
AcDbLine
 10
1493.522018538752
 20
211.4026247892318
 30
0.0
 11
1493.522018538752
 21
221.4026247892321
 31
0.0
  0
LINE
  5
102DF
330
18
100
AcDbEntity
  8
DRAW2
100
AcDbLine
 10
1504.122018538752
 20
211.4026247892318
 30
0.0
 11
1504.122018538752
 21
221.4026247892321
 31
0.0
  0
LINE
  5
102E2
330
18
100
AcDbEntity
  8
DRAW2
100
AcDbLine
 10
1514.922018538752
 20
223.9026247892318
 30
0.0
 11
1513.522018538752
 21
221.4026247892317
 31
0.0
  0
LINE
  5
102E3
330
18
100
AcDbEntity
  8
DRAW2
100
AcDbLine
 10
1511.122018538752
 20
221.4026247892317
 30
0.0
 11
1513.522018538752
 21
221.4026247892317
 31
0.0
  0
LINE
  5
102E4
330
18
100
AcDbEntity
  8
DRAW2
100
AcDbLine
 10
1512.822018538752
 20
233.4026247892313
 30
0.0
 11
1512.822018538752
 21
232.4026247892313
 31
0.0
  0
LINE
  5
102E5
330
18
100
AcDbEntity
  8
DRAW2
100
AcDbLine
 10
1511.822018538752
 20
233.4026247892313
 30
0.0
 11
1511.822018538752
 21
232.4026247892313
 31
0.0
  0
LINE
  5
102E6
330
18
100
AcDbEntity
  8
DRAW2
100
AcDbLine
 10
1514.922018538752
 20
223.9026247892318
 30
0.0
 11
1514.922018538752
 21
227.9026247892317
 31
0.0
  0
LINE
  5
102E7
330
18
100
AcDbEntity
  8
DRAW2
100
AcDbLine
 10
1513.572018538752
 20
227.9026247892321
 30
0.0
 11
1513.572018538752
 21
228.4026247892313
 31
0.0
  0
LINE
  5
102E8
330
18
100
AcDbEntity
  8
DRAW2
100
AcDbLine
 10
1516.322018538752
 20
228.4026247892318
 30
0.0
 11
1516.322018538752
 21
232.4026247892313
 31
0.0
  0
LINE
  5
102E9
330
18
100
AcDbEntity
  8
DRAW2
100
AcDbLine
 10
1507.922018538752
 20
223.9026247892318
 30
0.0
 11
1506.522018538752
 21
221.4026247892317
 31
0.0
  0
LINE
  5
102EA
330
18
100
AcDbEntity
  8
DRAW2
100
AcDbLine
 10
1505.94701853875
 20
233.4026247892309
 30
0.0
 11
1505.94701853875
 21
232.4026247892313
 31
0.0
  0
LINE
  5
102EB
330
18
100
AcDbEntity
  8
DRAW2
100
AcDbLine
 10
1509.722018538752
 20
223.9026247892318
 30
0.0
 11
1509.72201853875
 21
227.9026247892317
 31
0.0
  0
LINE
  5
102EC
330
18
100
AcDbEntity
  8
DRAW2
100
AcDbLine
 10
1507.922018538752
 20
223.9026247892318
 30
0.0
 11
1507.922018538752
 21
227.9026247892317
 31
0.0
  0
LINE
  5
102ED
330
18
100
AcDbEntity
  8
DRAW2
100
AcDbLine
 10
1508.072018538752
 20
225.4026247892321
 30
0.0
 11
1508.072018538752
 21
228.4026247892313
 31
0.0
  0
LINE
  5
102EE
330
18
100
AcDbEntity
  8
DRAW2
100
AcDbLine
 10
1509.572018538752
 20
225.4026247892321
 30
0.0
 11
1509.572018538752
 21
228.4026247892313
 31
0.0
  0
LINE
  5
102EF
330
18
100
AcDbEntity
  8
DRAW2
100
AcDbLine
 10
1506.572018538752
 20
227.9026247892321
 30
0.0
 11
1506.572018538752
 21
228.4026247892313
 31
0.0
  0
LINE
  5
102F0
330
18
100
AcDbEntity
  8
DRAW2
100
AcDbLine
 10
1511.072018538752
 20
227.9026247892321
 30
0.0
 11
1511.072018538752
 21
228.4026247892313
 31
0.0
  0
LINE
  5
102F1
330
18
100
AcDbEntity
  8
DRAW2
100
AcDbLine
 10
1508.072018538752
 20
225.4026247892321
 30
0.0
 11
1509.572018538752
 21
225.4026247892321
 31
0.0
  0
LINE
  5
102F2
330
18
100
AcDbEntity
  8
DRAW2
100
AcDbLine
 10
1509.722018538752
 20
223.9026247892318
 30
0.0
 11
1511.122018538752
 21
221.4026247892317
 31
0.0
  0
LINE
  5
102F3
330
18
100
AcDbEntity
  8
DRAW2
100
AcDbLine
 10
1516.322018538752
 20
228.4026247892318
 30
0.0
 11
1509.572018538752
 21
228.4026247892313
 31
0.0
  0
LINE
  5
102F4
330
18
100
AcDbEntity
  8
DRAW2
100
AcDbLine
 10
1509.72201853875
 20
227.9026247892317
 30
0.0
 11
1514.922018538752
 21
227.9026247892317
 31
0.0
  0
LINE
  5
102F5
330
18
100
AcDbEntity
  8
DRAW2
100
AcDbLine
 10
1509.722018538752
 20
223.9026247892318
 30
0.0
 11
1514.922018538752
 21
223.9026247892318
 31
0.0
  0
LINE
  5
102F6
330
18
100
AcDbEntity
  8
DRAW2
100
AcDbLine
 10
1511.122018538752
 20
211.4026247892318
 30
0.0
 11
1513.522018538752
 21
211.4026247892321
 31
0.0
  0
LINE
  5
102F7
330
18
100
AcDbEntity
  8
DRAW2
100
AcDbLine
 10
1513.522018538752
 20
211.4026247892318
 30
0.0
 11
1513.522018538752
 21
221.4026247892321
 31
0.0
  0
LINE
  5
102F8
330
18
100
AcDbEntity
  8
DRAW2
100
AcDbLine
 10
1511.122018538752
 20
211.4026247892318
 30
0.0
 11
1511.122018538752
 21
221.4026247892321
 31
0.0
  0
LINE
  5
102F9
330
18
100
AcDbEntity
  8
DRAW2
100
AcDbLine
 10
1506.522018538752
 20
211.4026247892318
 30
0.0
 11
1506.522018538752
 21
221.4026247892321
 31
0.0
  0
LINE
  5
102FB
330
18
100
AcDbEntity
  8
DRAW2
100
AcDbLine
 10
1662.115507048292
 20
69.33012598704975
 30
0.0
 11
1662.115507048292
 21
54.33012598704976
 31
0.0
  0
LINE
  5
102FC
330
18
100
AcDbEntity
  8
DRAW2
100
AcDbLine
 10
1637.115507048292
 20
191.8301259870496
 30
0.0
 11
1637.115507048292
 21
183.3301259870497
 31
0.0
  0
LINE
  5
102FF
330
18
100
AcDbEntity
  8
DRAW2
100
AcDbLine
 10
1637.115507048292
 20
170.8301259870497
 30
0.0
 11
1657.115507048292
 21
170.8301259870497
 31
0.0
  0
LINE
  5
10300
330
18
100
AcDbEntity
  8
DRAW2
100
AcDbLine
 10
1639.615507048292
 20
183.3301259870497
 30
0.0
 11
1639.615507048292
 21
179.3301259870496
 31
0.0
  0
LINE
  5
10301
330
18
100
AcDbEntity
  8
DRAW2
100
AcDbLine
 10
1637.115507048292
 20
179.3301259870496
 30
0.0
 11
1639.615507048292
 21
179.3301259870496
 31
0.0
  0
LINE
  5
10302
330
18
100
AcDbEntity
  8
DRAW2
100
AcDbLine
 10
1637.115507048292
 20
183.3301259870497
 30
0.0
 11
1639.615507048292
 21
183.3301259870497
 31
0.0
  0
LINE
  5
10303
330
18
100
AcDbEntity
  8
DRAW2
100
AcDbLine
 10
1637.115507048292
 20
179.3301259870496
 30
0.0
 11
1637.115507048292
 21
170.8301259870497
 31
0.0
  0
LINE
  5
10304
330
18
100
AcDbEntity
  8
DRAW2
100
AcDbLine
 10
1657.115507048292
 20
174.5328759870496
 30
0.0
 11
1657.843947777907
 21
174.5556397598502
 31
0.0
  0
LINE
  5
10305
330
18
100
AcDbEntity
  8
DRAW2
100
AcDbLine
 10
1657.115507048292
 20
177.2677071560178
 30
0.0
 11
1657.115507048292
 21
170.8301259870497
 31
0.0
  0
LINE
  5
10306
330
18
100
AcDbEntity
  8
DRAW2
100
AcDbLine
 10
1637.115507048292
 20
191.8301259870496
 30
0.0
 11
1654.679627048292
 21
191.8301259870496
 31
0.0
  0
LINE
  5
10307
330
18
100
AcDbEntity
  8
DRAW2
100
AcDbLine
 10
1656.319471346796
 20
221.9969966712551
 30
0.0
 11
1655.709167048291
 21
222.3493559870496
 31
0.0
  0
LINE
  5
10308
330
18
100
AcDbEntity
  8
DRAW2
100
AcDbLine
 10
1654.977077048291
 20
225.0814759870496
 30
0.0
 11
1655.709137048291
 21
222.3493559870496
 31
0.0
  0
LINE
  5
10309
330
18
100
AcDbEntity
  8
DRAW2
100
AcDbLine
 10
1659.128212321994
 20
232.2714094039472
 30
0.0
 11
1654.977107048291
 21
225.0814759870496
 31
0.0
  0
LINE
  5
1030A
330
18
100
AcDbEntity
  8
DRAW2
100
AcDbLine
 10
1534.822018538754
 20
301.1280512423161
 30
0.0
 11
1542.194323473341
 21
301.1280512423161
 31
0.0
  0
LINE
  5
1030B
330
18
100
AcDbEntity
  8
DRAW2
100
AcDbLine
 10
1533.822018538756
 20
303.1280512423146
 30
0.0
 11
1542.194323473342
 21
303.1280512423146
 31
0.0
  0
LINE
  5
1030C
330
18
100
AcDbEntity
  8
DRAW2
100
AcDbLine
 10
1510.947018538752
 20
304.3780512423146
 30
0.0
 11
1542.194323473342
 21
304.3780512423151
 31
0.0
  0
LINE
  5
1030E
330
18
100
AcDbEntity
  8
DRAW2
100
AcDbLine
 10
1526.822018538756
 20
302.1280512423146
 30
0.0
 11
1542.194323473342
 21
302.1280512423156
 31
0.0
  0
ARC
  5
10310
330
18
100
AcDbEntity
  8
DRAW2
100
AcDbCircle
 10
1517.822018538753
 20
276.1280512423156
 30
0.0
 40
26.0
100
AcDbArc
 50
90.0
 51
180.0
  0
ARC
  5
10311
330
18
100
AcDbEntity
  8
DRAW2
100
AcDbCircle
 10
1517.822018538753
 20
276.1280512423156
 30
0.0
 40
25.0
100
AcDbArc
 50
90.0
 51
180.0
  0
ARC
  5
10313
330
18
100
AcDbEntity
  8
DRAW2
100
AcDbCircle
 10
1510.947018538753
 20
278.1280512423151
 30
0.0
 40
26.25
100
AcDbArc
 50
90.0
 51
180.0
  0
ARC
  5
10314
330
18
100
AcDbEntity
  8
DRAW2
100
AcDbCircle
 10
1510.947018538753
 20
278.1280512423151
 30
0.0
 40
25.0
100
AcDbArc
 50
90.0
 51
180.0
  0
ARC
  5
10316
330
18
100
AcDbEntity
  8
DRAW2
100
AcDbCircle
 10
1533.822018538756
 20
278.1280512423146
 30
0.0
 40
26.25
100
AcDbArc
 50
90.0
 51
180.0
  0
ARC
  5
10317
330
18
100
AcDbEntity
  8
DRAW2
100
AcDbCircle
 10
1533.822018538756
 20
278.1280512423146
 30
0.0
 40
25.0
100
AcDbArc
 50
90.0
 51
180.0
  0
ARC
  5
10319
330
18
100
AcDbEntity
  8
DRAW2
100
AcDbCircle
 10
1534.822018538754
 20
276.128051242316
 30
0.0
 40
26.0
100
AcDbArc
 50
90.0
 51
180.0
  0
ARC
  5
1031A
330
18
100
AcDbEntity
  8
DRAW2
100
AcDbCircle
 10
1534.822018538754
 20
276.128051242316
 30
0.0
 40
25.0
100
AcDbArc
 50
90.0
 51
180.0
  0
LINE
  5
1031C
330
18
100
AcDbEntity
  8
DRAW2
100
AcDbLine
 10
1485.947018538753
 20
275.7181612174986
 30
0.0
 11
1485.947018538753
 21
278.1280512423151
 31
0.0
  0
LINE
  5
1031D
330
18
100
AcDbEntity
  8
DRAW2
100
AcDbLine
 10
1484.697018538753
 20
275.558613337958
 30
0.0
 11
1484.697018538753
 21
278.1280512423151
 31
0.0
  0
LINE
  5
1031F
330
18
100
AcDbEntity
  8
DRAW2
100
AcDbLine
 10
1492.822018538752
 20
275.7181612174984
 30
0.0
 11
1492.822018538752
 21
276.1280512423151
 31
0.0
  0
LINE
  5
10321
330
18
100
AcDbEntity
  8
DRAW2
100
AcDbLine
 10
1491.822018538752
 20
275.5586133379576
 30
0.0
 11
1491.822018538752
 21
276.1280512423151
 31
0.0
  0
LINE
  5
10322
330
18
100
AcDbEntity
  8
DRAW2
100
AcDbLine
 10
1510.822018538761
 20
270.4613468984673
 30
0.0
 11
1510.822018538751
 21
250.4613468984673
 31
0.0
  0
LINE
  5
10323
330
18
100
AcDbEntity
  8
DRAW2
100
AcDbLine
 10
1506.822018538758
 20
270.4613468984673
 30
0.0
 11
1506.822018538743
 21
250.4613468984673
 31
0.0
  0
TEXT
  5
10325
330
18
100
AcDbEntity
  8
DRAW4
100
AcDbText
 10
1510.422018538753
 20
259.5350046868498
 30
0.0
 40
3.2
  1
A
 50
90.0
 51
10.0
  7
DIMFONT
 72
     1
 11
1508.822018538754
 21
260.9064332582784
 31
0.0
100
AcDbText
 73
     2
  0
ARC
  5
10326
330
18
100
AcDbEntity
  8
DRAW2
100
AcDbCircle
 10
1483.822018538752
 20
250.1129322370323
 30
0.0
 40
25.0
100
AcDbArc
 50
340.4757284897117
 51
0.0
  0
ARC
  5
10327
330
18
100
AcDbEntity
  8
DRAW2
100
AcDbCircle
 10
1533.822018538752
 20
250.4613468984629
 30
0.0
 40
25.0
100
AcDbArc
 50
180.0
 51
199.9484435888015
  0
ARC
  5
10328
330
18
100
AcDbEntity
  8
DRAW2
100
AcDbCircle
 10
1483.822018538752
 20
250.1129322370323
 30
0.0
 40
23.75
100
AcDbArc
 50
340.4757284897117
 51
0.0
  0
LINE
  5
1032B
330
18
100
AcDbEntity
  8
DRAW2
100
AcDbLine
 10
1506.822018538743
 20
250.4613468984673
 30
0.0
 11
1510.822018538751
 21
250.4613468984673
 31
0.0
  0
LINE
  5
1032C
330
18
100
AcDbEntity
  8
DRAW2
100
AcDbLine
 10
1507.572018538747
 20
250.1129322370323
 30
0.0
 11
1507.572018538747
 21
250.4613468984673
 31
0.0
  0
LINE
  5
1032D
330
18
100
AcDbEntity
  8
DRAW2
100
AcDbLine
 10
1508.822018538752
 20
250.1129322370323
 30
0.0
 11
1508.822018538752
 21
250.4613468984673
 31
0.0
  0
ARC
  5
1032F
330
18
100
AcDbEntity
  8
DRAW2
100
AcDbCircle
 10
1533.822018538752
 20
250.4613468984629
 30
0.0
 40
24.0
100
AcDbArc
 50
180.0
 51
199.9484435888015
  0
LINE
  5
10330
330
18
100
AcDbEntity
  8
DRAW2
100
AcDbLine
 10
1509.82201853876
 20
275.7181612174984
 30
0.0
 11
1509.82201853876
 21
276.1280512423156
 31
0.0
  0
LINE
  5
10331
330
18
100
AcDbEntity
  8
DRAW2
100
AcDbLine
 10
1508.82201853876
 20
275.464858479318
 30
0.0
 11
1508.82201853876
 21
278.1280512423143
 31
0.0
  0
LINE
  5
10332
330
18
100
AcDbEntity
  8
DRAW2
100
AcDbLine
 10
1507.572018538761
 20
275.3990654584169
 30
0.0
 11
1507.572018538761
 21
278.1280512423146
 31
0.0
  0
LINE
  5
10335
330
18
100
AcDbEntity
  8
DRAW2
100
AcDbLine
 10
1506.822018538758
 20
270.4613468984673
 30
0.0
 11
1510.822018538761
 21
270.4613468984673
 31
0.0
  0
LINE
  5
10336
330
18
100
AcDbEntity
  8
DRAW2
100
AcDbLine
 10
1509.82201853876
 20
270.4613468984673
 30
0.0
 11
1509.82201853876
 21
273.7181612174983
 31
0.0
  0
LINE
  5
10338
330
18
100
AcDbEntity
  8
DRAW2
100
AcDbLine
 10
1508.82201853876
 20
270.4613468984673
 30
0.0
 11
1508.82201853876
 21
273.464858479318
 31
0.0
  0
LINE
  5
10339
330
18
100
AcDbEntity
  8
DRAW2
100
AcDbLine
 10
1507.57201853876
 20
270.4613468984673
 30
0.0
 11
1507.57201853876
 21
273.3990654584163
 31
0.0
  0
LINE
  5
1033B
330
18
100
AcDbEntity
  8
DRAW2
100
AcDbLine
 10
1517.82201853875
 20
302.1280512423142
 30
0.0
 11
1523.188933379688
 21
302.1280512423146
 31
0.0
  0
LINE
  5
1033C
330
18
100
AcDbEntity
  8
DRAW2
100
AcDbLine
 10
1510.947018538752
 20
303.1280512423146
 30
0.0
 11
1525.818113241966
 21
303.1280512423151
 31
0.0
  0
LINE
  5
1033D
330
18
100
AcDbEntity
  8
DRAW2
100
AcDbLine
 10
1517.822018538752
 20
301.1280512423151
 30
0.0
 11
1521.170437609876
 21
301.1280512423151
 31
0.0
  0
LINE
  5
1033E
330
18
100
AcDbEntity
  8
DRAW2
100
AcDbLine
 10
1524.024059567623
 20
301.1280512423151
 30
0.0
 11
1527.680590110207
 21
301.1280512423151
 31
0.0
  0
LINE
  5
1033F
330
18
100
AcDbEntity
  8
DRAW2
100
AcDbLine
 10
1595.603560441018
 20
300.9299657785545
 30
0.0
 11
1650.65983928834
 21
269.1432083654758
 31
0.0
  0
LINE
  5
10340
330
18
100
AcDbEntity
  8
DRAW2
100
AcDbLine
 10
1592.60356044102
 20
295.7338133558493
 30
0.0
 11
1647.65983928834
 21
263.9470559427698
 31
0.0
  0
LINE
  5
10342
330
18
100
AcDbEntity
  8
DRAW2
100
AcDbLine
 10
1542.194323473341
 20
299.7530512423145
 30
0.0
 11
1572.980539698563
 21
299.7530512423151
 31
0.0
  0
LINE
  5
10343
330
18
100
AcDbEntity
  8
DRAW2
100
AcDbLine
 10
1542.194323473342
 20
305.7530512423145
 30
0.0
 11
1571.980228969515
 21
305.7530512423151
 31
0.0
  0
LINE
  5
10344
330
18
100
AcDbEntity
  8
DRAW2
100
AcDbLine
 10
1542.194323473342
 20
305.7530512423149
 30
0.0
 11
1542.194323473341
 21
299.753051242315
 31
0.0
  0
ARC
  5
10346
330
18
100
AcDbEntity
  8
DRAW2
100
AcDbCircle
 10
1577.603560441018
 20
269.7530512423156
 30
0.0
 40
30.0
100
AcDbArc
 50
59.99999999999997
 51
90.0
  0
ARC
  5
10347
330
18
100
AcDbEntity
  8
DRAW2
100
AcDbCircle
 10
1577.603560441018
 20
269.7530512423156
 30
0.0
 40
36.0
100
AcDbArc
 50
59.99999999999997
 51
90.0
  0
LINE
  5
10348
330
18
100
AcDbEntity
  8
DRAW2
100
AcDbLine
 10
1574.980539698563
 20
299.7530512423157
 30
0.0
 11
1577.603560441018
 21
299.7530512423157
 31
0.0
  0
LINE
  5
10349
330
18
100
AcDbEntity
  8
DRAW2
100
AcDbLine
 10
1573.980228969515
 20
305.7530512423156
 30
0.0
 11
1577.603560441018
 21
305.7530512423156
 31
0.0
  0
LINE
  5
1034A
330
18
100
AcDbEntity
  8
DRAW2
100
AcDbLine
 10
1669.116895468437
 20
260.7964230882075
 30
0.0
 11
1668.275207863613
 21
259.3385773925543
 31
0.0
  0
LINE
  5
1034B
330
18
100
AcDbEntity
  8
DRAW2
100
AcDbLine
 10
1668.275207863613
 20
259.3385773925543
 30
0.0
 11
1664.087120841383
 21
261.7565705622289
 31
0.0
  0
LINE
  5
1034C
330
18
100
AcDbEntity
  8
DRAW2
100
AcDbLine
 10
1650.923940903478
 20
261.6006457812558
 30
0.0
 11
1655.687080624292
 21
258.8506457812556
 31
0.0
  0
LINE
  5
1034D
330
18
100
AcDbEntity
  8
DRAW2
100
AcDbLine
 10
1646.717851990231
 20
261.3154860823623
 30
0.0
 11
1648.882915499692
 21
260.0654860823623
 31
0.0
  0
LINE
  5
10350
330
18
100
AcDbEntity
  8
DRAW2
100
AcDbLine
 10
1661.128106028077
 20
266.2747782258833
 30
0.0
 11
1655.378106028075
 21
256.3154860823623
 31
0.0
  0
LINE
  5
10351
330
18
100
AcDbEntity
  8
DRAW2
100
AcDbLine
 10
1664.424775745968
 20
263.5054196730449
 30
0.0
 11
1659.424775745968
 21
254.8451656352005
 31
0.0
  0
LINE
  5
10352
330
18
100
AcDbEntity
  8
DRAW2
100
AcDbLine
 10
1662.106858752738
 20
264.843669673045
 30
0.0
 11
1657.106858752738
 21
256.1834156352005
 31
0.0
  0
LINE
  5
10353
330
18
100
AcDbEntity
  8
DRAW2
100
AcDbLine
 10
1662.354474938399
 20
263.9195534873848
 30
0.0
 11
1658.030974938399
 21
256.4310318208608
 31
0.0
  0
LINE
  5
10354
330
18
100
AcDbEntity
  8
DRAW2
100
AcDbLine
 10
1654.632915499693
 20
270.0247782258833
 30
0.0
 11
1648.882915499692
 21
260.0654860823623
 31
0.0
  0
LINE
  5
10355
330
18
100
AcDbEntity
  8
DRAW2
100
AcDbLine
 10
1648.882915702587
 20
258.7586038993883
 30
0.0
 11
1653.832047944321
 21
255.9012210673683
 31
0.0
  0
LINE
  5
10356
330
18
100
AcDbEntity
  8
DRAW2
100
AcDbLine
 10
1648.882915499692
 20
260.0654860823623
 30
0.0
 11
1648.882915702587
 21
258.7586038993882
 31
0.0
  0
LINE
  5
10357
330
18
100
AcDbEntity
  8
DRAW2
100
AcDbLine
 10
1668.275207863613
 20
258.1745637319036
 30
0.0
 11
1668.275207863613
 21
259.3385773925543
 31
0.0
  0
LINE
  5
10358
330
18
100
AcDbEntity
  8
DRAW3
100
AcDbLine
 10
1665.435641027194
 20
251.3841040692931
 30
0.0
 11
1666.664135226243
 21
251.384104069293
 31
0.0
  0
LINE
  5
10359
330
18
100
AcDbEntity
  8
DRAW2
100
AcDbLine
 10
1665.435641027194
 20
251.3841040692931
 30
0.0
 11
1664.624960868913
 21
251.8521504769041
 31
0.0
  0
LINE
  5
1035A
330
18
100
AcDbEntity
  8
DRAW2
100
AcDbLine
 10
1665.966648473735
 20
254.1760215763419
 30
0.0
 11
1664.958583073259
 21
253.5940147460165
 31
0.0
  0
LINE
  5
1035B
330
18
100
AcDbEntity
  8
DRAW2
100
AcDbLine
 10
1664.116895468437
 20
252.1361690503633
 30
0.0
 11
1664.958583073259
 21
253.5940147460164
 31
0.0
  0
LINE
  5
1035C
330
18
100
AcDbEntity
  8
DRAW3
100
AcDbLine
 10
1658.030974938399
 20
256.4310318208608
 30
0.0
 11
1656.091356028077
 21
257.5508713208608
 31
0.0
  0
LINE
  5
1035D
330
18
100
AcDbEntity
  8
DRAW2
100
AcDbLine
 10
1659.824775745968
 20
255.5379859582281
 30
0.0
 11
1658.092724938398
 21
256.537985958228
 31
0.0
  0
LINE
  5
1035E
330
18
100
AcDbEntity
  8
DRAW2
100
AcDbLine
 10
1660.770496051028
 20
257.1760215763418
 30
0.0
 11
1660.770496051028
 21
256.012007915691
 31
0.0
  0
LINE
  5
1035F
330
18
100
AcDbEntity
  8
DRAW2
100
AcDbLine
 10
1659.928808446206
 20
254.5541622200377
 30
0.0
 11
1660.770496051028
 21
256.0120079156911
 31
0.0
  0
LINE
  5
10360
330
18
100
AcDbEntity
  8
DRAW2
100
AcDbLine
 10
1655.378106028075
 20
256.3154860823623
 30
0.0
 11
1653.832047944321
 21
255.9012210673683
 31
0.0
  0
LINE
  5
10361
330
18
100
AcDbEntity
  8
DRAW2
100
AcDbLine
 10
1655.687080624292
 20
258.8506457812556
 30
0.0
 11
1655.687080528077
 21
256.8506456146053
 31
0.0
  0
LINE
  5
10362
330
18
100
AcDbEntity
  8
DRAW2
100
AcDbLine
 10
1658.030974938399
 20
256.4310318208608
 30
0.0
 11
1657.106858752738
 21
256.1834156352005
 31
0.0
  0
LINE
  5
10363
330
18
100
AcDbEntity
  8
DRAW2
100
AcDbLine
 10
1657.106858752738
 20
256.1834156352005
 30
0.0
 11
1655.753106028075
 21
256.9650051352005
 31
0.0
  0
LINE
  5
10364
330
18
100
AcDbEntity
  8
DRAW2
100
AcDbLine
 10
1659.424775745968
 20
254.8451656352005
 30
0.0
 11
1664.620928168674
 21
251.8451656352004
 31
0.0
  0
LINE
  5
10365
330
18
100
AcDbEntity
  8
DRAW2
100
AcDbLine
 10
1664.958583073259
 20
253.5940147460164
 30
0.0
 11
1660.770496051028
 21
256.0120079156911
 31
0.0
  0
LINE
  5
10366
330
18
100
AcDbEntity
  8
DRAW2
100
AcDbLine
 10
1655.687080624292
 20
258.8506457812556
 30
0.0
 11
1657.419131528076
 21
259.8506459479059
 31
0.0
  0
LINE
  5
10367
330
18
100
AcDbEntity
  8
DRAW3
100
AcDbLine
 10
1666.664135226243
 20
251.384104069293
 30
0.0
 11
1667.574204750692
 21
250.8959227205443
 31
0.0
  0
LINE
  5
10368
330
18
100
AcDbEntity
  8
DRAW2
100
AcDbLine
 10
1667.281801623118
 20
250.3937828405176
 30
0.0
 11
1665.435641027194
 21
251.3841040692931
 31
0.0
  0
LINE
  5
10369
330
18
100
AcDbEntity
  8
DRAW2
100
AcDbLine
 10
1652.467851990232
 20
271.2747782258833
 30
0.0
 11
1654.632915499693
 21
270.0247782258833
 31
0.0
  0
LINE
  5
1036A
330
18
100
AcDbEntity
  8
DRAW2
100
AcDbLine
 10
1654.323940903478
 20
267.4896185269898
 30
0.0
 11
1652.591889999693
 21
266.4896183603397
 31
0.0
  0
LINE
  5
1036C
330
18
100
AcDbEntity
  8
DRAW2
100
AcDbLine
 10
1652.467851990232
 20
271.2747782258833
 30
0.0
 11
1651.89050178834
 21
271.2747783424459
 31
0.0
  0
LINE
  5
1036D
330
18
100
AcDbEntity
  8
DRAW2
100
AcDbLine
 10
1650.923940903478
 20
261.6006457812558
 30
0.0
 11
1649.191889999693
 21
260.6006456146054
 31
0.0
  0
LINE
  5
1036E
330
18
100
AcDbEntity
  8
DRAW2
100
AcDbLine
 10
1646.717851990231
 20
261.3154860823623
 30
0.0
 11
1646.42917678834
 21
261.8154859657999
 31
0.0
  0
LINE
  5
1036F
330
18
100
AcDbEntity
  8
DRAW2
100
AcDbLine
 10
1652.467851990232
 20
271.2747782258833
 30
0.0
 11
1646.717851990231
 21
261.3154860823623
 31
0.0
  0
LINE
  5
10370
330
18
100
AcDbEntity
  8
DRAW2
100
AcDbLine
 10
1651.89050178834
 20
271.2747783424459
 30
0.0
 11
1646.42917678834
 21
261.8154859657999
 31
0.0
  0
LINE
  5
10371
330
18
100
AcDbEntity
  8
DRAW2
100
AcDbLine
 10
1650.923940903478
 20
261.6006457812558
 30
0.0
 11
1650.923940999692
 21
263.600645947906
 31
0.0
  0
LINE
  5
10372
330
18
100
AcDbEntity
  8
DRAW3
100
AcDbLine
 10
1662.354474938399
 20
263.9195534873848
 30
0.0
 11
1660.414856028077
 21
265.0393929873848
 31
0.0
  0
LINE
  5
10373
330
18
100
AcDbEntity
  8
DRAW2
100
AcDbLine
 10
1655.764708771349
 20
270.6782191416588
 30
0.0
 11
1660.713841013083
 21
267.8208363096388
 31
0.0
  0
LINE
  5
10374
330
18
100
AcDbEntity
  8
DRAW2
100
AcDbLine
 10
1654.323940903478
 20
267.4896185269898
 30
0.0
 11
1659.087080624291
 21
264.7396185269899
 31
0.0
  0
LINE
  5
10375
330
18
100
AcDbEntity
  8
DRAW2
100
AcDbLine
 10
1664.024775745968
 20
262.8125993500174
 30
0.0
 11
1662.292724938399
 21
263.8125993500174
 31
0.0
  0
LINE
  5
10376
330
18
100
AcDbEntity
  8
DRAW2
100
AcDbLine
 10
1664.928808446206
 20
263.2144162578821
 30
0.0
 11
1664.087120841383
 21
261.7565705622289
 31
0.0
  0
LINE
  5
10377
330
18
100
AcDbEntity
  8
DRAW2
100
AcDbLine
 10
1663.079055440908
 20
261.1745637319036
 30
0.0
 11
1664.087120841383
 21
261.7565705622289
 31
0.0
  0
LINE
  5
10378
330
18
100
AcDbEntity
  8
DRAW2
100
AcDbLine
 10
1661.128106028077
 20
266.2747782258833
 30
0.0
 11
1660.713841013083
 21
267.8208363096391
 31
0.0
  0
LINE
  5
10379
330
18
100
AcDbEntity
  8
DRAW2
100
AcDbLine
 10
1659.087080624291
 20
264.7396185269899
 30
0.0
 11
1660.819131528077
 21
265.7396186936401
 31
0.0
  0
LINE
  5
1037A
330
18
100
AcDbEntity
  8
DRAW2
100
AcDbLine
 10
1659.087080624291
 20
264.7396185269899
 30
0.0
 11
1659.087080528077
 21
262.7396183603396
 31
0.0
  0
LINE
  5
1037B
330
18
100
AcDbEntity
  8
DRAW2
100
AcDbLine
 10
1662.354474938399
 20
263.9195534873848
 30
0.0
 11
1662.106858752738
 21
264.843669673045
 31
0.0
  0
LINE
  5
1037C
330
18
100
AcDbEntity
  8
DRAW2
100
AcDbLine
 10
1662.106858752738
 20
264.843669673045
 30
0.0
 11
1660.753106028077
 21
265.6252591730448
 31
0.0
  0
LINE
  5
1037D
330
18
100
AcDbEntity
  8
DRAW2
100
AcDbLine
 10
1654.323940903478
 20
267.4896185269898
 30
0.0
 11
1654.323940999693
 21
269.4896186936401
 31
0.0
  0
LINE
  5
1037E
330
18
100
AcDbEntity
  8
DRAW2
100
AcDbLine
 10
1654.632915499693
 20
270.0247782258833
 30
0.0
 11
1655.764708771349
 21
270.6782191416588
 31
0.0
  0
ARC
  5
1037F
330
18
100
AcDbEntity
  8
DRAW2
100
AcDbCircle
 10
1752.115507048292
 20
201.3301259870496
 30
0.0
 40
98.0
100
AcDbArc
 50
296.7655005767576
 51
63.2344994232422
  0
LINE
  5
10380
330
18
100
AcDbEntity
  8
DRAW2
100
AcDbLine
 10
1786.814210194086
 20
54.33012598704976
 30
0.0
 11
1842.115507048291
 21
54.33012598704976
 31
0.0
  0
LINE
  5
10381
330
18
100
AcDbEntity
  8
DRAW2
100
AcDbLine
 10
1797.491712266445
 20
69.33012598704975
 30
0.0
 11
1842.115507048291
 21
69.33012598704975
 31
0.0
  0
CIRCLE
  5
10383
330
18
100
AcDbEntity
  8
DRAW2
100
AcDbCircle
 10
1752.115507048292
 20
90.33012598704976
 30
0.0
 40
50.0
  0
ARC
  5
10384
330
18
100
AcDbEntity
  8
DRAW2
100
AcDbCircle
 10
1792.115499252507
 20
132.0480891833969
 30
0.0
 40
10.50116005149908
100
AcDbArc
 50
264.6518798596133
 51
187.7568438781603
  0
ARC
  5
10385
330
18
100
AcDbEntity
  8
DRAW2
100
AcDbCircle
 10
1792.115499252507
 20
132.0480891833969
 30
0.0
 40
8.500850000000012
100
AcDbArc
 50
247.9583710577078
 51
204.4503526800637
  0
LINE
  5
10387
330
18
100
AcDbEntity
  8
HIDDEN
100
AcDbLine
 10
1752.115448266078
 20
143.33026748952
 30
0.0
 11
1806.360748266079
 21
143.33026748952
 31
0.0
  0
LINE
  5
10388
330
18
100
AcDbEntity
  8
HIDDEN
100
AcDbLine
 10
1752.115448266078
 20
151.3302374895198
 30
0.0
 11
1806.360748266079
 21
151.3302374895198
 31
0.0
  0
ARC
  5
1038A
330
18
100
AcDbEntity
  8
DRAW2
100
AcDbCircle
 10
1712.115499252508
 20
132.0480981851932
 30
0.0
 40
10.50116005149908
100
AcDbArc
 50
352.2430309876398
 51
275.3482552359193
  0
ARC
  5
1038B
330
18
100
AcDbEntity
  8
DRAW2
100
AcDbCircle
 10
1712.115499252508
 20
132.0480981851932
 30
0.0
 40
8.500850000000012
100
AcDbArc
 50
335.549380849003
 51
292.0419053745566
  0
LINE
  5
1038F
330
18
100
AcDbEntity
  8
DRAW2
100
AcDbLine
 10
1677.909606844838
 20
132.5907136335793
 30
0.0
 11
1671.534841074223
 21
140.1878636426561
 31
0.0
  0
LINE
  5
10396
330
18
100
AcDbEntity
  8
DRAW2
100
AcDbLine
 10
1692.615507048292
 20
89.33012598704976
 30
0.0
 11
1692.615507048292
 21
69.33012598704975
 31
0.0
  0
LINE
  5
10397
330
18
100
AcDbEntity
  8
DRAW2
100
AcDbLine
 10
1671.615507048292
 20
89.33012598704976
 30
0.0
 11
1671.615507048292
 21
69.33012598704975
 31
0.0
  0
CIRCLE
  5
10398
330
18
100
AcDbEntity
  8
DRAW2
100
AcDbCircle
 10
1725.599002753796
 20
63.81362169255432
 30
0.0
 40
7.5
  0
LINE
  5
10399
330
18
100
AcDbEntity
  8
DRAW2
100
AcDbLine
 10
1733.114587048292
 20
37.32988598704969
 30
0.0
 11
1717.114587048292
 21
37.32988598704969
 31
0.0
  0
LINE
  5
1039A
330
18
100
AcDbEntity
  8
DRAW2
100
AcDbLine
 10
1717.115747048292
 20
54.32896598704974
 30
0.0
 11
1717.115747048292
 21
37.32896598704974
 31
0.0
  0
LINE
  5
1039B
330
18
100
AcDbEntity
  8
DRAW2
100
AcDbLine
 10
1733.115877048291
 20
44.08064966717017
 30
0.0
 11
1733.115877048291
 21
37.32921598704979
 31
0.0
  0
LINE
  5
1039C
330
18
100
AcDbEntity
  8
DRAW2
100
AcDbLine
 10
1729.311841530234
 20
70.33012598704977
 30
0.0
 11
1721.886163977358
 21
70.33012598704978
 31
0.0
  0
LINE
  5
1039D
330
18
100
AcDbEntity
  8
DRAW2
100
AcDbLine
 10
1671.615507048292
 20
89.33012598704976
 30
0.0
 11
1692.615507048292
 21
89.33012598704976
 31
0.0
  0
LINE
  5
1039E
330
18
100
AcDbEntity
  8
DRAW2
100
AcDbLine
 10
1673.615477048292
 20
91.33012598704977
 30
0.0
 11
1690.615507048291
 21
91.33012598704977
 31
0.0
  0
LINE
  5
1039F
330
18
100
AcDbEntity
  8
DRAW2
100
AcDbLine
 10
1671.615507048292
 20
89.33000598704984
 30
0.0
 11
1673.615447048292
 21
91.33000598704985
 31
0.0
  0
LINE
  5
103A0
330
18
100
AcDbEntity
  8
DRAW2
100
AcDbLine
 10
1690.615567048292
 20
91.3300659870497
 30
0.0
 11
1692.615507048292
 21
89.33016598704965
 31
0.0
  0
LINE
  5
103A1
330
18
100
AcDbEntity
  8
DRAW3
100
AcDbLine
 10
1677.53614724361
 20
133.0357854550312
 30
0.0
 11
1679.888767079417
 21
135.1385250109855
 31
0.0
  0
LINE
  5
103A2
330
18
100
AcDbEntity
  8
DRAW2
100
AcDbLine
 10
1677.909606844838
 20
132.5907136335793
 30
0.0
 11
1680.288986317279
 21
134.7173705881695
 31
0.0
  0
CIRCLE
  5
103A3
330
18
100
AcDbEntity
  8
DRAW2
100
AcDbCircle
 10
1725.599002753796
 20
116.8466302815452
 30
0.0
 40
7.5
  0
LINE
  5
103A4
330
18
100
AcDbEntity
  8
DRAW2
100
AcDbLine
 10
1730.680162106622
 20
111.3301259870496
 30
0.0
 11
1720.51784340097
 21
111.3301259870496
 31
0.0
  0
LINE
  5
103A5
330
18
100
AcDbEntity
  8
DRAW2
100
AcDbLine
 10
1720.51784340097
 20
111.3301259870496
 30
0.0
 11
1730.680162106622
 21
111.3301259870496
 31
0.0
  0
LINE
  5
103A6
330
18
100
AcDbEntity
  8
DRAW2
100
AcDbLine
 10
1719.611416515769
 20
112.3301259870497
 30
0.0
 11
1731.586588991821
 21
112.3301259870497
 31
0.0
  0
CIRCLE
  5
103A7
330
18
100
AcDbEntity
  8
DRAW2
100
AcDbCircle
 10
1752.115507048292
 20
90.33012598704976
 30
0.0
 40
11.0
  0
CIRCLE
  5
103A8
330
18
100
AcDbEntity
  8
DRAW2
100
AcDbCircle
 10
1752.115507048292
 20
90.33012598704976
 30
0.0
 40
12.0
  0
CIRCLE
  5
103A9
330
18
100
AcDbEntity
  8
DRAW2
100
AcDbCircle
 10
1778.632011342787
 20
63.81362169255424
 30
0.0
 40
7.5
  0
LINE
  5
103AA
330
18
100
AcDbEntity
  8
DRAW2
100
AcDbLine
 10
1771.116417048292
 20
37.32988598704969
 30
0.0
 11
1787.116417048292
 21
37.32988598704969
 31
0.0
  0
LINE
  5
103AB
330
18
100
AcDbEntity
  8
DRAW2
100
AcDbLine
 10
1771.11513704829
 20
44.08064966717023
 30
0.0
 11
1771.11513704829
 21
37.32921598704979
 31
0.0
  0
LINE
  5
103AC
330
18
100
AcDbEntity
  8
DRAW2
100
AcDbLine
 10
1787.115257048291
 20
54.32896598704974
 30
0.0
 11
1787.115257048291
 21
37.32896598704974
 31
0.0
  0
LINE
  5
103AD
330
18
100
AcDbEntity
  8
DRAW2
100
AcDbLine
 10
1774.919172566349
 20
70.33012598704977
 30
0.0
 11
1782.344850119224
 21
70.33012598704977
 31
0.0
  0
CIRCLE
  5
103AE
330
18
100
AcDbEntity
  8
DRAW2
100
AcDbCircle
 10
1778.632011342787
 20
116.8466302815452
 30
0.0
 40
7.5
  0
LINE
  5
103AF
330
18
100
AcDbEntity
  8
DRAW2
100
AcDbLine
 10
1772.644425104761
 20
112.3301259870497
 30
0.0
 11
1784.619597580814
 21
112.3301259870497
 31
0.0
  0
LINE
  5
103B0
330
18
100
AcDbEntity
  8
DRAW2
100
AcDbLine
 10
1773.55085198996
 20
111.3301259870496
 30
0.0
 11
1783.713170695613
 21
111.3301259870496
 31
0.0
  0
LINE
  5
103B1
330
18
100
AcDbEntity
  8
DRAW2
100
AcDbLine
 10
1783.713170695613
 20
111.3301259870496
 30
0.0
 11
1773.55085198996
 21
111.3301259870496
 31
0.0
  0
LINE
  5
103BE
330
18
100
AcDbEntity
  8
DRAW3
100
AcDbLine
 10
1671.90830067545
 20
139.742791821204
 30
0.0
 11
1674.38762303995
 21
141.6945331833989
 31
0.0
  0
LINE
  5
103C1
330
18
100
AcDbEntity
  8
DRAW2
100
AcDbLine
 10
1671.534841074223
 20
140.1878636426561
 30
0.0
 11
1674.042364240468
 21
142.1618048897876
 31
0.0
  0
CIRCLE
  5
103C8
330
18
100
AcDbEntity
  8
HIDDEN
100
AcDbCircle
 10
1752.115448266079
 20
147.3302374895198
 30
0.0
 40
4.0
  0
LINE
  5
103C9
330
18
100
AcDbEntity
  8
DRAW2
100
AcDbLine
 10
1811.615507048291
 20
89.33012598704976
 30
0.0
 11
1811.615507048291
 21
69.33012598704975
 31
0.0
  0
LINE
  5
103CA
330
18
100
AcDbEntity
  8
DRAW2
100
AcDbLine
 10
1832.615507048291
 20
89.33012598704976
 30
0.0
 11
1832.615507048291
 21
69.33012598704975
 31
0.0
  0
LINE
  5
103CB
330
18
100
AcDbEntity
  8
DRAW2
100
AcDbLine
 10
1842.115507048291
 20
69.33012598704975
 30
0.0
 11
1842.115507048291
 21
54.33012598704976
 31
0.0
  0
LINE
  5
103CC
330
18
100
AcDbEntity
  8
DRAW2
100
AcDbLine
 10
1832.615507048291
 20
89.33012598704976
 30
0.0
 11
1811.615507048291
 21
89.33012598704976
 31
0.0
  0
LINE
  5
103CD
330
18
100
AcDbEntity
  8
DRAW2
100
AcDbLine
 10
1830.615537048291
 20
91.33012598704977
 30
0.0
 11
1813.615507048291
 21
91.33012598704977
 31
0.0
  0
LINE
  5
103CE
330
18
100
AcDbEntity
  8
DRAW2
100
AcDbLine
 10
1813.615447048292
 20
91.33003598704977
 30
0.0
 11
1811.615537048292
 21
89.33012598704976
 31
0.0
  0
LINE
  5
103CF
330
18
100
AcDbEntity
  8
DRAW2
100
AcDbLine
 10
1832.615487048292
 20
89.32994598704977
 30
0.0
 11
1830.615507048292
 21
91.32994598704977
 31
0.0
  0
LINE
  5
103D0
330
18
100
AcDbEntity
  8
HIDDEN
100
AcDbLine
 10
1822.115448266077
 20
158.3302374895198
 30
0.0
 11
1840.177993772208
 21
158.3302374895191
 31
0.0
  0
LINE
  5
103D1
330
18
100
AcDbEntity
  8
HIDDEN
100
AcDbLine
 10
1812.115448266079
 20
153.5595174895198
 30
0.0
 11
1822.115448266077
 21
153.9087274895198
 31
0.0
  0
LINE
  5
103D2
330
18
100
AcDbEntity
  8
HIDDEN
100
AcDbLine
 10
1822.115448266077
 20
140.7517474895199
 30
0.0
 11
1812.115448266079
 21
141.1009274895199
 31
0.0
  0
LINE
  5
103D3
330
18
100
AcDbEntity
  8
HIDDEN
100
AcDbLine
 10
1822.115448266077
 20
141.607763232571
 30
0.0
 11
1812.115448266079
 21
141.9569774895198
 31
0.0
  0
LINE
  5
103D4
330
18
100
AcDbEntity
  8
HIDDEN
100
AcDbLine
 10
1812.115478266079
 20
152.7035274895198
 30
0.0
 11
1822.115448266077
 21
153.0527418484355
 31
0.0
  0
LINE
  5
103D5
330
18
100
AcDbEntity
  8
HIDDEN
100
AcDbLine
 10
1807.115448266079
 20
141.9569474895196
 30
0.0
 11
1807.115448266079
 21
152.7035274895198
 31
0.0
  0
LINE
  5
103D6
330
18
100
AcDbEntity
  8
HIDDEN
100
AcDbLine
 10
1806.322568266079
 20
143.3302374895196
 30
0.0
 11
1806.322568266079
 21
151.3302374895198
 31
0.0
  0
ARC
  5
103D7
330
18
100
AcDbEntity
  8
HIDDEN
100
AcDbCircle
 10
1806.638222691026
 20
147.3302374895198
 30
0.0
 40
6.5
100
AcDbArc
 50
327.4210296071946
 51
32.57897039280527
  0
LINE
  5
103D8
330
18
100
AcDbEntity
  8
HIDDEN
100
AcDbLine
 10
1807.115448266079
 20
141.9569474895196
 30
0.0
 11
1806.322568266079
 21
143.3302374895196
 31
0.0
  0
LINE
  5
103D9
330
18
100
AcDbEntity
  8
HIDDEN
100
AcDbLine
 10
1807.115448266079
 20
141.9569474895196
 30
0.0
 11
1812.115448266079
 21
141.9569474895198
 31
0.0
  0
LINE
  5
103DA
330
18
100
AcDbEntity
  8
HIDDEN
100
AcDbLine
 10
1807.115448266079
 20
152.7035274895198
 30
0.0
 11
1812.115448266079
 21
152.7035274895198
 31
0.0
  0
LINE
  5
103DB
330
18
100
AcDbEntity
  8
HIDDEN
100
AcDbLine
 10
1806.322568266079
 20
151.3302374895198
 30
0.0
 11
1807.115448266079
 21
152.7035274895198
 31
0.0
  0
LINE
  5
103DC
330
18
100
AcDbEntity
  8
HIDDEN
100
AcDbLine
 10
1812.115448266079
 20
141.1009274895199
 30
0.0
 11
1810.632808266079
 21
141.9569474895198
 31
0.0
  0
LINE
  5
103DD
330
18
100
AcDbEntity
  8
HIDDEN
100
AcDbLine
 10
1813.157383952665
 20
141.0645451792156
 30
0.0
 11
1812.115448266078
 21
142.1395499895196
 31
0.0
  0
LINE
  5
103DE
330
18
100
AcDbEntity
  8
HIDDEN
100
AcDbLine
 10
1812.115448266079
 20
141.1009574895198
 30
0.0
 11
1812.115448266079
 21
153.5595474895196
 31
0.0
  0
LINE
  5
103DF
330
18
100
AcDbEntity
  8
HIDDEN
100
AcDbLine
 10
1810.632808266078
 20
152.7035274895198
 30
0.0
 11
1812.115448266079
 21
153.5595174895198
 31
0.0
  0
LINE
  5
103E0
330
18
100
AcDbEntity
  8
HIDDEN
100
AcDbLine
 10
1813.157356992664
 20
153.5959019841608
 30
0.0
 11
1812.115448266079
 21
152.5209249895195
 31
0.0
  0
ARC
  5
103E1
330
18
100
AcDbEntity
  8
HIDDEN
100
AcDbCircle
 10
1833.417137358882
 20
147.3302374895195
 30
0.0
 40
15.5
100
AcDbArc
 50
162.7360436771849
 51
197.2639563228146
  0
LINE
  5
103E2
330
18
100
AcDbEntity
  8
HIDDEN
100
AcDbLine
 10
1822.115448266078
 20
151.9302374895197
 30
0.0
 11
1818.615448266078
 21
151.9302374895197
 31
0.0
  0
LINE
  5
103E3
330
18
100
AcDbEntity
  8
HIDDEN
100
AcDbLine
 10
1822.115448266077
 20
142.7302374895196
 30
0.0
 11
1818.615448266077
 21
142.7302374895196
 31
0.0
  0
LINE
  5
103E4
330
18
100
AcDbEntity
  8
HIDDEN
100
AcDbLine
 10
1822.115448266077
 20
136.3302374895198
 30
0.0
 11
1825.45718393122
 21
136.3302374895197
 31
0.0
  0
LINE
  5
103E5
330
18
100
AcDbEntity
  8
HIDDEN
100
AcDbLine
 10
1822.115448266077
 20
136.3302374895198
 30
0.0
 11
1822.115448266077
 21
158.3302374895198
 31
0.0
  0
CIRCLE
  5
103E6
330
18
100
AcDbEntity
  8
DRAW2
100
AcDbCircle
 10
1832.115507048291
 20
201.3301169852532
 30
0.0
 40
10.50116005149908
  0
CIRCLE
  5
103E7
330
18
100
AcDbEntity
  8
DRAW2
100
AcDbCircle
 10
1832.115507048291
 20
201.3301169852532
 30
0.0
 40
8.500850000000012
  0
CIRCLE
  5
103EA
330
18
100
AcDbEntity
  8
DRAW2
100
AcDbCircle
 10
1752.115507048292
 20
312.3301259870496
 30
0.0
 40
50.0
  0
ARC
  5
103EB
330
18
100
AcDbEntity
  8
DRAW2
100
AcDbCircle
 10
1792.115514844076
 20
270.6121537889062
 30
0.0
 40
10.50116005149908
100
AcDbArc
 50
172.2430309876392
 51
95.34825523591932
  0
ARC
  5
103EC
330
18
100
AcDbEntity
  8
DRAW2
100
AcDbCircle
 10
1792.115514844076
 20
270.6121537889062
 30
0.0
 40
8.500850000000012
100
AcDbArc
 50
155.5493808490018
 51
112.041905374557
  0
CIRCLE
  5
103EF
330
18
100
AcDbEntity
  8
DRAW2
100
AcDbCircle
 10
1725.599002753796
 20
338.8466302815452
 30
0.0
 40
7.5
  0
CIRCLE
  5
103F0
330
18
100
AcDbEntity
  8
DRAW2
100
AcDbCircle
 10
1778.632011342787
 20
338.8466302815452
 30
0.0
 40
7.5
  0
CIRCLE
  5
103F6
330
18
100
AcDbEntity
  8
DRAW2
100
AcDbCircle
 10
1725.599002753796
 20
285.8136216925543
 30
0.0
 40
7.5
  0
ARC
  5
103F7
330
18
100
AcDbEntity
  8
DRAW2
100
AcDbCircle
 10
1712.115514844076
 20
270.6121627907025
 30
0.0
 40
10.50116005149908
100
AcDbArc
 50
84.65187985961334
 51
7.756843878160148
  0
LINE
  5
103F9
330
18
100
AcDbEntity
  8
DRAW2
100
AcDbLine
 10
1670.427575626719
 20
260.0303884237301
 30
0.0
 11
1669.616895468437
 21
260.4984348313411
 31
0.0
  0
LINE
  5
103FB
330
18
100
AcDbEntity
  8
DRAW3
100
AcDbLine
 10
1670.427575626719
 20
260.0303884237301
 30
0.0
 11
1671.041822726243
 21
258.966481238952
 31
0.0
  0
LINE
  5
103FC
330
18
100
AcDbEntity
  8
DRAW3
100
AcDbLine
 10
1671.041822726243
 20
258.966481238952
 30
0.0
 11
1672.296451597375
 21
258.1888842123534
 31
0.0
  0
LINE
  5
103FD
330
18
100
AcDbEntity
  8
DRAW2
100
AcDbLine
 10
1672.635544334629
 20
258.6619280434546
 30
0.0
 11
1670.427575626719
 21
260.0303884237301
 31
0.0
  0
LINE
  5
103FF
330
18
100
AcDbEntity
  8
DRAW2
100
AcDbLine
 10
1682.977107048292
 20
273.5787859870496
 30
0.0
 11
1685.709197048292
 21
274.3107859870496
 31
0.0
  0
ARC
  5
10400
330
18
100
AcDbEntity
  8
DRAW2
100
AcDbCircle
 10
1683.209137048292
 20
269.9807659870496
 30
0.0
 40
1.0
100
AcDbArc
 50
91.98903907316507
 51
149.9999999999986
  0
LINE
  5
10401
330
18
100
AcDbEntity
  8
DRAW2
100
AcDbLine
 10
1683.65681699048
 20
271.4543568603248
 30
0.0
 11
1682.227047048292
 21
272.2798359870495
 31
0.0
  0
LINE
  5
10402
330
18
100
AcDbEntity
  8
DRAW2
100
AcDbLine
 10
1682.343107048292
 20
270.4807659870496
 30
0.0
 11
1681.874321802586
 21
269.6688111900763
 31
0.0
  0
LINE
  5
10403
330
18
100
AcDbEntity
  8
DRAW2
100
AcDbLine
 10
1682.977077048292
 20
273.5788459870494
 30
0.0
 11
1678.825939655943
 21
266.3888633821335
 31
0.0
  0
LINE
  5
10404
330
18
100
AcDbEntity
  8
DRAW2
100
AcDbLine
 10
1686.319496232754
 20
273.958529251624
 30
0.0
 11
1685.709167048291
 21
274.3109059870495
 31
0.0
  0
ARC
  5
10406
330
18
100
AcDbEntity
  8
DRAW2
100
AcDbCircle
 10
1712.115514844076
 20
270.6121627907025
 30
0.0
 40
8.500850000000012
100
AcDbArc
 50
67.95837105770782
 51
24.45035268006338
  0
LINE
  5
10407
330
18
100
AcDbEntity
  8
DRAW2
100
AcDbLine
 10
1730.680162106622
 20
291.3301259870496
 30
0.0
 11
1720.51784340097
 21
291.3301259870496
 31
0.0
  0
LINE
  5
10408
330
18
100
AcDbEntity
  8
DRAW2
100
AcDbLine
 10
1719.611416515769
 20
290.3301259870496
 30
0.0
 11
1731.586588991821
 21
290.3301259870496
 31
0.0
  0
LINE
  5
10409
330
18
100
AcDbEntity
  8
DRAW2
100
AcDbLine
 10
1730.680162106622
 20
333.3301259870496
 30
0.0
 11
1720.51784340097
 21
333.3301259870496
 31
0.0
  0
CIRCLE
  5
1040A
330
18
100
AcDbEntity
  8
DRAW2
100
AcDbCircle
 10
1778.632011342787
 20
285.8136216925542
 30
0.0
 40
7.5
  0
CIRCLE
  5
1040C
330
18
100
AcDbEntity
  8
DRAW2
100
AcDbCircle
 10
1752.115507048292
 20
312.3301259870496
 30
0.0
 40
12.0
  0
CIRCLE
  5
1040D
330
18
100
AcDbEntity
  8
DRAW2
100
AcDbCircle
 10
1752.115507048292
 20
312.3301259870496
 30
0.0
 40
11.0
  0
LINE
  5
1040E
330
18
100
AcDbEntity
  8
DRAW2
100
AcDbLine
 10
1772.644425104761
 20
290.3301259870496
 30
0.0
 11
1784.619597580814
 21
290.3301259870496
 31
0.0
  0
LINE
  5
1040F
330
18
100
AcDbEntity
  8
DRAW2
100
AcDbLine
 10
1773.55085198996
 20
291.3301259870496
 30
0.0
 11
1783.713170695613
 21
291.3301259870496
 31
0.0
  0
LINE
  5
10410
330
18
100
AcDbEntity
  8
DRAW2
100
AcDbLine
 10
1783.713170695613
 20
333.3301259870496
 30
0.0
 11
1773.55085198996
 21
333.3301259870496
 31
0.0
  0
LINE
  5
10411
330
18
100
AcDbEntity
  8
DRAW2
100
AcDbLine
 10
1733.115877048291
 20
358.5796023069292
 30
0.0
 11
1733.115877048291
 21
360.3310459870497
 31
0.0
  0
LINE
  5
10412
330
18
100
AcDbEntity
  8
DRAW2
100
AcDbLine
 10
1717.115747048292
 20
347.3298859870496
 30
0.0
 11
1717.115747048292
 21
360.3312859870498
 31
0.0
  0
LINE
  5
10413
330
18
100
AcDbEntity
  8
DRAW2
100
AcDbLine
 10
1719.586659927681
 20
343.3301259870496
 30
0.0
 11
1731.61134557991
 21
343.3301259870496
 31
0.0
  0
LINE
  5
10414
330
18
100
AcDbEntity
  8
DRAW2
100
AcDbLine
 10
1733.114587048292
 20
360.3303759870497
 30
0.0
 11
1717.114587048292
 21
360.3303759870497
 31
0.0
  0
LINE
  5
10415
330
18
100
AcDbEntity
  8
DRAW2
100
AcDbLine
 10
1717.115627048292
 20
360.3301959870496
 30
0.0
 11
1719.115627048292
 21
362.3301959870496
 31
0.0
  0
LINE
  5
10416
330
18
100
AcDbEntity
  8
DRAW2
100
AcDbLine
 10
1731.114647048292
 20
362.3303759870497
 30
0.0
 11
1719.114647048292
 21
362.3303759870497
 31
0.0
  0
LINE
  5
10417
330
18
100
AcDbEntity
  8
DRAW2
100
AcDbLine
 10
1733.115167048291
 20
360.3314159870496
 30
0.0
 11
1731.115167048291
 21
362.3314159870496
 31
0.0
  0
LINE
  5
10418
330
18
100
AcDbEntity
  8
DRAW2
100
AcDbLine
 10
1771.11513704829
 20
358.5796023069292
 30
0.0
 11
1771.11513704829
 21
360.3310459870497
 31
0.0
  0
LINE
  5
10419
330
18
100
AcDbEntity
  8
DRAW2
100
AcDbLine
 10
1787.115257048291
 20
347.3298759870497
 30
0.0
 11
1787.115257048291
 21
360.3312859870498
 31
0.0
  0
LINE
  5
1041A
330
18
100
AcDbEntity
  8
DRAW2
100
AcDbLine
 10
1772.619668516673
 20
343.3301259870498
 30
0.0
 11
1784.644354168901
 21
343.3301259870498
 31
0.0
  0
LINE
  5
1041B
330
18
100
AcDbEntity
  8
DRAW2
100
AcDbLine
 10
1773.116357048292
 20
362.3303759870497
 30
0.0
 11
1785.116357048292
 21
362.3303759870497
 31
0.0
  0
LINE
  5
1041C
330
18
100
AcDbEntity
  8
DRAW2
100
AcDbLine
 10
1771.116417048292
 20
360.3303759870497
 30
0.0
 11
1787.116417048292
 21
360.3303759870497
 31
0.0
  0
LINE
  5
1041D
330
18
100
AcDbEntity
  8
DRAW2
100
AcDbLine
 10
1771.115747048292
 20
360.3314759870497
 30
0.0
 11
1773.115777048292
 21
362.3315359870496
 31
0.0
  0
LINE
  5
1041E
330
18
100
AcDbEntity
  8
DRAW2
100
AcDbLine
 10
1787.115277048291
 20
360.3300659870496
 30
0.0
 11
1785.115297048292
 21
362.3300659870496
 31
0.0
  0
LINE
  5
1095E
330
18
100
AcDbEntity
  8
DRAW2
100
AcDbLine
 10
1056.96550194829
 20
112.330126487049
 30
0.0
 11
1056.96550194829
 21
290.3301264870489
 31
0.0
  0
LINE
  5
1095F
330
18
100
AcDbEntity
  8
DRAW2
100
AcDbLine
 10
1046.96550194829
 20
112.330126487049
 30
0.0
 11
1046.96550194829
 21
290.3301264870489
 31
0.0
  0
LINE
  5
10960
330
18
100
AcDbEntity
  8
DRAW2
100
AcDbLine
 10
1046.96550194829
 20
112.330126487049
 30
0.0
 11
1056.96550194829
 21
112.330126487049
 31
0.0
  0
LINE
  5
10962
330
18
100
AcDbEntity
  8
DRAW2
100
AcDbLine
 10
1046.96550194829
 20
290.3301264870489
 30
0.0
 11
1056.96550194829
 21
290.3301264870489
 31
0.0
  0
LINE
  5
10963
330
18
100
AcDbEntity
  8
DRAW2
100
AcDbLine
 10
1056.964831948291
 20
333.3303759870491
 30
0.0
 11
1056.964831948291
 21
343.3303759870491
 31
0.0
  0
LINE
  5
10964
330
18
100
AcDbEntity
  8
DRAW2
100
AcDbLine
 10
1056.964831948291
 20
333.3303759870491
 30
0.0
 11
1119.964831948291
 21
333.3303759870491
 31
0.0
  0
LINE
  5
10965
330
18
100
AcDbEntity
  8
DRAW2
100
AcDbLine
 10
1056.964831948291
 20
343.3303759870491
 30
0.0
 11
1119.964831948291
 21
343.3303759870491
 31
0.0
  0
LINE
  5
10966
330
18
100
AcDbEntity
  8
DRAW2
100
AcDbLine
 10
1119.964831948291
 20
343.3303759870491
 30
0.0
 11
1119.964831948291
 21
333.3303759870491
 31
0.0
  0
LINE
  5
10967
330
18
100
AcDbEntity
  8
DRAW2
100
AcDbLine
 10
1268.965501948291
 20
112.330126487049
 30
0.0
 11
1268.965501948291
 21
290.3301264870489
 31
0.0
  0
LINE
  5
10968
330
18
100
AcDbEntity
  8
DRAW2
100
AcDbLine
 10
1278.965501948291
 20
112.330126487049
 30
0.0
 11
1278.965501948291
 21
290.3301264870489
 31
0.0
  0
LINE
  5
10969
330
18
100
AcDbEntity
  8
DRAW2
100
AcDbLine
 10
1278.965501948291
 20
112.330126487049
 30
0.0
 11
1268.965501948291
 21
112.330126487049
 31
0.0
  0
LINE
  5
1096B
330
18
100
AcDbEntity
  8
DRAW2
100
AcDbLine
 10
1278.965501948291
 20
290.3301264870489
 30
0.0
 11
1268.965501948291
 21
290.3301264870489
 31
0.0
  0
LINE
  5
1096C
330
18
100
AcDbEntity
  8
DRAW2
100
AcDbLine
 10
1268.965201948291
 20
343.3303759870491
 30
0.0
 11
1268.965201948291
 21
333.3303759870491
 31
0.0
  0
LINE
  5
1096D
330
18
100
AcDbEntity
  8
DRAW2
100
AcDbLine
 10
1205.965201948291
 20
343.3303759870491
 30
0.0
 11
1268.965201948291
 21
343.3303759870491
 31
0.0
  0
LINE
  5
1096E
330
18
100
AcDbEntity
  8
DRAW2
100
AcDbLine
 10
1268.965201948291
 20
333.3303759870491
 30
0.0
 11
1205.965201948291
 21
333.3303759870491
 31
0.0
  0
LINE
  5
10970
330
18
100
AcDbEntity
  8
DRAW2
100
AcDbLine
 10
1205.965201948291
 20
333.3303759870491
 30
0.0
 11
1205.965201948291
 21
343.3303759870491
 31
0.0
  0
VIEWPORT
  5
37
330
15
100
AcDbEntity
 67
     1
  8
0
100
AcDbViewport
 10
296.9950122070311
 20
209.9950000476836
 30
0.0
 40
632.1056339387388
 41
423.1939163498098
 68
     1
 69
     1
 12
296.9950122070311
 22
209.9950000476836
 13
0.0
 23
0.0
 14
10.0
 24
10.0
 15
10.0
 25
10.0
 16
0.0
 26
0.0
 36
1.0
 17
0.0
 27
0.0
 37
0.0
 42
50.0
 43
0.0
 44
0.0
 45
423.1939163498098
 50
0.0
 51
0.0
 72
   100
 90
    32768
  1

281
     0
 71
     1
 74
     0
110
0.0
120
0.0
130
0.0
111
1.0
121
0.0
131
0.0
112
0.0
122
1.0
132
0.0
 79
     0
146
0.0
  0
ENDSEC
  0
SECTION
  2
OBJECTS
  0
DICTIONARY
  5
C
330
0
100
AcDbDictionary
281
     1
  3
ACAD_GROUP
350
D
  3
ACAD_IMAGE_VARS
350
7A9
  3
ACAD_LAYOUT
350
1AD
  3
ACAD_MLINESTYLE
350
1B
  3
ACAD_PLOTSETTINGS
350
1AE
  3
ACAD_PLOTSTYLENAME
350
1AB
  0
DICTIONARY
  5
D
102
{ACAD_REACTORS
330
C
102
}
330
C
100
AcDbDictionary
281
     1
  3
*A1
350
1485
  3
*A2
350
EAC7
  3
*A3
350
EADE
  0
RASTERVARIABLES
  5
7A9
102
{ACAD_REACTORS
330
C
102
}
330
C
100
AcDbRasterVariables
 90
        0
 70
     1
 71
     1
 72
     0
  0
DICTIONARY
  5
1AD
102
{ACAD_REACTORS
330
C
102
}
330
C
100
AcDbDictionary
281
     1
  3
Model
350
1AF
  3
ﾚｲｱｳﾄ1
350
1B0
  0
DICTIONARY
  5
1B
102
{ACAD_REACTORS
330
C
102
}
330
C
100
AcDbDictionary
281
     1
  3
STANDARD
350
1C
  0
DICTIONARY
  5
1AE
102
{ACAD_REACTORS
330
C
102
}
330
C
100
AcDbDictionary
281
     1
  3
AdobePDF_A2
350
B2E1
  3
普通紙Ａ３_XL-5800_WinNT40
350
298B
  3
普通紙Ａ３からＡ４_XL-5800_WinNT40
350
298C
  0
ACDBDICTIONARYWDFLT
  5
1AB
102
{ACAD_REACTORS
330
C
102
}
330
C
100
AcDbDictionary
281
     1
  3
Normal
350
1AC
100
AcDbDictionaryWithDefault
340
1AC
  0
GROUP
  5
1485
102
{ACAD_REACTORS
330
D
102
}
330
D
100
AcDbGroup
300

 70
     1
 71
     1
  0
GROUP
  5
EAC7
102
{ACAD_REACTORS
330
D
102
}
330
D
100
AcDbGroup
300

 70
     1
 71
     1
  0
GROUP
  5
EADE
102
{ACAD_REACTORS
330
D
102
}
330
D
100
AcDbGroup
300

 70
     1
 71
     1
  0
LAYOUT
  5
1AF
102
{ACAD_REACTORS
330
1AD
102
}
330
1AD
100
AcDbPlotSettings
  1

  2
FUJITSU XL-5800
  4
A4
  6

 40
5.873749732971191
 41
5.704405784606932
 42
5.873748779296875
 43
5.873748779296875
 44
210.0579986572264
 45
296.9259948730469
 46
-934.06
 47
-482.3299999999998
 48
0.0
 49
0.0
140
0.0
141
0.0
142
1.0
143
1.0
 70
 11956
 72
     1
 73
     0
 74
     0
  7
LineScale_10.ctb
 75
    16
147
1.0
148
1033.210332103321
149
625.0
100
AcDbLayout
  1
Model
 70
     1
 71
     0
 10
0.0
 20
0.0
 11
12.0
 21
9.0
 12
0.0
 22
0.0
 32
0.0
 14
0.0
 24
0.0
 34
0.0
 15
0.0
 25
0.0
 35
0.0
146
0.0
 13
0.0
 23
0.0
 33
0.0
 16
1.0
 26
0.0
 36
0.0
 17
0.0
 27
1.0
 37
0.0
 76
     0
330
18
  0
LAYOUT
  5
1B0
102
{ACAD_REACTORS
330
1AD
102
}
330
1AD
100
AcDbPlotSettings
  1
AdobePDF_A2
  2
Adobe PDF
  4
User66
  6
A1
 40
3.174999952316283
 41
3.174999952316283
 42
3.17498779296875
 43
3.17498779296875
 44
420.0
 45
594.0
 46
-3.169999999999998
 47
-3.169999999999998
 48
0.0
 49
0.0
140
594.0
141
420.0
142
1.0
143
1.0
 70
   692
 72
     1
 73
     1
 74
     4
  7
LineScale_10.ctb
 75
    16
147
1.0
148
0.0
149
0.0
100
AcDbLayout
  1
ﾚｲｱｳﾄ1
 70
     1
 71
     1
 10
-0.0049877929687501
 20
-0.0049999523162843
 11
593.9950122070312
 21
419.9950000476837
 12
0.0
 22
0.0
 32
0.0
 14
1.000000000000000E+20
 24
1.000000000000000E+20
 34
1.000000000000000E+20
 15
-1.000000000000000E+20
 25
-1.000000000000000E+20
 35
-1.000000000000000E+20
146
0.0
 13
0.0
 23
0.0
 33
0.0
 16
1.0
 26
0.0
 36
0.0
 17
0.0
 27
1.0
 37
0.0
 76
     0
330
15
331
37
  0
MLINESTYLE
  5
1C
102
{ACAD_REACTORS
330
1B
102
}
330
1B
100
AcDbMlineStyle
  2
STANDARD
 70
     0
  3

 62
   256
 51
90.0
 52
90.0
 71
     2
 49
0.5
 62
   256
  6
BYLAYER
 49
-0.5
 62
   256
  6
BYLAYER
  0
PLOTSETTINGS
  5
B2E1
102
{ACAD_REACTORS
330
1AE
102
}
330
1AE
100
AcDbPlotSettings
  1
AdobePDF_A2
  2
Adobe PDF
  4
User66
  6
A1
 40
3.174999952316283
 41
3.174999952316283
 42
3.17498779296875
 43
3.17498779296875
 44
420.0
 45
594.0
 46
-3.169999999999998
 47
-3.169999999999998
 48
0.0
 49
0.0
140
594.0
141
420.0
142
1.0
143
1.0
 70
   692
 72
     1
 73
     1
 74
     4
  7
LineScale_10.ctb
 75
    16
147
1.0
148
0.0
149
0.0
  0
PLOTSETTINGS
  5
298B
102
{ACAD_REACTORS
330
1AE
102
}
330
1AE
100
AcDbPlotSettings
  1
普通紙Ａ３_XL-5800_WinNT40
  2
FUJITSU XL-5800
  4
A3
  6
A1
 40
5.873749732971191
 41
5.873747825622557
 42
5.70440673828125
 43
5.873748779296875
 44
296.9259948730469
 45
420.1159973144531
 46
-5.009999999999998
 47
-6.7
 48
0.0
 49
0.0
140
420.0
141
297.0
142
1.0
143
1.0
 70
   688
 72
     1
 73
     1
 74
     4
  7
LineScale_10.ctb
 75
    16
147
1.0
148
0.0
149
0.0
  0
PLOTSETTINGS
  5
298C
102
{ACAD_REACTORS
330
1AE
102
}
330
1AE
100
AcDbPlotSettings
  1
普通紙Ａ３からＡ４_XL-5800_WinNT40
  2
FUJITSU XL-5800
  4
A4
  6
A1
 40
5.873749732971191
 41
5.704405784606932
 42
5.873748779296875
 43
5.873748779296875
 44
210.0579986572264
 45
296.9259948730469
 46
-6.4
 47
-5.459999999999999
 48
0.0
 49
0.0
140
420.0
141
297.0
142
0.7071066999999999
143
1.0
 70
   672
 72
     1
 73
     1
 74
     4
  7
LineScale_07.ctb
 75
     0
147
0.7071066999999999
148
0.0
149
0.0
  0
ACDBPLACEHOLDER
  5
1AC
102
{ACAD_REACTORS
330
1AB
102
}
330
1AB
  0
ENDSEC
  0
EOF
