  0
SECTION
  2
HEADER
  9
$ACADVER
  1
AC1015
  9
$ACADMAINTVER
 70
     6
  9
$DWGCODEPAGE
  3
ANSI_932
  9
$INSBASE
 10
0.0
 20
0.0
 30
0.0
  9
$EXTMIN
 10
1107.772904514854
 20
35.95235319796029
 30
-0.0000000100021362
  9
$EXTMAX
 10
1883.200207945185
 20
676.2155855807145
 30
0.0000000100021363
  9
$LIMMIN
 10
-841.0
 20
-594.0
  9
$LIMMAX
 10
841.0
 20
594.0
  9
$ORTHOMODE
 70
     1
  9
$REGENMODE
 70
     1
  9
$FILLMODE
 70
     1
  9
$QTEXTMODE
 70
     0
  9
$MIRRTEXT
 70
     0
  9
$LTSCALE
 40
7.0
  9
$ATTMODE
 70
     1
  9
$TEXTSIZE
 40
3.2
  9
$TRACEWID
 40
1.0
  9
$TEXTSTYLE
  7
DIMFONT
  9
$CLAYER
  8
DRAW2
  9
$CELTYPE
  6
BYLAYER
  9
$CECOLOR
 62
   256
  9
$CELTSCALE
 40
1.0
  9
$DISPSILH
 70
     0
  9
$DIMSCALE
 40
2.0
  9
$DIMASZ
 40
3.0
  9
$DIMEXO
 40
0.0
  9
$DIMDLI
 40
10.0
  9
$DIMRND
 40
0.0
  9
$DIMDLE
 40
0.0
  9
$DIMEXE
 40
1.0
  9
$DIMTP
 40
0.0
  9
$DIMTM
 40
0.0
  9
$DIMTXT
 40
3.2
  9
$DIMCEN
 40
0.0
  9
$DIMTSZ
 40
0.0
  9
$DIMTOL
 70
     0
  9
$DIMLIM
 70
     0
  9
$DIMTIH
 70
     0
  9
$DIMTOH
 70
     0
  9
$DIMSE1
 70
     0
  9
$DIMSE2
 70
     0
  9
$DIMTAD
 70
     3
  9
$DIMZIN
 70
     8
  9
$DIMBLK
  1

  9
$DIMASO
 70
     1
  9
$DIMSHO
 70
     1
  9
$DIMPOST
  1

  9
$DIMAPOST
  1

  9
$DIMALT
 70
     0
  9
$DIMALTD
 70
     2
  9
$DIMALTF
 40
25.4
  9
$DIMLFAC
 40
1.0
  9
$DIMTOFL
 70
     1
  9
$DIMTVP
 40
0.0
  9
$DIMTIX
 70
     0
  9
$DIMSOXD
 70
     0
  9
$DIMSAH
 70
     1
  9
$DIMBLK1
  1
OPEN
  9
$DIMBLK2
  1
OPEN
  9
$DIMSTYLE
  2
1_2
  9
$DIMCLRD
 70
     0
  9
$DIMCLRE
 70
     0
  9
$DIMCLRT
 70
     0
  9
$DIMTFAC
 40
0.75
  9
$DIMGAP
 40
1.0
  9
$DIMJUST
 70
     0
  9
$DIMSD1
 70
     0
  9
$DIMSD2
 70
     0
  9
$DIMTOLJ
 70
     1
  9
$DIMTZIN
 70
     8
  9
$DIMALTZ
 70
     0
  9
$DIMALTTZ
 70
     0
  9
$DIMUPT
 70
     0
  9
$DIMDEC
 70
     4
  9
$DIMTDEC
 70
     4
  9
$DIMALTU
 70
     2
  9
$DIMALTTD
 70
     2
  9
$DIMTXSTY
  7
DIMFONT
  9
$DIMAUNIT
 70
     0
  9
$DIMADEC
 70
     2
  9
$DIMALTRND
 40
0.0
  9
$DIMAZIN
 70
     2
  9
$DIMDSEP
 70
    46
  9
$DIMATFIT
 70
     1
  9
$DIMFRAC
 70
     0
  9
$DIMLDRBLK
  1
OPEN
  9
$DIMLUNIT
 70
     2
  9
$DIMLWD
 70
    -2
  9
$DIMLWE
 70
    -2
  9
$DIMTMOVE
 70
     0
  9
$LUNITS
 70
     2
  9
$LUPREC
 70
     4
  9
$SKETCHINC
 40
1.0
  9
$FILLETRAD
 40
33.0
  9
$AUNITS
 70
     0
  9
$AUPREC
 70
     4
  9
$MENU
  1
acad
  9
$ELEVATION
 40
0.0
  9
$PELEVATION
 40
0.0
  9
$THICKNESS
 40
0.0
  9
$LIMCHECK
 70
     0
  9
$CHAMFERA
 40
0.0
  9
$CHAMFERB
 40
0.0
  9
$CHAMFERC
 40
0.0
  9
$CHAMFERD
 40
0.0
  9
$SKPOLY
 70
     0
  9
$TDCREATE
 40
2452311.864408912
  9
$TDUCREATE
 40
2452311.489408912
  9
$TDUPDATE
 40
2454973.583629733
  9
$TDUUPDATE
 40
2454973.208629734
  9
$TDINDWG
 40
1.2556812847
  9
$TDUSRTIMER
 40
1.2556811690
  9
$USRTIMER
 70
     1
  9
$ANGBASE
 50
0.0
  9
$ANGDIR
 70
     0
  9
$PDMODE
 70
    35
  9
$PDSIZE
 40
0.5
  9
$PLINEWID
 40
0.0
  9
$SPLFRAME
 70
     0
  9
$SPLINETYPE
 70
     6
  9
$SPLINESEGS
 70
     8
  9
$HANDSEED
  5
D64C
  9
$SURFTAB1
 70
     6
  9
$SURFTAB2
 70
     6
  9
$SURFTYPE
 70
     6
  9
$SURFU
 70
     6
  9
$SURFV
 70
     6
  9
$UCSBASE
  2

  9
$UCSNAME
  2

  9
$UCSORG
 10
0.0
 20
0.0
 30
0.0
  9
$UCSXDIR
 10
1.0
 20
0.0
 30
0.0
  9
$UCSYDIR
 10
0.0
 20
1.0
 30
0.0
  9
$UCSORTHOREF
  2

  9
$UCSORTHOVIEW
 70
     0
  9
$UCSORGTOP
 10
0.0
 20
0.0
 30
0.0
  9
$UCSORGBOTTOM
 10
0.0
 20
0.0
 30
0.0
  9
$UCSORGLEFT
 10
0.0
 20
0.0
 30
0.0
  9
$UCSORGRIGHT
 10
0.0
 20
0.0
 30
0.0
  9
$UCSORGFRONT
 10
0.0
 20
0.0
 30
0.0
  9
$UCSORGBACK
 10
0.0
 20
0.0
 30
0.0
  9
$PUCSBASE
  2

  9
$PUCSNAME
  2

  9
$PUCSORG
 10
0.0
 20
0.0
 30
0.0
  9
$PUCSXDIR
 10
1.0
 20
0.0
 30
0.0
  9
$PUCSYDIR
 10
0.0
 20
1.0
 30
0.0
  9
$PUCSORTHOREF
  2

  9
$PUCSORTHOVIEW
 70
     0
  9
$PUCSORGTOP
 10
0.0
 20
0.0
 30
0.0
  9
$PUCSORGBOTTOM
 10
0.0
 20
0.0
 30
0.0
  9
$PUCSORGLEFT
 10
0.0
 20
0.0
 30
0.0
  9
$PUCSORGRIGHT
 10
0.0
 20
0.0
 30
0.0
  9
$PUCSORGFRONT
 10
0.0
 20
0.0
 30
0.0
  9
$PUCSORGBACK
 10
0.0
 20
0.0
 30
0.0
  9
$USERI1
 70
     0
  9
$USERI2
 70
     0
  9
$USERI3
 70
     0
  9
$USERI4
 70
     0
  9
$USERI5
 70
     0
  9
$USERR1
 40
0.0
  9
$USERR2
 40
0.0
  9
$USERR3
 40
0.0
  9
$USERR4
 40
0.0
  9
$USERR5
 40
0.0
  9
$WORLDVIEW
 70
     1
  9
$SHADEDGE
 70
     3
  9
$SHADEDIF
 70
    70
  9
$TILEMODE
 70
     1
  9
$MAXACTVP
 70
    48
  9
$PINSBASE
 10
0.0
 20
0.0
 30
0.0
  9
$PLIMCHECK
 70
     0
  9
$PEXTMIN
 10
1.000000000000000E+20
 20
1.000000000000000E+20
 30
1.000000000000000E+20
  9
$PEXTMAX
 10
-1.000000000000000E+20
 20
-1.000000000000000E+20
 30
-1.000000000000000E+20
  9
$PLIMMIN
 10
-0.0049877929687501
 20
-0.0049999523162843
  9
$PLIMMAX
 10
593.9950122070312
 20
419.9950000476837
  9
$UNITMODE
 70
     0
  9
$VISRETAIN
 70
     0
  9
$PLINEGEN
 70
     1
  9
$PSLTSCALE
 70
     1
  9
$TREEDEPTH
 70
  3020
  9
$CMLSTYLE
  2
STANDARD
  9
$CMLJUST
 70
     0
  9
$CMLSCALE
 40
20.0
  9
$PROXYGRAPHICS
 70
     1
  9
$MEASUREMENT
 70
     1
  9
$CELWEIGHT
370
    -1
  9
$ENDCAPS
280
     0
  9
$JOINSTYLE
280
     0
  9
$LWDISPLAY
290
     0
  9
$INSUNITS
 70
     0
  9
$HYPERLINKBASE
  1

  9
$STYLESHEET
  1

  9
$XEDIT
290
     1
  9
$CEPSNTYPE
380
     0
  9
$PSTYLEMODE
290
     1
  9
$FINGERPRINTGUID
  2
{7FD28A7C-F8BA-11D3-9BCC-00A0C977751D}
  9
$VERSIONGUID
  2
{C7E2347D-3259-4518-A177-257E806C0BE6}
  9
$EXTNAMES
290
     1
  9
$PSVPSCALE
 40
0.0
  9
$OLESTARTUP
290
     0
  0
ENDSEC
  0
SECTION
  2
CLASSES
  0
CLASS
  1
LWPOLYLINE
  2
AcDbPolyline
  3
AutoCAD 2000
 90
    32768
280
     0
281
     1
  0
CLASS
  1
ACDBDICTIONARYWDFLT
  2
AcDbDictionaryWithDefault
  3
AutoCAD 2000
 90
        0
280
     0
281
     0
  0
CLASS
  1
ACDBPLACEHOLDER
  2
AcDbPlaceHolder
  3
AutoCAD 2000
 90
        0
280
     0
281
     0
  0
CLASS
  1
LAYOUT
  2
AcDbLayout
  3
AutoCAD 2000
 90
        0
280
     0
281
     0
  0
CLASS
  1
PLOTSETTINGS
  2
AcDbPlotSettings
  3
AutoCAD 2000
 90
        0
280
     0
281
     0
  0
CLASS
  1
RASTERVARIABLES
  2
AcDbRasterVariables
  3
ISM
 90
        0
280
     0
281
     0
  0
ENDSEC
  0
SECTION
  2
TABLES
  0
TABLE
  2
VPORT
  5
8
330
0
100
AcDbSymbolTable
 70
     2
  0
VPORT
  5
D64B
330
8
100
AcDbSymbolTableRecord
100
AcDbViewportTableRecord
  2
*Active
 70
     0
 10
0.0
 20
0.0
 11
1.0
 21
1.0
 12
1495.48655623002
 22
356.0839693893373
 13
0.0
 23
0.0
 14
5.0
 24
5.0
 15
10.0
 25
10.0
 16
0.0
 26
0.0
 36
1.0
 17
0.0
 27
0.0
 37
0.0
 40
645.1321543020147
 41
1.493654822335025
 42
50.0
 43
0.0
 44
0.0
 50
0.0
 51
0.0
 71
     0
 72
   100
 73
     1
 74
     0
 75
     0
 76
     0
 77
     0
 78
     1
281
     0
 65
     1
110
0.0
120
0.0
130
0.0
111
1.0
121
0.0
131
0.0
112
0.0
122
1.0
132
0.0
 79
     0
146
0.0
  0
ENDTAB
  0
TABLE
  2
LTYPE
  5
5
330
0
100
AcDbSymbolTable
 70
     2
  0
LTYPE
  5
12
330
5
100
AcDbSymbolTableRecord
100
AcDbLinetypeTableRecord
  2
BYBLOCK
 70
     0
  3

 72
    65
 73
     0
 40
0.0
  0
LTYPE
  5
13
330
5
100
AcDbSymbolTableRecord
100
AcDbLinetypeTableRecord
  2
BYLAYER
 70
     0
  3

 72
    65
 73
     0
 40
0.0
  0
LTYPE
  5
14
330
5
100
AcDbSymbolTableRecord
100
AcDbLinetypeTableRecord
  2
CONTINUOUS
 70
     0
  3
Solid line
 72
    65
 73
     0
 40
0.0
  0
LTYPE
  5
23
330
5
100
AcDbSymbolTableRecord
100
AcDbLinetypeTableRecord
  2
HIDDEN
 70
     0
  3
__ __ __ __ __ __ __ __ __ __ __ __ __ __ __ __
 72
    65
 73
     2
 40
0.375
 49
0.25
 74
     0
 49
-0.125
 74
     0
  0
ENDTAB
  0
TABLE
  2
LAYER
  5
2
330
0
100
AcDbSymbolTable
 70
     6
  0
LAYER
  5
E
330
2
100
AcDbSymbolTableRecord
100
AcDbLayerTableRecord
  2
0
 70
     0
 62
     7
  6
CONTINUOUS
370
    -3
390
1AC
  0
LAYER
  5
29
330
2
100
AcDbSymbolTableRecord
100
AcDbLayerTableRecord
  2
DRAW2
 70
     0
 62
     4
  6
CONTINUOUS
370
    -3
390
1AC
  0
LAYER
  5
2A
330
2
100
AcDbSymbolTableRecord
100
AcDbLayerTableRecord
  2
DRAW3
 70
     0
 62
     1
  6
CONTINUOUS
370
    -3
390
1AC
  0
LAYER
  5
2B
330
2
100
AcDbSymbolTableRecord
100
AcDbLayerTableRecord
  2
DRAW4
 70
     0
 62
     2
  6
CONTINUOUS
370
    -3
390
1AC
  0
LAYER
  5
2C
330
2
100
AcDbSymbolTableRecord
100
AcDbLayerTableRecord
  2
HIDDEN
 70
     0
 62
     7
  6
HIDDEN
370
    -3
390
1AC
  0
LAYER
  5
133
330
2
100
AcDbSymbolTableRecord
100
AcDbLayerTableRecord
  2
DEFPOINTS
 70
     0
 62
     7
  6
CONTINUOUS
290
     0
370
    -3
390
1AC
  0
ENDTAB
  0
TABLE
  2
STYLE
  5
3
330
0
100
AcDbSymbolTable
 70
     2
  0
STYLE
  5
F
330
3
100
AcDbSymbolTableRecord
100
AcDbTextStyleTableRecord
  2
STANDARD
 70
     0
 40
0.0
 41
1.0
 50
0.0
 71
     0
 42
2.5
  3
txt
  4

  0
STYLE
  5
30
330
3
100
AcDbSymbolTableRecord
100
AcDbTextStyleTableRecord
  2
DIMFONT
 70
     0
 40
0.0
 41
1.0
 50
10.0
 71
     0
 42
3.2
  3
romans.shx
  4
extfont.shx
  0
ENDTAB
  0
TABLE
  2
VIEW
  5
6
330
0
100
AcDbSymbolTable
 70
     5
  0
VIEW
  5
C27
330
6
100
AcDbSymbolTableRecord
100
AcDbViewTableRecord
  2
View1
 70
     0
 40
1250.0
 10
0.0
 20
0.0
 41
2066.420664206642
 11
0.0
 21
0.0
 31
1.0
 12
0.0
 22
0.0
 32
0.0
 42
50.0
 43
0.0
 44
0.0
 50
0.0
 71
     0
281
     0
 72
     1
110
0.0
120
0.0
130
0.0
111
1.0
121
0.0
131
0.0
112
0.0
122
1.0
132
0.0
 79
     0
146
0.0
  0
VIEW
  5
C2A
330
6
100
AcDbSymbolTableRecord
100
AcDbViewTableRecord
  2
A4
 70
     1
 40
314.2148930664061
 10
103.8222427368164
 20
144.5197510242462
 41
519.4401184271216
 11
0.0
 21
0.0
 31
1.0
 12
0.0
 22
0.0
 32
0.0
 42
50.0
 43
0.0
 44
0.0
 50
0.0
 71
     0
281
     0
 72
     1
110
0.0
120
0.0
130
0.0
111
1.0
121
0.0
131
0.0
112
0.0
122
1.0
132
0.0
 79
     0
146
0.0
  0
VIEW
  5
C2B
330
6
100
AcDbSymbolTableRecord
100
AcDbViewTableRecord
  2
A3
 70
     1
 40
314.2148930664061
 10
205.819491624832
 20
151.3197510242461
 41
519.4401184271216
 11
0.0
 21
0.0
 31
1.0
 12
0.0
 22
0.0
 32
0.0
 42
50.0
 43
0.0
 44
0.0
 50
0.0
 71
     0
281
     0
 72
     1
110
0.0
120
0.0
130
0.0
111
1.0
121
0.0
131
0.0
112
0.0
122
1.0
132
0.0
 79
     0
146
0.0
  0
VIEW
  5
C2C
330
6
100
AcDbSymbolTableRecord
100
AcDbViewTableRecord
  2
A2
 70
     1
 40
444.348344177246
 10
293.3145020008086
 20
213.319491624832
 41
734.5684804110931
 11
0.0
 21
0.0
 31
1.0
 12
0.0
 22
0.0
 32
0.0
 42
50.0
 43
0.0
 44
0.0
 50
0.0
 71
     0
281
     0
 72
     1
110
0.0
120
0.0
130
0.0
111
1.0
121
0.0
131
0.0
112
0.0
122
1.0
132
0.0
 79
     0
146
0.0
  0
VIEW
  5
C2D
330
6
100
AcDbSymbolTableRecord
100
AcDbViewTableRecord
  2
A1
 70
     1
 40
628.2954051513671
 10
422.5084997558592
 20
293.4384954071043
 41
1038.658086744695
 11
0.0
 21
0.0
 31
1.0
 12
0.0
 22
0.0
 32
0.0
 42
50.0
 43
0.0
 44
0.0
 50
0.0
 71
     0
281
     0
 72
     1
110
0.0
120
0.0
130
0.0
111
1.0
121
0.0
131
0.0
112
0.0
122
1.0
132
0.0
 79
     0
146
0.0
  0
ENDTAB
  0
TABLE
  2
UCS
  5
7
330
0
100
AcDbSymbolTable
 70
     0
  0
ENDTAB
  0
TABLE
  2
APPID
  5
9
330
0
100
AcDbSymbolTable
 70
     1
  0
APPID
  5
10
330
9
100
AcDbSymbolTableRecord
100
AcDbRegAppTableRecord
  2
ACAD
 70
     0
  0
ENDTAB
  0
TABLE
  2
DIMSTYLE
  5
A
330
0
100
AcDbSymbolTable
 70
     2
100
AcDbDimStyleTable
 71
     1
340
4B
  0
DIMSTYLE
105
4B
330
A
100
AcDbSymbolTableRecord
100
AcDbDimStyleTableRecord
  2
1_2
 70
     0
 40
2.0
 41
3.0
 42
0.0
 43
10.0
 44
1.0
 73
     0
 74
     0
 77
     3
 78
     8
 79
     2
140
3.2
141
0.0
146
0.75
147
1.0
172
     1
173
     1
179
     2
284
     8
289
     1
340
30
341
125
343
125
344
125
  0
DIMSTYLE
105
26A3
330
A
100
AcDbSymbolTableRecord
100
AcDbDimStyleTableRecord
  2
STANDARD
 70
     0
340
F
  0
ENDTAB
  0
TABLE
  2
BLOCK_RECORD
  5
1
330
0
100
AcDbSymbolTable
 70
     1
  0
BLOCK_RECORD
  5
18
330
1
100
AcDbSymbolTableRecord
100
AcDbBlockTableRecord
  2
*MODEL_SPACE
340
1AF
  0
BLOCK_RECORD
  5
15
330
1
100
AcDbSymbolTableRecord
100
AcDbBlockTableRecord
  2
*PAPER_SPACE
340
1B0
  0
BLOCK_RECORD
  5
125
330
1
100
AcDbSymbolTableRecord
100
AcDbBlockTableRecord
  2
_OPEN
340
0
102
{BLKREFS
331
2665
331
2666
331
2671
331
2672
331
267D
331
267E
331
D46F
331
D470
331
D4B7
331
D4B8
331
D4C9
331
D4CA
331
D4EC
331
D4ED
331
D502
331
D503
331
D514
331
D515
331
D526
331
D527
331
D538
331
D539
331
D541
331
D542
331
D54A
331
D54B
331
D559
331
D55A
331
D56B
331
D56C
331
D586
331
D587
331
D58F
331
D590
331
D5A1
331
D5A2
331
D5AA
331
D5AB
331
D5B3
331
D5B4
331
D5D9
331
D5DA
331
D5F8
331
D5F9
331
D620
331
D621
102
}
  0
ENDTAB
  0
ENDSEC
  0
SECTION
  2
BLOCKS
  0
BLOCK
  5
19
330
18
100
AcDbEntity
  8
0
100
AcDbBlockBegin
  2
*MODEL_SPACE
 70
     0
 10
0.0
 20
0.0
 30
0.0
  3
*MODEL_SPACE
  1

  0
ENDBLK
  5
1A
330
18
100
AcDbEntity
  8
0
100
AcDbBlockEnd
  0
BLOCK
  5
16
330
15
100
AcDbEntity
 67
     1
  8
0
100
AcDbBlockBegin
  2
*PAPER_SPACE
 70
     0
 10
0.0
 20
0.0
 30
0.0
  3
*PAPER_SPACE
  1

  0
ENDBLK
  5
17
330
15
100
AcDbEntity
 67
     1
  8
0
100
AcDbBlockEnd
  0
BLOCK
  5
126
330
125
100
AcDbEntity
  8
0
100
AcDbBlockBegin
  2
_OPEN
 70
     0
 10
0.0
 20
0.0
 30
0.0
  3
_OPEN
  1

  0
LINE
  5
127
330
125
100
AcDbEntity
  8
0
  6
ByBlock
 62
     0
100
AcDbLine
 10
-1.0
 20
0.1666666666666666
 30
0.0
 11
0.0
 21
0.0
 31
0.0
  0
LINE
  5
128
330
125
100
AcDbEntity
  8
0
  6
ByBlock
 62
     0
100
AcDbLine
 10
0.0
 20
0.0
 30
0.0
 11
-1.0
 21
-0.1666666666666666
 31
0.0
  0
LINE
  5
129
330
125
100
AcDbEntity
  8
0
  6
ByBlock
 62
     0
100
AcDbLine
 10
0.0
 20
0.0
 30
0.0
 11
-1.0
 21
0.0
 31
0.0
  0
ENDBLK
  5
12A
330
125
100
AcDbEntity
  8
0
100
AcDbBlockEnd
  0
ENDSEC
  0
SECTION
  2
ENTITIES
  0
TEXT
  5
2783
330
18
100
AcDbEntity
  8
0
100
AcDbText
 10
289.9791188454981
 20
596.5343442442899
 30
0.0
 40
3.2
  1

 51
10.0
  7
DIMFONT
100
AcDbText
  0
TEXT
  5
2791
330
18
100
AcDbEntity
  8
0
100
AcDbText
 10
399.046620988657
 20
559.3598774521149
 30
0.0
 40
3.2
  1

 51
10.0
  7
DIMFONT
100
AcDbText
  0
LINE
  5
CE60
330
18
100
AcDbEntity
  8
DRAW2
100
AcDbLine
 10
1308.966393047059
 20
56.17047721614563
 30
0.0
 11
1311.838653047059
 21
37.02209721614564
 31
0.0
  0
LINE
  5
CE61
330
18
100
AcDbEntity
  8
DRAW2
100
AcDbLine
 10
1344.966453047059
 20
56.17001721614565
 30
0.0
 11
1342.094203047059
 21
37.0216672161456
 31
0.0
  0
LINE
  5
CE62
330
18
100
AcDbEntity
  8
DRAW2
100
AcDbLine
 10
1182.966513047059
 20
56.1704372161456
 30
0.0
 11
1180.094263047059
 21
37.02209721614564
 31
0.0
  0
LINE
  5
CE63
330
18
100
AcDbEntity
  8
DRAW2
100
AcDbLine
 10
1146.966513047058
 20
56.16995721614557
 30
0.0
 11
1149.838773047058
 21
37.02163721614556
 31
0.0
  0
LINE
  5
CE66
330
18
100
AcDbEntity
  8
DRAW2
100
AcDbLine
 10
1150.828823047059
 20
36.17065721614561
 30
0.0
 11
1179.106413047059
 21
36.17065721614561
 31
0.0
  0
ARC
  5
CE67
330
18
100
AcDbEntity
  8
DRAW2
100
AcDbCircle
 10
1150.828453047058
 20
37.17022721614557
 30
0.0
 40
1.0
100
AcDbArc
 50
188.5308100000029
 51
269.9999099999909
  0
ARC
  5
CE68
330
18
100
AcDbEntity
  8
DRAW2
100
AcDbCircle
 10
1179.105983047059
 20
37.17010721614565
 30
0.0
 40
1.0
100
AcDbArc
 50
269.9999199999918
 51
351.468949999996
  0
LINE
  5
CE69
330
18
100
AcDbEntity
  8
DRAW2
100
AcDbLine
 10
1341.104093047059
 20
36.17065721614561
 30
0.0
 11
1312.826503047059
 21
36.17065721614561
 31
0.0
  0
ARC
  5
CE6A
330
18
100
AcDbEntity
  8
DRAW2
100
AcDbCircle
 10
1312.826933047059
 20
37.17010721614565
 30
0.0
 40
1.0
100
AcDbArc
 50
188.5310199999995
 51
270.0000499999919
  0
ARC
  5
CE6B
330
18
100
AcDbEntity
  8
DRAW2
100
AcDbCircle
 10
1341.104453047059
 20
37.17022721614557
 30
0.0
 40
1.0
100
AcDbArc
 50
270.000069999994
 51
351.4691799999959
  0
ELLIPSE
  5
CE6C
330
18
100
AcDbEntity
  8
DRAW2
100
AcDbEllipse
 10
1245.967063047059
 20
250.818654190536
 30
0.0
 11
-30.0
 21
0.0
 31
0.0
210
0.0
220
0.0
230
1.0
 40
0.8660255430061521
 41
4.8125564015444
 42
10.89540686640086
  0
ELLIPSE
  5
CE6D
330
18
100
AcDbEntity
  8
DRAW2
100
AcDbEllipse
 10
1245.967063048081
 20
497.375003666482
 30
0.0
 11
-30.0
 21
0.0
 31
0.0
210
0.0
220
0.0
230
1.0
 40
0.5000004147659753
 41
2.865446269584484
 42
6.559331691184857
  0
ELLIPSE
  5
CE6E
330
18
100
AcDbEntity
  8
DRAW2
100
AcDbEllipse
 10
1245.967063048091
 20
497.657596924999
 30
0.0
 11
-4.863999999999946
 21
0.0
 31
0.0
210
0.0
220
0.0
230
1.0
 40
0.5000000000000088
 41
3.141592653589792
 42
6.283185307179585
  0
ELLIPSE
  5
CE6F
330
18
100
AcDbEntity
  8
DRAW2
100
AcDbEllipse
 10
1245.967063048091
 20
485.7874197280276
 30
0.0
 11
-5.0
 21
0.0
 31
0.0
210
0.0
220
0.0
230
1.0
 40
0.5
 41
3.103130457090569
 42
6.321647503678809
  0
ELLIPSE
  5
CE70
330
18
100
AcDbEntity
  8
DRAW2
100
AcDbEllipse
 10
1245.967063048091
 20
488.1053367212567
 30
0.0
 11
-4.200000000000044
 21
0.0
 31
0.0
210
0.0
220
0.0
230
1.0
 40
0.5
 41
3.141592653589792
 42
6.283185307179585
  0
ELLIPSE
  5
CE71
330
18
100
AcDbEntity
  8
DRAW2
100
AcDbEllipse
 10
1245.967063048091
 20
484.4336670033653
 30
0.0
 11
-5.0
 21
0.0
 31
0.0
210
0.0
220
0.0
230
1.0
 40
0.5
 41
3.783165113152113
 42
5.641612847617263
  0
SPLINE
  5
CE72
330
18
100
AcDbEntity
  8
DRAW3
100
AcDbSpline
210
0.0
220
0.0
230
1.0
 70
     8
 71
     3
 72
    10
 73
     6
 74
     4
 42
0.0000000001
 43
0.0000000001
 44
0.0000000001
 40
0.0
 40
0.0
 40
0.0
 40
0.0
 40
1.972684243527765
 40
4.621558289201733
 40
6.67977679435929
 40
6.67977679435929
 40
6.67977679435929
 40
6.67977679435929
 10
1242.967063048092
 20
455.370386234969
 30
0.0
 10
1243.543335045566
 20
455.8299310220044
 30
0.0
 10
1244.893411539307
 20
456.906541750128
 30
0.0
 10
1247.075961275798
 20
454.6260931909849
 30
0.0
 10
1248.39173094131
 20
455.8399341151094
 30
0.0
 10
1248.967063048092
 20
456.3706969640171
 30
0.0
 11
1242.967063048092
 21
455.370386234969
 31
0.0
 11
1244.725025096375
 21
456.2654016323
 31
0.0
 11
1247.198578253378
 21
455.3177368765314
 31
0.0
 11
1248.967063048092
 21
456.3706969640171
 31
0.0
  0
ELLIPSE
  5
CE73
330
18
100
AcDbEntity
  8
DRAW2
100
AcDbEllipse
 10
1245.967063048091
 20
475.3404002636288
 30
0.0
 11
-3.0
 21
0.0
 31
0.0
210
0.0
220
0.0
230
1.0
 40
0.5
 41
3.141592653589792
 42
6.283185307179585
  0
ELLIPSE
  5
CE74
330
18
100
AcDbEntity
  8
DRAW2
100
AcDbEllipse
 10
1245.967063048091
 20
477.938476474982
 30
0.0
 11
-5.75
 21
0.0
 31
0.0
210
0.0
220
0.0
230
1.0
 40
0.5
 41
3.141592653589792
 42
6.283185307179585
  0
ELLIPSE
  5
CE75
330
18
100
AcDbEntity
  8
DRAW2
100
AcDbEllipse
 10
1245.967063048091
 20
475.7734129655208
 30
0.0
 11
-5.75
 21
0.0
 31
0.0
210
0.0
220
0.0
230
1.0
 40
0.5
 41
2.729778632910154
 42
6.694999327859224
  0
ELLIPSE
  5
CE76
330
18
100
AcDbEntity
  8
DRAW2
100
AcDbEllipse
 10
1245.967063048091
 20
475.3404002636288
 30
0.0
 11
-5.461324999999987
 21
0.0
 31
0.0
210
0.0
220
0.0
230
1.0
 40
0.5
 41
2.152343274395362
 42
7.272434686374015
  0
ELLIPSE
  5
CE77
330
18
100
AcDbEntity
  8
DRAW2
100
AcDbEllipse
 10
1245.967063048081
 20
505.657596924999
 30
0.0
 11
5.0
 21
0.0
 31
0.0
210
0.0
220
0.0
230
-1.0
 40
0.5
 41
0.0
 42
6.283185307179585
  0
ELLIPSE
  5
CE78
330
18
100
AcDbEntity
  8
DRAW2
100
AcDbEllipse
 10
1245.967063048081
 20
505.657596924999
 30
0.0
 11
5.5
 21
0.0
 31
0.0
210
0.0
220
0.0
230
-1.0
 40
0.5
 41
0.0
 42
6.283185307179585
  0
ELLIPSE
  5
CE79
330
18
100
AcDbEntity
  8
DRAW2
100
AcDbEllipse
 10
1264.153596527554
 20
489.9075969249991
 30
0.0
 11
5.5
 21
0.0
 31
0.0
210
0.0
220
0.0
230
-1.0
 40
0.5
 41
0.0
 42
6.283185307179585
  0
ELLIPSE
  5
CE7A
330
18
100
AcDbEntity
  8
DRAW2
100
AcDbEllipse
 10
1264.153596527554
 20
489.9075969249991
 30
0.0
 11
5.0
 21
0.0
 31
0.0
210
0.0
220
0.0
230
-1.0
 40
0.5
 41
0.0
 42
6.283185307179585
  0
ELLIPSE
  5
CE7B
330
18
100
AcDbEntity
  8
DRAW2
100
AcDbEllipse
 10
1227.780529568607
 20
489.9075969249991
 30
0.0
 11
-5.0
 21
0.0
 31
0.0
210
0.0
220
0.0
230
1.0
 40
0.5
 41
0.0
 42
6.283185307179585
  0
ELLIPSE
  5
CE7C
330
18
100
AcDbEntity
  8
DRAW2
100
AcDbEllipse
 10
1227.780529568607
 20
489.9075969249991
 30
0.0
 11
-5.5
 21
0.0
 31
0.0
210
0.0
220
0.0
230
1.0
 40
0.5
 41
0.0
 42
6.283185307179585
  0
ELLIPSE
  5
CE7D
330
18
100
AcDbEntity
  8
DRAW2
100
AcDbEllipse
 10
1245.967063048081
 20
496.889647732568
 30
0.0
 11
-29.75
 21
0.0
 31
0.0
210
0.0
220
0.0
230
1.0
 40
0.5
 41
2.477730005301193
 42
6.947047955467209
  0
ELLIPSE
  5
CE7E
330
18
100
AcDbEntity
  8
DRAW2
100
AcDbEllipse
 10
1245.967063048081
 20
495.1575969249991
 30
0.0
 11
-27.75
 21
0.0
 31
0.0
210
0.0
220
0.0
230
1.0
 40
0.5
 41
1.788114850849958
 42
7.636663109920212
  0
ELLIPSE
  5
CE7F
330
18
100
AcDbEntity
  8
DRAW2
100
AcDbEllipse
 10
1245.967063047059
 20
270.1411056506376
 30
0.0
 11
5.0
 21
0.0
 31
0.0
210
0.0
220
0.0
230
-1.0
 40
0.8660254037844424
 41
9.86986181818542
 42
10.35207317878475
  0
ELLIPSE
  5
CE80
330
18
100
AcDbEntity
  8
DRAW2
100
AcDbEllipse
 10
1245.967063047059
 20
270.1411056506376
 30
0.0
 11
5.5
 21
0.0
 31
0.0
210
0.0
220
0.0
230
-1.0
 40
0.8660254037844506
 41
9.477836261482067
 42
10.41864294233976
  0
ELLIPSE
  5
CE81
330
18
100
AcDbEntity
  8
DRAW2
100
AcDbEllipse
 10
1245.967063047114
 20
256.2846991900865
 30
0.0
 11
-4.863999999999946
 21
0.0
 31
0.0
210
0.0
220
0.0
230
1.0
 40
0.8660254037844405
 41
0.192199434928695
 42
2.949393218660974
  0
ELLIPSE
  5
CE82
330
18
100
AcDbEntity
  8
DRAW2
100
AcDbEllipse
 10
1245.967063047114
 20
261.7996991900866
 30
0.0
 11
-4.200000000000044
 21
0.0
 31
0.0
210
0.0
220
0.0
230
1.0
 40
0.8660254037844483
 41
0.4078566933202482
 42
2.733735960269544
  0
SPLINE
  5
CE83
330
18
100
AcDbEntity
  8
DRAW3
100
AcDbSpline
210
0.0
220
0.0
230
1.0
 70
     8
 71
     3
 72
    10
 73
     6
 74
     4
 42
0.0000000001
 43
0.0000000001
 44
0.0000000001
 40
0.0
 40
0.0
 40
0.0
 40
0.0
 40
2.136487950602401
 40
5.752229164667824
 40
8.931709943888508
 40
8.931709943888508
 40
8.931709943888508
 40
8.931709943888508
 10
1242.967063047114
 20
286.8255474010101
 30
0.0
 10
1243.294826360502
 20
287.7021695090032
 30
0.0
 10
1244.17728848244
 20
290.0623659494131
 30
0.0
 10
1246.952350477658
 20
284.6865579827166
 30
0.0
 10
1248.324864473749
 20
287.4659160615649
 30
0.0
 10
1248.967063047113
 20
288.7663762377005
 30
0.0
 11
1242.967063047114
 21
286.8255474010101
 31
0.0
 11
1244.075164166815
 21
288.6522090203547
 31
0.0
 11
1246.878733717894
 21
286.3688819961738
 31
0.0
 11
1248.967063047113
 21
288.7663762377005
 31
0.0
  0
ELLIPSE
  5
CE84
330
18
100
AcDbEntity
  8
DRAW2
100
AcDbEllipse
 10
1245.967063047114
 20
269.1695386900866
 30
0.0
 11
-3.0
 21
0.0
 31
0.0
210
0.0
220
0.0
230
1.0
 40
0.8660254037844197
 41
0.0
 42
3.141592653589792
  0
ELLIPSE
  5
CE85
330
18
100
AcDbEntity
  8
DRAW2
100
AcDbEllipse
 10
1245.967063047114
 20
263.1379491900866
 30
0.0
 11
-5.0
 21
0.0
 31
0.0
210
0.0
220
0.0
230
1.0
 40
0.8660254037844424
 41
1.706893717735101
 42
2.438055980396863
  0
ELLIPSE
  5
CE86
330
18
100
AcDbEntity
  8
DRAW2
100
AcDbEllipse
 10
1245.967063047114
 20
263.1379491900866
 30
0.0
 11
-5.0
 21
0.0
 31
0.0
210
0.0
220
0.0
230
1.0
 40
0.8660254037844424
 41
0.7035366731929298
 42
1.434698935854689
  0
ELLIPSE
  5
CE87
330
18
100
AcDbEntity
  8
DRAW2
100
AcDbEllipse
 10
1245.967063047114
 20
267.6695386900866
 30
0.0
 11
-5.75
 21
0.0
 31
0.0
210
0.0
220
0.0
230
1.0
 40
0.8660254037844346
 41
0.0
 42
3.141592653589792
  0
ELLIPSE
  5
CE88
330
18
100
AcDbEntity
  8
DRAW2
100
AcDbEllipse
 10
1245.967063047114
 20
268.9195386900866
 30
0.0
 11
-5.75
 21
0.0
 31
0.0
210
0.0
220
0.0
230
1.0
 40
0.8660254037844346
 41
5.261277252027785
 42
10.44668601592116
  0
ELLIPSE
  5
CE89
330
18
100
AcDbEntity
  8
DRAW2
100
AcDbEllipse
 10
1245.967063047114
 20
269.1695386900866
 30
0.0
 11
-5.461324999999987
 21
0.0
 31
0.0
210
0.0
220
0.0
230
1.0
 40
0.8660254037844396
 41
5.293935927985153
 42
10.41402733996381
  0
ELLIPSE
  5
CE8A
330
18
100
AcDbEntity
  8
DRAW2
100
AcDbEllipse
 10
1264.153596526532
 20
242.8613054314278
 30
0.0
 11
5.5
 21
0.0
 31
0.0
210
0.0
220
0.0
230
-1.0
 40
0.8660254037844506
 41
0.0
 42
6.283185307179585
  0
ELLIPSE
  5
CE8B
330
18
100
AcDbEntity
  8
DRAW2
100
AcDbEllipse
 10
1264.153596526532
 20
242.8613054314278
 30
0.0
 11
5.0
 21
0.0
 31
0.0
210
0.0
220
0.0
230
-1.0
 40
0.8660254037844424
 41
0.0
 42
6.283185307179585
  0
ELLIPSE
  5
CE8C
330
18
100
AcDbEntity
  8
DRAW2
100
AcDbEllipse
 10
1245.967063047059
 20
270.1411056506376
 30
0.0
 11
5.5
 21
0.0
 31
0.0
210
0.0
220
0.0
230
-1.0
 40
0.8660254037844506
 41
5.28932032563309
 42
6.230127006388833
  0
ELLIPSE
  5
CE8D
330
18
100
AcDbEntity
  8
DRAW2
100
AcDbEllipse
 10
1245.967063047059
 20
270.1411056506376
 30
0.0
 11
5.0
 21
0.0
 31
0.0
210
0.0
220
0.0
230
-1.0
 40
0.8660254037844424
 41
5.355890089191746
 42
5.838101449685109
  0
ELLIPSE
  5
CE8E
330
18
100
AcDbEntity
  8
DRAW2
100
AcDbEllipse
 10
1227.780529567586
 20
242.8613054314278
 30
0.0
 11
-5.0
 21
0.0
 31
0.0
210
0.0
220
0.0
230
1.0
 40
0.8660254037844424
 41
0.0
 42
6.283185307179585
  0
ELLIPSE
  5
CE8F
330
18
100
AcDbEntity
  8
DRAW2
100
AcDbEllipse
 10
1227.780529567586
 20
242.8613054314278
 30
0.0
 11
-5.5
 21
0.0
 31
0.0
210
0.0
220
0.0
230
1.0
 40
0.8660254037844506
 41
0.0
 42
6.283185307179585
  0
ELLIPSE
  5
CE90
330
18
100
AcDbEntity
  8
DRAW2
100
AcDbEllipse
 10
1245.967063047059
 20
250.9545721711645
 30
0.0
 11
-29.75
 21
0.0
 31
0.0
210
0.0
220
0.0
230
1.0
 40
0.8660254037844378
 41
4.813401007085075
 42
10.89456226086016
  0
ELLIPSE
  5
CE91
330
18
100
AcDbEntity
  8
DRAW2
100
AcDbEllipse
 10
1245.967063047059
 20
251.9545721711645
 30
0.0
 11
-27.75
 21
0.0
 31
0.0
210
0.0
220
0.0
230
1.0
 40
0.866025403784439
 41
4.820708786897811
 42
10.88725448104715
  0
ELLIPSE
  5
CE92
330
18
100
AcDbEntity
  8
DRAW2
100
AcDbEllipse
 10
1255.967063046616
 20
141.4265710201084
 30
0.0
 11
-4.963678470068186
 21
0.0000000000000789
 31
0.0
210
0.0
220
0.0
230
-1.0
 40
0.7204413249924393
 41
0.0
 42
3.14159272642895
  0
ELLIPSE
  5
CE93
330
18
100
AcDbEntity
  8
DRAW2
100
AcDbEllipse
 10
1255.967063047059
 20
139.2301798672135
 30
0.0
 11
-4.963678470068186
 21
0.0000000000000789
 31
0.0
210
0.0
220
0.0
230
-1.0
 40
0.7204413249924393
 41
0.0
 42
6.283185307179585
  0
ELLIPSE
  5
CE94
330
18
100
AcDbEntity
  8
DRAW2
100
AcDbEllipse
 10
1235.967063047501
 20
141.4265710201084
 30
0.0
 11
4.963678470068186
 21
0.0000000000000789
 31
0.0
210
0.0
220
0.0
230
1.0
 40
0.7204413249924393
 41
0.0
 42
3.14159272642895
  0
ELLIPSE
  5
CE95
330
18
100
AcDbEntity
  8
DRAW2
100
AcDbEllipse
 10
1235.967063047059
 20
139.2301798672135
 30
0.0
 11
4.963678470068186
 21
0.0000000000000789
 31
0.0
210
0.0
220
0.0
230
1.0
 40
0.7204413249924393
 41
0.0
 42
6.283185307179585
  0
LINE
  5
CE96
330
18
100
AcDbEntity
  8
DRAW2
100
AcDbLine
 10
1225.280529567585
 20
241.6113054314278
 30
0.0
 11
1227.780529567586
 21
240.3613054314277
 31
0.0
  0
LINE
  5
CE97
330
18
100
AcDbEntity
  8
DRAW2
100
AcDbLine
 10
1225.280529567585
 20
244.1113054314278
 30
0.0
 11
1227.780529567586
 21
245.3613054314278
 31
0.0
  0
LINE
  5
CE99
330
18
100
AcDbEntity
  8
DRAW2
100
AcDbLine
 10
1202.967063047059
 20
331.1712072161455
 30
0.0
 11
1288.967063047059
 21
331.1712072161455
 31
0.0
  0
LINE
  5
CE9A
330
18
100
AcDbEntity
  8
DRAW2
100
AcDbLine
 10
1202.967063047059
 20
77.17082721614565
 30
0.0
 11
1288.967063047059
 21
77.17082721614565
 31
0.0
  0
LINE
  5
CE9B
330
18
100
AcDbEntity
  8
DRAW2
100
AcDbLine
 10
1202.967063047059
 20
109.1708272161455
 30
0.0
 11
1288.967063047059
 21
109.1708272161455
 31
0.0
  0
LINE
  5
CE9D
330
18
100
AcDbEntity
  8
DRAW2
100
AcDbLine
 10
1202.967063047059
 20
299.1712072161456
 30
0.0
 11
1288.967063047059
 21
299.1712072161456
 31
0.0
  0
LINE
  5
CE9F
330
18
100
AcDbEntity
  8
DRAW2
100
AcDbLine
 10
1204.467063047059
 20
293.1710172161456
 30
0.0
 11
1287.467063047059
 21
293.1710172161456
 31
0.0
  0
LINE
  5
CEA0
330
18
100
AcDbEntity
  8
DRAW2
100
AcDbLine
 10
1204.467063047059
 20
115.1710172161455
 30
0.0
 11
1287.467063047059
 21
115.1710172161455
 31
0.0
  0
LINE
  5
CEA2
330
18
100
AcDbEntity
  8
DRAW2
100
AcDbLine
 10
1139.966453047059
 20
56.17059721614566
 30
0.0
 11
1351.966453047059
 21
56.17059721614566
 31
0.0
  0
LINE
  5
CEA3
330
18
100
AcDbEntity
  8
DRAW2
100
AcDbLine
 10
1139.966453047059
 20
72.17077721614554
 30
0.0
 11
1351.966453047059
 21
72.17077721614554
 31
0.0
  0
CIRCLE
  5
CEA4
330
18
100
AcDbEntity
  8
DRAW2
100
AcDbCircle
 10
1220.967063047059
 20
184.1710172161455
 30
0.0
 40
10.5
  0
CIRCLE
  5
CEA5
330
18
100
AcDbEntity
  8
DRAW2
100
AcDbCircle
 10
1220.967063047059
 20
184.1710172161455
 30
0.0
 40
7.0
  0
CIRCLE
  5
CEA6
330
18
100
AcDbEntity
  8
DRAW2
100
AcDbCircle
 10
1220.967063047059
 20
184.1710172161455
 30
0.0
 40
5.694887103024191
  0
CIRCLE
  5
CEA7
330
18
100
AcDbEntity
  8
DRAW3
100
AcDbCircle
 10
1220.967063047059
 20
184.1710172161455
 30
0.0
 40
6.578500006249994
  0
CIRCLE
  5
CEA8
330
18
100
AcDbEntity
  8
DRAW2
100
AcDbCircle
 10
1220.967063047059
 20
184.1710172161455
 30
0.0
 40
11.0
  0
LINE
  5
CEAA
330
18
100
AcDbEntity
  8
DRAW2
100
AcDbLine
 10
1202.967063047059
 20
114.1710172161455
 30
0.0
 11
1202.967063047059
 21
294.1712072161457
 31
0.0
  0
LINE
  5
CEAB
330
18
100
AcDbEntity
  8
DRAW2
100
AcDbLine
 10
1139.967063047059
 20
114.1710172161455
 30
0.0
 11
1139.967063047059
 21
294.1710182161456
 31
0.0
  0
LINE
  5
CEAC
330
18
100
AcDbEntity
  8
DRAW2
100
AcDbLine
 10
1204.467063047059
 20
115.1710172161455
 30
0.0
 11
1204.467063047059
 21
293.1710172161456
 31
0.0
  0
LINE
  5
CEAE
330
18
100
AcDbEntity
  8
DRAW2
100
AcDbLine
 10
1109.965663047059
 20
145.6702877161456
 30
0.0
 11
1109.965663047059
 21
124.6702877161455
 31
0.0
  0
LINE
  5
CEAF
330
18
100
AcDbEntity
  8
DRAW2
100
AcDbLine
 10
1107.966213047059
 20
143.6699877161455
 30
0.0
 11
1107.966213047059
 21
126.6699877161455
 31
0.0
  0
LINE
  5
CEB0
330
18
100
AcDbEntity
  8
DRAW2
100
AcDbLine
 10
1154.467063046114
 20
92.17082721614564
 30
0.0
 11
1175.467063046114
 21
92.17082721614564
 31
0.0
  0
LINE
  5
CEB1
330
18
100
AcDbEntity
  8
DRAW2
100
AcDbLine
 10
1156.467033046114
 20
94.17082721614566
 30
0.0
 11
1173.467063046113
 21
94.17082721614566
 31
0.0
  0
LINE
  5
CEB2
330
18
100
AcDbEntity
  8
DRAW2
100
AcDbLine
 10
1139.967063047059
 20
72.17082721614565
 30
0.0
 11
1202.967063047059
 21
72.17082721614565
 31
0.0
  0
LINE
  5
CEB3
330
18
100
AcDbEntity
  8
DRAW2
100
AcDbLine
 10
1139.967063047059
 20
114.1708272161455
 30
0.0
 11
1202.967063047059
 21
114.1708272161457
 31
0.0
  0
LINE
  5
CEB4
330
18
100
AcDbEntity
  8
DRAW2
100
AcDbLine
 10
1154.467063046114
 20
92.17082721614564
 30
0.0
 11
1154.467063046114
 21
72.17082721614565
 31
0.0
  0
LINE
  5
CEB5
330
18
100
AcDbEntity
  8
DRAW2
100
AcDbLine
 10
1139.967063047059
 20
72.17082721614565
 30
0.0
 11
1139.967063047059
 21
114.1708272161455
 31
0.0
  0
LINE
  5
CEB6
330
18
100
AcDbEntity
  8
DRAW2
100
AcDbLine
 10
1139.966453047059
 20
72.17077721614554
 30
0.0
 11
1139.966453047059
 21
56.17059721614566
 31
0.0
  0
LINE
  5
CEB7
330
18
100
AcDbEntity
  8
DRAW2
100
AcDbLine
 10
1109.967133047059
 20
124.6707477161455
 30
0.0
 11
1129.967133047059
 21
124.6707477161455
 31
0.0
  0
LINE
  5
CEB9
330
18
100
AcDbEntity
  8
DRAW2
100
AcDbLine
 10
1107.966703047059
 20
126.6697077161456
 30
0.0
 11
1109.966703047059
 21
124.6697077161456
 31
0.0
  0
LINE
  5
CEBA
330
18
100
AcDbEntity
  8
DRAW2
100
AcDbLine
 10
1154.467063046114
 20
92.17070721614573
 30
0.0
 11
1156.467003046114
 21
94.17070721614573
 31
0.0
  0
LINE
  5
CEBB
330
18
100
AcDbEntity
  8
DRAW2
100
AcDbLine
 10
1175.467063046114
 20
92.17082721614564
 30
0.0
 11
1175.467063046114
 21
72.17082721614565
 31
0.0
  0
LINE
  5
CEBC
330
18
100
AcDbEntity
  8
DRAW2
100
AcDbLine
 10
1202.967063047059
 20
72.17082721614565
 30
0.0
 11
1202.967063047059
 21
114.1708272161457
 31
0.0
  0
LINE
  5
CEBD
330
18
100
AcDbEntity
  8
DRAW2
100
AcDbLine
 10
1173.467123046114
 20
94.17076721614558
 30
0.0
 11
1175.467063046114
 21
92.17086721614554
 31
0.0
  0
LINE
  5
CEBE
330
18
100
AcDbEntity
  8
DRAW2
100
AcDbLine
 10
1202.966946095981
 20
131.1710518027837
 30
0.0
 11
1204.466976095979
 21
131.1710493996302
 31
0.0
  0
LINE
  5
CEBF
330
18
100
AcDbEntity
  8
DRAW2
100
AcDbLine
 10
1109.967063047059
 20
145.6708077161455
 30
0.0
 11
1129.967063047059
 21
145.6708077161455
 31
0.0
  0
LINE
  5
CEC0
330
18
100
AcDbEntity
  8
DRAW2
100
AcDbLine
 10
1109.965663047059
 20
145.6714477161455
 30
0.0
 11
1107.965723047059
 21
143.6714777161455
 31
0.0
  0
LINE
  5
CEC1
330
18
100
AcDbEntity
  8
DRAW2
100
AcDbLine
 10
1109.967063047059
 20
214.6712077161455
 30
0.0
 11
1129.967063047059
 21
214.6712077161455
 31
0.0
  0
LINE
  5
CEC2
330
18
100
AcDbEntity
  8
DRAW2
100
AcDbLine
 10
1109.967063047059
 20
193.6708077161456
 30
0.0
 11
1129.967063047059
 21
193.6708077161456
 31
0.0
  0
LINE
  5
CEC3
330
18
100
AcDbEntity
  8
DRAW2
100
AcDbLine
 10
1107.966213047059
 20
204.1720577161455
 30
0.0
 11
1107.966213047059
 21
212.6720577161456
 31
0.0
  0
LINE
  5
CEC4
330
18
100
AcDbEntity
  8
DRAW2
100
AcDbLine
 10
1109.965663047059
 20
204.1717577161455
 30
0.0
 11
1109.965663047059
 21
214.6717577161455
 31
0.0
  0
LINE
  5
CEC5
330
18
100
AcDbEntity
  8
DRAW2
100
AcDbLine
 10
1107.966643047059
 20
212.6723677161455
 30
0.0
 11
1109.966703047059
 21
214.6724277161455
 31
0.0
  0
LINE
  5
CEC6
330
18
100
AcDbEntity
  8
DRAW2
100
AcDbLine
 10
1107.966763047059
 20
195.6697377161455
 30
0.0
 11
1109.966763047059
 21
193.6696777161455
 31
0.0
  0
LINE
  5
CEC7
330
18
100
AcDbEntity
  8
DRAW2
100
AcDbLine
 10
1109.965663047059
 20
204.1702877161454
 30
0.0
 11
1109.965663047059
 21
193.6702877161456
 31
0.0
  0
LINE
  5
CEC8
330
18
100
AcDbEntity
  8
DRAW2
100
AcDbLine
 10
1107.966213047059
 20
204.1699877161455
 30
0.0
 11
1107.966213047059
 21
195.6699877161455
 31
0.0
  0
CIRCLE
  5
CECA
330
18
100
AcDbEntity
  8
DRAW2
100
AcDbCircle
 10
1220.967063047059
 20
184.1710172161455
 30
0.0
 40
2.5
  0
LINE
  5
CECB
330
18
100
AcDbEntity
  8
DRAW2
100
AcDbLine
 10
1214.258859114559
 20
186.1710172161459
 30
0.0
 11
1210.659298983014
 21
186.1710172161459
 31
0.0
  0
LINE
  5
CECC
330
18
100
AcDbEntity
  8
DRAW2
100
AcDbLine
 10
1214.258859114559
 20
182.1710172161459
 30
0.0
 11
1210.659298983014
 21
182.1710172161459
 31
0.0
  0
LINE
  5
CECE
330
18
100
AcDbEntity
  8
DRAW2
100
AcDbLine
 10
1139.967063047059
 20
336.1712072161456
 30
0.0
 11
1202.967063047059
 21
336.1712072161457
 31
0.0
  0
LINE
  5
CECF
330
18
100
AcDbEntity
  8
DRAW2
100
AcDbLine
 10
1139.967063047059
 20
294.1712072161456
 30
0.0
 11
1202.967063047059
 21
294.1712072161457
 31
0.0
  0
LINE
  5
CED0
330
18
100
AcDbEntity
  8
DRAW2
100
AcDbLine
 10
1109.967133047059
 20
283.6713277161456
 30
0.0
 11
1129.967133047059
 21
283.6713277161456
 31
0.0
  0
LINE
  5
CED1
330
18
100
AcDbEntity
  8
DRAW2
100
AcDbLine
 10
1109.967063047059
 20
262.6712077161454
 30
0.0
 11
1129.967063047059
 21
262.6712077161454
 31
0.0
  0
LINE
  5
CED3
330
18
100
AcDbEntity
  8
DRAW2
100
AcDbLine
 10
1109.965663047059
 20
262.6717577161455
 30
0.0
 11
1109.965663047059
 21
283.6717577161455
 31
0.0
  0
LINE
  5
CED4
330
18
100
AcDbEntity
  8
DRAW2
100
AcDbLine
 10
1107.966213047059
 20
264.6720577161456
 30
0.0
 11
1107.966213047059
 21
281.6720577161456
 31
0.0
  0
LINE
  5
CED5
330
18
100
AcDbEntity
  8
DRAW2
100
AcDbLine
 10
1109.965603047059
 20
262.6706577161455
 30
0.0
 11
1107.965663047059
 21
264.6705977161457
 31
0.0
  0
LINE
  5
CED6
330
18
100
AcDbEntity
  8
DRAW2
100
AcDbLine
 10
1107.966703047059
 20
281.6722477161456
 30
0.0
 11
1109.966703047059
 21
283.6722477161456
 31
0.0
  0
LINE
  5
CED7
330
18
100
AcDbEntity
  8
DRAW2
100
AcDbLine
 10
1139.967063047059
 20
336.1712072161456
 30
0.0
 11
1139.967063047059
 21
294.1712072161456
 31
0.0
  0
LINE
  5
CED8
330
18
100
AcDbEntity
  8
DRAW2
100
AcDbLine
 10
1225.280529567585
 20
241.6113054314278
 30
0.0
 11
1225.280529567585
 21
244.1113054314278
 31
0.0
  0
LINE
  5
CED9
330
18
100
AcDbEntity
  8
DRAW2
100
AcDbLine
 10
1216.217063047059
 20
247.4545721711645
 30
0.0
 11
1216.217063047059
 21
250.9545721711645
 31
0.0
  0
LINE
  5
CEDA
330
18
100
AcDbEntity
  8
DRAW2
100
AcDbLine
 10
1202.967063047059
 20
277.1709850326609
 30
0.0
 11
1204.46709304706
 21
277.1709850326609
 31
0.0
  0
LINE
  5
CEDB
330
18
100
AcDbEntity
  8
DRAW2
100
AcDbLine
 10
1202.967063047059
 20
336.1712072161457
 30
0.0
 11
1202.967063047059
 21
294.1712072161456
 31
0.0
  0
LINE
  5
CEDC
330
18
100
AcDbEntity
  8
DRAW2
100
AcDbLine
 10
1158.967553047059
 20
365.1712672161457
 30
0.0
 11
1170.967553047059
 21
365.1712672161457
 31
0.0
  0
LINE
  5
CEDD
330
18
100
AcDbEntity
  8
DRAW2
100
AcDbLine
 10
1156.967613047059
 20
363.1712672161456
 30
0.0
 11
1172.967613047059
 21
363.1712672161456
 31
0.0
  0
LINE
  5
CEDE
330
18
100
AcDbEntity
  8
DRAW2
100
AcDbLine
 10
1156.966333047058
 20
346.1719372161454
 30
0.0
 11
1156.966333047058
 21
363.1719372161454
 31
0.0
  0
LINE
  5
CEDF
330
18
100
AcDbEntity
  8
DRAW2
100
AcDbLine
 10
1156.967003047059
 20
363.1724272161456
 30
0.0
 11
1158.967003047059
 21
365.1724272161454
 31
0.0
  0
LINE
  5
CEE0
330
18
100
AcDbEntity
  8
DRAW2
100
AcDbLine
 10
1172.966453047059
 20
346.1721772161456
 30
0.0
 11
1172.966453047059
 21
363.1721772161456
 31
0.0
  0
LINE
  5
CEE1
330
18
100
AcDbEntity
  8
DRAW2
100
AcDbLine
 10
1172.966513047059
 20
363.1710872161454
 30
0.0
 11
1170.966583047059
 21
365.1710172161456
 31
0.0
  0
LINE
  5
CEE2
330
18
100
AcDbEntity
  8
DRAW2
100
AcDbLine
 10
1266.653596526532
 20
241.6113054314278
 30
0.0
 11
1264.153596526533
 21
240.3613054314277
 31
0.0
  0
LINE
  5
CEE3
330
18
100
AcDbEntity
  8
DRAW2
100
AcDbLine
 10
1264.153596526533
 20
240.3613054314277
 30
0.0
 11
1261.653596526532
 21
241.6113054314278
 31
0.0
  0
LINE
  5
CEE4
330
18
100
AcDbEntity
  8
DRAW2
100
AcDbLine
 10
1227.780529567586
 20
240.3613054314277
 30
0.0
 11
1230.280529567586
 21
241.6113054314278
 31
0.0
  0
LINE
  5
CEE5
330
18
100
AcDbEntity
  8
DRAW2
100
AcDbLine
 10
1288.967063047059
 20
114.1710172161455
 30
0.0
 11
1288.967063047059
 21
294.1712072161457
 31
0.0
  0
LINE
  5
CEE6
330
18
100
AcDbEntity
  8
DRAW2
100
AcDbLine
 10
1351.967063047059
 20
114.1710172161455
 30
0.0
 11
1351.967063047059
 21
294.1710182161456
 31
0.0
  0
LINE
  5
CEE7
330
18
100
AcDbEntity
  8
DRAW2
100
AcDbLine
 10
1287.467063047059
 20
293.1710172161456
 30
0.0
 11
1287.467063047059
 21
115.1710172161455
 31
0.0
  0
LINE
  5
CEEA
330
18
100
AcDbEntity
  8
DRAW2
100
AcDbLine
 10
1351.967063047059
 20
72.67082721614565
 30
0.0
 11
1379.967063047059
 21
72.67082721614565
 31
0.0
  0
LINE
  5
CEEB
330
18
100
AcDbEntity
  8
DRAW2
100
AcDbLine
 10
1351.967063047059
 20
113.6708272161456
 30
0.0
 11
1379.967063047059
 21
113.6708272161456
 31
0.0
  0
LINE
  5
CEEE
330
18
100
AcDbEntity
  8
DRAW2
100
AcDbLine
 10
1251.003384576549
 20
141.4265710201084
 30
0.0
 11
1251.003384576991
 21
139.4527157779396
 31
0.0
  0
LINE
  5
CEEF
330
18
100
AcDbEntity
  8
DRAW2
100
AcDbLine
 10
1260.930741516685
 20
141.4265710201083
 30
0.0
 11
1260.930741517127
 21
139.45271577914
 31
0.0
  0
LINE
  5
CEF0
330
18
100
AcDbEntity
  8
DRAW2
100
AcDbLine
 10
1231.003384577433
 20
141.4265710201083
 30
0.0
 11
1231.00338457699
 21
139.45271577914
 31
0.0
  0
LINE
  5
CEF1
330
18
100
AcDbEntity
  8
DRAW2
100
AcDbLine
 10
1240.930741517568
 20
141.4265710201084
 30
0.0
 11
1240.930741517127
 21
139.4527157779396
 31
0.0
  0
LINE
  5
CEF3
330
18
100
AcDbEntity
  8
DRAW2
100
AcDbLine
 10
1288.967063047059
 20
72.17082721614565
 30
0.0
 11
1351.967063047059
 21
72.17082721614565
 31
0.0
  0
LINE
  5
CEF4
330
18
100
AcDbEntity
  8
DRAW2
100
AcDbLine
 10
1288.967063047059
 20
114.1708272161457
 30
0.0
 11
1351.967063047059
 21
114.1708272161455
 31
0.0
  0
LINE
  5
CEF5
330
18
100
AcDbEntity
  8
DRAW2
100
AcDbLine
 10
1288.967063047059
 20
72.17082721614565
 30
0.0
 11
1288.967063047059
 21
114.1708272161457
 31
0.0
  0
LINE
  5
CEF7
330
18
100
AcDbEntity
  8
DRAW2
100
AcDbLine
 10
1260.884959893677
 20
139.7147507376742
 30
0.0
 11
1251.049166200441
 21
139.7147507376742
 31
0.0
  0
LINE
  5
CEF8
330
18
100
AcDbEntity
  8
DRAW2
100
AcDbLine
 10
1260.760081385128
 20
138.300537175301
 30
0.0
 11
1251.174044708989
 21
138.300537175301
 31
0.0
  0
LINE
  5
CEFA
330
18
100
AcDbEntity
  8
DRAW2
100
AcDbLine
 10
1231.049166200441
 20
139.7147507376742
 30
0.0
 11
1240.884959893677
 21
139.7147507376742
 31
0.0
  0
LINE
  5
CEFB
330
18
100
AcDbEntity
  8
DRAW2
100
AcDbLine
 10
1231.174044708988
 20
138.300537175301
 30
0.0
 11
1240.760081385128
 21
138.300537175301
 31
0.0
  0
LINE
  5
CEFD
330
18
100
AcDbEntity
  8
DRAW2
100
AcDbLine
 10
1288.967179998137
 20
131.1710518027837
 30
0.0
 11
1287.467149998139
 21
131.1710493996302
 31
0.0
  0
LINE
  5
CEFE
330
18
100
AcDbEntity
  8
DRAW2
100
AcDbLine
 10
1316.467063048004
 20
92.17082721614564
 30
0.0
 11
1316.467063048004
 21
72.17082721614565
 31
0.0
  0
LINE
  5
CEFF
330
18
100
AcDbEntity
  8
DRAW2
100
AcDbLine
 10
1337.467063048004
 20
92.17082721614564
 30
0.0
 11
1337.467063048004
 21
72.17082721614565
 31
0.0
  0
LINE
  5
CF00
330
18
100
AcDbEntity
  8
DRAW2
100
AcDbLine
 10
1351.967063047059
 20
114.1708272161455
 30
0.0
 11
1351.967063047059
 21
72.17082721614565
 31
0.0
  0
LINE
  5
CF01
330
18
100
AcDbEntity
  8
DRAW2
100
AcDbLine
 10
1351.966453047059
 20
72.17077721614554
 30
0.0
 11
1351.966453047059
 21
56.16998721614561
 31
0.0
  0
LINE
  5
CF02
330
18
100
AcDbEntity
  8
DRAW2
100
AcDbLine
 10
1318.467033048004
 20
94.17082721614566
 30
0.0
 11
1335.467063048004
 21
94.17082721614566
 31
0.0
  0
LINE
  5
CF03
330
18
100
AcDbEntity
  8
DRAW2
100
AcDbLine
 10
1316.467063048004
 20
92.17082721614564
 30
0.0
 11
1337.467063048004
 21
92.17082721614564
 31
0.0
  0
LINE
  5
CF04
330
18
100
AcDbEntity
  8
DRAW2
100
AcDbLine
 10
1316.467063048004
 20
92.17070721614573
 30
0.0
 11
1318.467003048004
 21
94.17070721614573
 31
0.0
  0
LINE
  5
CF05
330
18
100
AcDbEntity
  8
DRAW2
100
AcDbLine
 10
1335.467123048004
 20
94.17076721614558
 30
0.0
 11
1337.467063048004
 21
92.17086721614554
 31
0.0
  0
CIRCLE
  5
CF06
330
18
100
AcDbEntity
  8
DRAW2
100
AcDbCircle
 10
1270.967063047059
 20
184.1710172161455
 30
0.0
 40
11.0
  0
CIRCLE
  5
CF07
330
18
100
AcDbEntity
  8
DRAW2
100
AcDbCircle
 10
1270.967063047059
 20
184.1710172161455
 30
0.0
 40
10.5
  0
LINE
  5
CF09
330
18
100
AcDbEntity
  8
DRAW2
100
AcDbLine
 10
1227.675266979558
 20
182.1710172161459
 30
0.0
 11
1231.274827111104
 21
182.1710172161459
 31
0.0
  0
LINE
  5
CF0A
330
18
100
AcDbEntity
  8
DRAW2
100
AcDbLine
 10
1227.675266979558
 20
186.1710172161459
 30
0.0
 11
1231.274827111103
 21
186.1710172161459
 31
0.0
  0
CIRCLE
  5
CF0B
330
18
100
AcDbEntity
  8
DRAW2
100
AcDbCircle
 10
1270.967063047059
 20
184.1710172161455
 30
0.0
 40
5.694887103024191
  0
CIRCLE
  5
CF0C
330
18
100
AcDbEntity
  8
DRAW3
100
AcDbCircle
 10
1270.967063047059
 20
184.1710172161455
 30
0.0
 40
6.578500006249994
  0
CIRCLE
  5
CF0D
330
18
100
AcDbEntity
  8
DRAW2
100
AcDbCircle
 10
1270.967063047059
 20
184.1710172161455
 30
0.0
 40
7.0
  0
LINE
  5
CF0E
330
18
100
AcDbEntity
  8
DRAW2
100
AcDbLine
 10
1264.25885911456
 20
182.1710172161459
 30
0.0
 11
1260.659298983014
 21
182.1710172161459
 31
0.0
  0
LINE
  5
CF0F
330
18
100
AcDbEntity
  8
DRAW2
100
AcDbLine
 10
1264.25885911456
 20
186.1710172161459
 30
0.0
 11
1260.659298983014
 21
186.1710172161459
 31
0.0
  0
CIRCLE
  5
CF10
330
18
100
AcDbEntity
  8
DRAW2
100
AcDbCircle
 10
1270.967063047059
 20
184.1710172161455
 30
0.0
 40
2.5
  0
LINE
  5
CF11
330
18
100
AcDbEntity
  8
DRAW2
100
AcDbLine
 10
1277.675266979559
 20
182.1710172161459
 30
0.0
 11
1281.274827111103
 21
182.1710172161459
 31
0.0
  0
LINE
  5
CF12
330
18
100
AcDbEntity
  8
DRAW2
100
AcDbLine
 10
1277.675266979558
 20
186.1710172161459
 30
0.0
 11
1281.274827111103
 21
186.1710172161459
 31
0.0
  0
LINE
  5
CF13
330
18
100
AcDbEntity
  8
DRAW2
100
AcDbLine
 10
1381.968473047058
 20
145.6702872161455
 30
0.0
 11
1381.968473047058
 21
124.6702872161455
 31
0.0
  0
LINE
  5
CF14
330
18
100
AcDbEntity
  8
DRAW2
100
AcDbLine
 10
1383.967923047059
 20
143.6699872161455
 30
0.0
 11
1383.967923047059
 21
126.6699872161455
 31
0.0
  0
LINE
  5
CF15
330
18
100
AcDbEntity
  8
DRAW2
100
AcDbLine
 10
1379.967063047059
 20
72.67082721614565
 30
0.0
 11
1379.967063047059
 21
113.6708272161456
 31
0.0
  0
LINE
  5
CF16
330
18
100
AcDbEntity
  8
DRAW2
100
AcDbLine
 10
1381.967063047059
 20
111.6708272161456
 30
0.0
 11
1381.967063047059
 21
74.67082721614565
 31
0.0
  0
LINE
  5
CF17
330
18
100
AcDbEntity
  8
DRAW2
100
AcDbLine
 10
1381.967063047059
 20
74.67082721614565
 30
0.0
 11
1379.967063047059
 21
72.67082721614565
 31
0.0
  0
LINE
  5
CF18
330
18
100
AcDbEntity
  8
DRAW2
100
AcDbLine
 10
1379.967063047059
 20
113.6708272161456
 30
0.0
 11
1381.967063047059
 21
111.6708272161456
 31
0.0
  0
LINE
  5
CF19
330
18
100
AcDbEntity
  8
DRAW2
100
AcDbLine
 10
1381.967003047058
 20
124.6707472161455
 30
0.0
 11
1361.967003047059
 21
124.6707472161455
 31
0.0
  0
LINE
  5
CF1A
330
18
100
AcDbEntity
  8
DRAW2
100
AcDbLine
 10
1383.967493047059
 20
126.6697072161455
 30
0.0
 11
1381.967493047059
 21
124.6696772161455
 31
0.0
  0
LINE
  5
CF1C
330
18
100
AcDbEntity
  8
DRAW2
100
AcDbLine
 10
1381.967063047059
 20
145.6708072161456
 30
0.0
 11
1361.967063047059
 21
145.6708072161456
 31
0.0
  0
LINE
  5
CF1D
330
18
100
AcDbEntity
  8
DRAW2
100
AcDbLine
 10
1381.968473047058
 20
145.6714472161455
 30
0.0
 11
1383.968413047059
 21
143.6715072161455
 31
0.0
  0
LINE
  5
CF1E
330
18
100
AcDbEntity
  8
DRAW2
100
AcDbLine
 10
1381.967063047059
 20
214.6712072161455
 30
0.0
 11
1361.967063047059
 21
214.6712072161455
 31
0.0
  0
LINE
  5
CF1F
330
18
100
AcDbEntity
  8
DRAW2
100
AcDbLine
 10
1381.967063047059
 20
193.6708072161455
 30
0.0
 11
1361.967063047059
 21
193.6708072161455
 31
0.0
  0
LINE
  5
CF21
330
18
100
AcDbEntity
  8
DRAW2
100
AcDbLine
 10
1383.967923047059
 20
204.1720572161455
 30
0.0
 11
1383.967923047059
 21
212.6720572161455
 31
0.0
  0
LINE
  5
CF22
330
18
100
AcDbEntity
  8
DRAW2
100
AcDbLine
 10
1381.968473047058
 20
204.1717572161455
 30
0.0
 11
1381.968473047058
 21
214.6717572161455
 31
0.0
  0
LINE
  5
CF23
330
18
100
AcDbEntity
  8
DRAW2
100
AcDbLine
 10
1383.967433047059
 20
212.6723672161455
 30
0.0
 11
1381.967433047059
 21
214.6723672161455
 31
0.0
  0
LINE
  5
CF24
330
18
100
AcDbEntity
  8
DRAW2
100
AcDbLine
 10
1383.967433047059
 20
195.6697372161455
 30
0.0
 11
1381.967373047059
 21
193.6696472161455
 31
0.0
  0
LINE
  5
CF25
330
18
100
AcDbEntity
  8
DRAW2
100
AcDbLine
 10
1381.968473047058
 20
204.1702872161454
 30
0.0
 11
1381.968473047058
 21
193.6702872161456
 31
0.0
  0
LINE
  5
CF26
330
18
100
AcDbEntity
  8
DRAW2
100
AcDbLine
 10
1383.967923047059
 20
204.1699872161455
 30
0.0
 11
1383.967923047059
 21
195.6699872161455
 31
0.0
  0
LINE
  5
CF27
330
18
100
AcDbEntity
  8
DRAW2
100
AcDbLine
 10
1351.967063047059
 20
335.6712072161456
 30
0.0
 11
1379.967063047059
 21
335.6712072161456
 31
0.0
  0
LINE
  5
CF28
330
18
100
AcDbEntity
  8
DRAW2
100
AcDbLine
 10
1351.967063047059
 20
294.6712072161456
 30
0.0
 11
1379.967063047059
 21
294.6712072161456
 31
0.0
  0
LINE
  5
CF2B
330
18
100
AcDbEntity
  8
DRAW2
100
AcDbLine
 10
1288.967063047059
 20
336.1712072161457
 30
0.0
 11
1351.967063047059
 21
336.1712072161456
 31
0.0
  0
LINE
  5
CF2C
330
18
100
AcDbEntity
  8
DRAW2
100
AcDbLine
 10
1288.967063047059
 20
294.1712072161457
 30
0.0
 11
1351.967063047059
 21
294.1712072161456
 31
0.0
  0
LINE
  5
CF2D
330
18
100
AcDbEntity
  8
DRAW2
100
AcDbLine
 10
1251.950295939227
 20
270.1140250629536
 30
0.0
 11
1251.950295939227
 21
264.2250523172193
 31
0.0
  0
LINE
  5
CF2E
330
18
100
AcDbEntity
  8
DRAW2
100
AcDbLine
 10
1239.983830155002
 20
264.2250523172193
 30
0.0
 11
1239.983830155002
 21
270.1140250629536
 31
0.0
  0
LINE
  5
CF2F
330
18
100
AcDbEntity
  8
DRAW2
100
AcDbLine
 10
1242.650438256759
 20
254.4695721711643
 30
0.0
 11
1249.28368783747
 21
254.4695721711643
 31
0.0
  0
LINE
  5
CF30
330
18
100
AcDbEntity
  8
DRAW2
100
AcDbLine
 10
1242.650438256759
 20
257.4695721711643
 30
0.0
 11
1249.28368783747
 21
257.4695721711643
 31
0.0
  0
LINE
  5
CF31
330
18
100
AcDbEntity
  8
DRAW2
100
AcDbLine
 10
1239.983830155002
 20
261.3676694851997
 30
0.0
 11
1245.967063047114
 21
258.5256276033321
 31
0.0
  0
LINE
  5
CF32
330
18
100
AcDbEntity
  8
DRAW2
100
AcDbLine
 10
1239.983830155002
 20
264.2250523172193
 30
0.0
 11
1245.967063047114
 21
261.3830104353518
 31
0.0
  0
LINE
  5
CF33
330
18
100
AcDbEntity
  8
DRAW2
100
AcDbLine
 10
1242.650438256759
 20
257.4695721711643
 30
0.0
 11
1242.650438256759
 21
254.4695721711643
 31
0.0
  0
LINE
  5
CF34
330
18
100
AcDbEntity
  8
DRAW2
100
AcDbLine
 10
1240.967063047114
 20
258.6364144516549
 30
0.0
 11
1240.967063047114
 21
255.6364144516549
 31
0.0
  0
LINE
  5
CF35
330
18
100
AcDbEntity
  8
DRAW2
100
AcDbLine
 10
1240.967063047114
 20
255.6364144516549
 30
0.0
 11
1242.650438256759
 21
254.4695721711643
 31
0.0
  0
LINE
  5
CF36
330
18
100
AcDbEntity
  8
DRAW2
100
AcDbLine
 10
1240.967063047114
 20
258.6364144516549
 30
0.0
 11
1242.650438256759
 21
257.4695721711643
 31
0.0
  0
LINE
  5
CF37
330
18
100
AcDbEntity
  8
DRAW2
100
AcDbLine
 10
1240.967063047114
 20
258.6364144516549
 30
0.0
 11
1240.967063047114
 21
260.9006328330417
 31
0.0
  0
LINE
  5
CF38
330
18
100
AcDbEntity
  8
DRAW2
100
AcDbLine
 10
1239.983830155002
 20
261.3676694851997
 30
0.0
 11
1239.983830155002
 21
264.2250523172193
 31
0.0
  0
LINE
  5
CF39
330
18
100
AcDbEntity
  8
DRAW2
100
AcDbLine
 10
1227.780529567586
 20
245.3613054314278
 30
0.0
 11
1230.280529567586
 21
244.1113054314278
 31
0.0
  0
LINE
  5
CF3A
330
18
100
AcDbEntity
  8
DRAW2
100
AcDbLine
 10
1230.280529567586
 20
244.1113054314278
 30
0.0
 11
1230.280529567586
 21
241.6113054314278
 31
0.0
  0
LINE
  5
CF3B
330
18
100
AcDbEntity
  8
DRAW2
100
AcDbLine
 10
1250.967063047114
 20
258.636414451655
 30
0.0
 11
1250.967063047114
 21
255.6364144516549
 31
0.0
  0
LINE
  5
CF3C
330
18
100
AcDbEntity
  8
DRAW2
100
AcDbLine
 10
1249.28368783747
 20
257.4695721711643
 30
0.0
 11
1249.28368783747
 21
254.4695721711643
 31
0.0
  0
LINE
  5
CF3D
330
18
100
AcDbEntity
  8
DRAW2
100
AcDbLine
 10
1250.967063047114
 20
255.6364144516549
 30
0.0
 11
1249.28368783747
 21
254.4695721711643
 31
0.0
  0
LINE
  5
CF3E
330
18
100
AcDbEntity
  8
DRAW2
100
AcDbLine
 10
1250.967063047114
 20
258.6364144516549
 30
0.0
 11
1249.28368783747
 21
257.4695721711643
 31
0.0
  0
LINE
  5
CF3F
330
18
100
AcDbEntity
  8
DRAW2
100
AcDbLine
 10
1250.967063047114
 20
258.636414451655
 30
0.0
 11
1250.967063047114
 21
260.9006328330417
 31
0.0
  0
LINE
  5
CF40
330
18
100
AcDbEntity
  8
DRAW2
100
AcDbLine
 10
1245.967063047114
 20
258.5256276033321
 30
0.0
 11
1251.950295939227
 21
261.3676694851997
 31
0.0
  0
LINE
  5
CF41
330
18
100
AcDbEntity
  8
DRAW2
100
AcDbLine
 10
1251.950295939227
 20
261.3676694851997
 30
0.0
 11
1251.950295939227
 21
264.2250523172193
 31
0.0
  0
LINE
  5
CF42
330
18
100
AcDbEntity
  8
DRAW2
100
AcDbLine
 10
1245.967063047114
 20
258.5256276033321
 30
0.0
 11
1245.967063047114
 21
261.3830104353518
 31
0.0
  0
LINE
  5
CF43
330
18
100
AcDbEntity
  8
DRAW2
100
AcDbLine
 10
1245.967063047114
 20
261.3830104353518
 30
0.0
 11
1251.950295939227
 21
264.2250523172193
 31
0.0
  0
LINE
  5
CF44
330
18
100
AcDbEntity
  8
DRAW2
100
AcDbLine
 10
1240.466908520912
 20
270.3714684889827
 30
0.0
 11
1239.983830155002
 21
270.1140250629536
 31
0.0
  0
LINE
  5
CF45
330
18
100
AcDbEntity
  8
DRAW2
100
AcDbLine
 10
1240.217063047114
 20
267.6695386900866
 30
0.0
 11
1240.217063047114
 21
268.9195386900866
 31
0.0
  0
LINE
  5
CF46
330
18
100
AcDbEntity
  8
DRAW2
100
AcDbLine
 10
1248.967063047113
 20
269.1695386900866
 30
0.0
 11
1248.967063047113
 21
288.7663762377005
 31
0.0
  0
LINE
  5
CF47
330
18
100
AcDbEntity
  8
DRAW2
100
AcDbLine
 10
1242.967063047114
 20
269.1695386900866
 30
0.0
 11
1242.967063047114
 21
286.8255474010103
 31
0.0
  0
LINE
  5
CF48
330
18
100
AcDbEntity
  8
DRAW2
100
AcDbLine
 10
1251.467217573317
 20
270.3714684889827
 30
0.0
 11
1251.950295939227
 21
270.1140250629536
 31
0.0
  0
LINE
  5
CF49
330
18
100
AcDbEntity
  8
DRAW2
100
AcDbLine
 10
1251.717063047114
 20
268.9195386900866
 30
0.0
 11
1251.717063047114
 21
267.6695386900866
 31
0.0
  0
LINE
  5
CF4A
330
18
100
AcDbEntity
  8
DRAW2
100
AcDbLine
 10
1266.653596526532
 20
244.1113054314278
 30
0.0
 11
1264.153596526533
 21
245.3613054314278
 31
0.0
  0
LINE
  5
CF4B
330
18
100
AcDbEntity
  8
DRAW2
100
AcDbLine
 10
1264.153596526533
 20
245.3613054314278
 30
0.0
 11
1261.653596526532
 21
244.1113054314278
 31
0.0
  0
LINE
  5
CF4C
330
18
100
AcDbEntity
  8
DRAW2
100
AcDbLine
 10
1261.653596526532
 20
244.1113054314278
 30
0.0
 11
1261.653596526532
 21
241.6113054314278
 31
0.0
  0
LINE
  5
CF4D
330
18
100
AcDbEntity
  8
DRAW2
100
AcDbLine
 10
1266.653596526532
 20
241.6113054314278
 30
0.0
 11
1266.653596526532
 21
244.1113054314278
 31
0.0
  0
LINE
  5
CF4E
330
18
100
AcDbEntity
  8
DRAW2
100
AcDbLine
 10
1275.717063047059
 20
250.9545721711645
 30
0.0
 11
1275.717063047059
 21
247.4545721711645
 31
0.0
  0
LINE
  5
CF4F
330
18
100
AcDbEntity
  8
DRAW2
100
AcDbLine
 10
1288.967063047059
 20
277.1709850326609
 30
0.0
 11
1287.467033047058
 21
277.1709850326609
 31
0.0
  0
LINE
  5
CF50
330
18
100
AcDbEntity
  8
DRAW2
100
AcDbLine
 10
1288.967063047059
 20
336.1712072161457
 30
0.0
 11
1288.967063047059
 21
294.1712072161456
 31
0.0
  0
LINE
  5
CF51
330
18
100
AcDbEntity
  8
DRAW2
100
AcDbLine
 10
1351.967063047059
 20
294.1712072161456
 30
0.0
 11
1351.967063047059
 21
336.1712072161456
 31
0.0
  0
LINE
  5
CF52
330
18
100
AcDbEntity
  8
DRAW2
100
AcDbLine
 10
1320.967673047059
 20
365.1712672161457
 30
0.0
 11
1332.967673047058
 21
365.1712672161457
 31
0.0
  0
LINE
  5
CF53
330
18
100
AcDbEntity
  8
DRAW2
100
AcDbLine
 10
1318.967733047059
 20
363.1712672161456
 30
0.0
 11
1334.967733047059
 21
363.1712672161456
 31
0.0
  0
LINE
  5
CF54
330
18
100
AcDbEntity
  8
DRAW2
100
AcDbLine
 10
1318.966453047059
 20
346.1719372161454
 30
0.0
 11
1318.966453047059
 21
363.1719372161454
 31
0.0
  0
LINE
  5
CF55
330
18
100
AcDbEntity
  8
DRAW2
100
AcDbLine
 10
1318.967063047059
 20
363.1725472161456
 30
0.0
 11
1320.967063047059
 21
365.1725472161456
 31
0.0
  0
LINE
  5
CF56
330
18
100
AcDbEntity
  8
DRAW2
100
AcDbLine
 10
1334.966583047059
 20
346.1721772161456
 30
0.0
 11
1334.966583047059
 21
363.1721772161456
 31
0.0
  0
LINE
  5
CF57
330
18
100
AcDbEntity
  8
DRAW2
100
AcDbLine
 10
1334.966643047059
 20
363.1710172161456
 30
0.0
 11
1332.966703047059
 21
365.1710172161456
 31
0.0
  0
LINE
  5
CF58
330
18
100
AcDbEntity
  8
DRAW2
100
AcDbLine
 10
1381.968473047058
 20
262.6717572161455
 30
0.0
 11
1381.968473047058
 21
283.6717572161455
 31
0.0
  0
LINE
  5
CF59
330
18
100
AcDbEntity
  8
DRAW2
100
AcDbLine
 10
1383.967923047059
 20
264.6720572161456
 30
0.0
 11
1383.967923047059
 21
281.6720572161456
 31
0.0
  0
LINE
  5
CF5A
330
18
100
AcDbEntity
  8
DRAW2
100
AcDbLine
 10
1381.967063047059
 20
262.6712072161456
 30
0.0
 11
1361.967063047059
 21
262.6712072161456
 31
0.0
  0
LINE
  5
CF5B
330
18
100
AcDbEntity
  8
DRAW2
100
AcDbLine
 10
1381.968473047058
 20
262.6705972161456
 30
0.0
 11
1383.968413047059
 21
264.6705372161455
 31
0.0
  0
LINE
  5
CF5C
330
18
100
AcDbEntity
  8
DRAW2
100
AcDbLine
 10
1381.967003047058
 20
283.6713272161456
 30
0.0
 11
1361.967003047059
 21
283.6713272161456
 31
0.0
  0
LINE
  5
CF5D
330
18
100
AcDbEntity
  8
DRAW2
100
AcDbLine
 10
1383.967493047059
 20
281.6723072161456
 30
0.0
 11
1381.967433047059
 21
283.6723672161456
 31
0.0
  0
LINE
  5
CF5E
330
18
100
AcDbEntity
  8
DRAW2
100
AcDbLine
 10
1379.967063047059
 20
294.6712072161456
 30
0.0
 11
1379.967063047059
 21
335.6712072161456
 31
0.0
  0
LINE
  5
CF5F
330
18
100
AcDbEntity
  8
DRAW2
100
AcDbLine
 10
1381.967063047059
 20
296.6712072161456
 30
0.0
 11
1381.967063047059
 21
333.6712072161456
 31
0.0
  0
LINE
  5
CF60
330
18
100
AcDbEntity
  8
DRAW2
100
AcDbLine
 10
1379.967063047059
 20
294.6712072161456
 30
0.0
 11
1381.967063047059
 21
296.6712072161456
 31
0.0
  0
LINE
  5
CF61
330
18
100
AcDbEntity
  8
DRAW2
100
AcDbLine
 10
1381.967063047059
 20
333.6712072161456
 30
0.0
 11
1379.967063047059
 21
335.6712072161456
 31
0.0
  0
LINE
  5
CF64
330
18
100
AcDbEntity
  8
DRAW2
100
AcDbLine
 10
1239.983830155979
 20
480.1768199029748
 30
0.0
 11
1204.467063047059
 21
480.1768199029748
 31
0.0
  0
LINE
  5
CF65
330
18
100
AcDbEntity
  8
DRAW2
100
AcDbLine
 10
1225.280529568608
 20
489.1859090885119
 30
0.0
 11
1227.780529568607
 21
488.4642212520249
 31
0.0
  0
LINE
  5
CF66
330
18
100
AcDbEntity
  8
DRAW2
100
AcDbLine
 10
1225.280529568608
 20
490.6292847614861
 30
0.0
 11
1227.780529568607
 21
491.350972597973
 31
0.0
  0
LINE
  5
CF67
330
18
100
AcDbEntity
  8
DRAW2
100
AcDbLine
 10
1231.467063047059
 20
463.1768199029748
 30
0.0
 11
1210.467063047059
 21
463.1768199029748
 31
0.0
  0
LINE
  5
CF68
330
18
100
AcDbEntity
  8
DRAW2
100
AcDbLine
 10
1288.966393047059
 20
562.1768199029746
 30
0.0
 11
1202.966393047059
 21
562.1768199029746
 31
0.0
  0
LINE
  5
CF69
330
18
100
AcDbEntity
  8
DRAW2
100
AcDbLine
 10
1288.966393047059
 20
594.1768199029747
 30
0.0
 11
1202.966393047059
 21
594.1768199029747
 31
0.0
  0
LINE
  5
CF6A
330
18
100
AcDbEntity
  8
DRAW2
100
AcDbLine
 10
1287.467063047059
 20
676.1768199029748
 30
0.0
 11
1204.467063047059
 21
676.1768199029748
 31
0.0
  0
LINE
  5
CF6B
330
18
100
AcDbEntity
  8
DRAW2
100
AcDbLine
 10
1204.467063047059
 20
537.1524369094428
 30
0.0
 11
1287.467063047059
 21
537.1524369094428
 31
0.0
  0
LINE
  5
CF6C
330
18
100
AcDbEntity
  8
DRAW2
100
AcDbLine
 10
1204.467063047059
 20
619.2012028965067
 30
0.0
 11
1287.467063047059
 21
619.2012028965067
 31
0.0
  0
LINE
  5
CF6D
330
18
100
AcDbEntity
  8
DRAW2
100
AcDbLine
 10
1204.467063047059
 20
594.1768199029747
 30
0.0
 11
1204.467063047059
 21
676.1768199029748
 31
0.0
  0
LINE
  5
CF6E
330
18
100
AcDbEntity
  8
DRAW2
100
AcDbLine
 10
1202.966393047059
 20
480.1768199029748
 30
0.0
 11
1202.966393047059
 21
676.1768199029748
 31
0.0
  0
LINE
  5
CF6F
330
18
100
AcDbEntity
  8
DRAW2
100
AcDbLine
 10
1139.966393047058
 20
480.1768199029748
 30
0.0
 11
1139.966393047058
 21
676.1768199029748
 31
0.0
  0
LINE
  5
CF70
330
18
100
AcDbEntity
  8
DRAW2
100
AcDbLine
 10
1139.967063047059
 20
676.1768199029748
 30
0.0
 11
1139.967063047059
 21
480.1768199029748
 31
0.0
  0
LINE
  5
CF71
330
18
100
AcDbEntity
  8
DRAW2
100
AcDbLine
 10
1129.967063047059
 20
676.1768199029748
 30
0.0
 11
1129.967063047059
 21
480.1768199029748
 31
0.0
  0
LINE
  5
CF72
330
18
100
AcDbEntity
  8
DRAW2
100
AcDbLine
 10
1202.966393047059
 20
540.6768199029746
 30
0.0
 11
1202.966393047059
 21
615.6768199029747
 31
0.0
  0
LINE
  5
CF73
330
18
100
AcDbEntity
  8
DRAW2
100
AcDbLine
 10
1139.966393047058
 20
615.6768199029747
 30
0.0
 11
1139.966393047058
 21
540.6768199029746
 31
0.0
  0
LINE
  5
CF74
330
18
100
AcDbEntity
  8
DRAW2
100
AcDbLine
 10
1202.966393047059
 20
535.1768199029748
 30
0.0
 11
1202.966393047059
 21
621.1768199029748
 31
0.0
  0
LINE
  5
CF75
330
18
100
AcDbEntity
  8
DRAW2
100
AcDbLine
 10
1139.966393047058
 20
621.1768199029748
 30
0.0
 11
1139.966393047058
 21
535.1768199029748
 31
0.0
  0
LINE
  5
CF76
330
18
100
AcDbEntity
  8
DRAW2
100
AcDbLine
 10
1204.467063047059
 20
480.1768199029748
 30
0.0
 11
1204.467063047059
 21
562.1768199029746
 31
0.0
  0
LINE
  5
CF77
330
18
100
AcDbEntity
  8
DRAW2
100
AcDbLine
 10
1109.965663047059
 20
548.6763076987593
 30
0.0
 11
1109.965663047059
 21
527.6763076987593
 31
0.0
  0
LINE
  5
CF78
330
18
100
AcDbEntity
  8
DRAW2
100
AcDbLine
 10
1107.966213047059
 20
546.6760076987593
 30
0.0
 11
1107.966213047059
 21
529.6760076987593
 31
0.0
  0
LINE
  5
CF79
330
18
100
AcDbEntity
  8
DRAW2
100
AcDbLine
 10
1139.966393047058
 20
539.3953810436442
 30
0.0
 11
1202.966393047059
 21
539.3953810436442
 31
0.0
  0
LINE
  5
CF7A
330
18
100
AcDbEntity
  8
DRAW2
100
AcDbLine
 10
1139.966393047058
 20
535.1768199029748
 30
0.0
 11
1202.966393047059
 21
535.1768199029748
 31
0.0
  0
LINE
  5
CF7B
330
18
100
AcDbEntity
  8
DRAW2
100
AcDbLine
 10
1139.966393047058
 20
480.1768199029748
 30
0.0
 11
1202.966393047059
 21
480.1768199029748
 31
0.0
  0
LINE
  5
CF7C
330
18
100
AcDbEntity
  8
DRAW2
100
AcDbLine
 10
1107.966213047059
 20
506.6759999029748
 30
0.0
 11
1107.966213047059
 21
489.6759999029747
 31
0.0
  0
LINE
  5
CF7D
330
18
100
AcDbEntity
  8
DRAW2
100
AcDbLine
 10
1109.965663047059
 20
508.6762999029747
 30
0.0
 11
1109.965663047059
 21
487.6762999029747
 31
0.0
  0
LINE
  5
CF7E
330
18
100
AcDbEntity
  8
DRAW2
100
AcDbLine
 10
1109.967133047059
 20
487.6767599029746
 30
0.0
 11
1129.967133047059
 21
487.6767599029746
 31
0.0
  0
LINE
  5
CF7F
330
18
100
AcDbEntity
  8
DRAW2
100
AcDbLine
 10
1107.966703047059
 20
489.6757199029748
 30
0.0
 11
1109.966703047059
 21
487.6757199029747
 31
0.0
  0
LINE
  5
CF80
330
18
100
AcDbEntity
  8
DRAW2
100
AcDbLine
 10
1139.967063047059
 20
480.1768199029748
 30
0.0
 11
1129.967063047059
 21
480.1768199029748
 31
0.0
  0
LINE
  5
CF82
330
18
100
AcDbEntity
  8
DRAW2
100
AcDbLine
 10
1109.967133047059
 20
527.6767676987591
 30
0.0
 11
1129.967133047059
 21
527.6767676987591
 31
0.0
  0
LINE
  5
CF84
330
18
100
AcDbEntity
  8
DRAW2
100
AcDbLine
 10
1109.967063047059
 20
508.6768199029747
 30
0.0
 11
1129.967063047059
 21
508.6768199029747
 31
0.0
  0
LINE
  5
CF85
330
18
100
AcDbEntity
  8
DRAW2
100
AcDbLine
 10
1109.965663047059
 20
508.6774599029746
 30
0.0
 11
1107.965723047059
 21
506.6774899029747
 31
0.0
  0
LINE
  5
CF86
330
18
100
AcDbEntity
  8
DRAW2
100
AcDbLine
 10
1107.966703047059
 20
529.6757276987594
 30
0.0
 11
1109.966703047059
 21
527.6757276987592
 31
0.0
  0
LINE
  5
CF87
330
18
100
AcDbEntity
  8
DRAW2
100
AcDbLine
 10
1139.967063047059
 20
537.1524369094428
 30
0.0
 11
1129.967063047059
 21
537.1524369094428
 31
0.0
  0
LINE
  5
CF88
330
18
100
AcDbEntity
  8
DRAW2
100
AcDbLine
 10
1210.467063047059
 20
480.1768199029748
 30
0.0
 11
1210.467063047059
 21
463.1768199029748
 31
0.0
  0
LINE
  5
CF89
330
18
100
AcDbEntity
  8
DRAW2
100
AcDbLine
 10
1225.280529568608
 20
489.1859090885119
 30
0.0
 11
1225.280529568608
 21
490.6292847614861
 31
0.0
  0
LINE
  5
CF8A
330
18
100
AcDbEntity
  8
DRAW2
100
AcDbLine
 10
1216.217063048081
 20
496.889647732568
 30
0.0
 11
1216.217063048081
 21
499.3074583737311
 31
0.0
  0
CIRCLE
  5
CF8B
330
18
100
AcDbEntity
  8
DRAW2
100
AcDbCircle
 10
1164.966393047059
 20
551.1768199029748
 30
0.0
 40
6.0
  0
CIRCLE
  5
CF8C
330
18
100
AcDbEntity
  8
DRAW2
100
AcDbCircle
 10
1164.966393047059
 20
551.1768199029748
 30
0.0
 40
8.0
  0
CIRCLE
  5
CF8D
330
18
100
AcDbEntity
  8
DRAW2
100
AcDbCircle
 10
1164.966393047059
 20
605.1768199029748
 30
0.0
 40
8.0
  0
CIRCLE
  5
CF8E
330
18
100
AcDbEntity
  8
DRAW2
100
AcDbCircle
 10
1164.966393047059
 20
605.1768199029748
 30
0.0
 40
6.0
  0
LINE
  5
CF8F
330
18
100
AcDbEntity
  8
DRAW2
100
AcDbLine
 10
1202.966393047059
 20
621.1768199029748
 30
0.0
 11
1139.966393047058
 21
621.1768199029748
 31
0.0
  0
LINE
  5
CF90
330
18
100
AcDbEntity
  8
DRAW2
100
AcDbLine
 10
1139.966393047058
 20
616.9582587623055
 30
0.0
 11
1202.966393047059
 21
616.9582587623055
 31
0.0
  0
LINE
  5
CF91
330
18
100
AcDbEntity
  8
DRAW2
100
AcDbLine
 10
1109.967063047059
 20
548.6768276987593
 30
0.0
 11
1129.967063047059
 21
548.6768276987593
 31
0.0
  0
LINE
  5
CF92
330
18
100
AcDbEntity
  8
DRAW2
100
AcDbLine
 10
1109.965663047059
 20
548.6774676987591
 30
0.0
 11
1107.965723047059
 21
546.6774976987591
 31
0.0
  0
LINE
  5
CF93
330
18
100
AcDbEntity
  8
DRAW2
100
AcDbLine
 10
1109.967063047059
 20
628.6768270970866
 30
0.0
 11
1129.967063047059
 21
628.6768270970866
 31
0.0
  0
LINE
  5
CF94
330
18
100
AcDbEntity
  8
DRAW2
100
AcDbLine
 10
1109.967133047059
 20
607.6767670970864
 30
0.0
 11
1129.967133047059
 21
607.6767670970864
 31
0.0
  0
LINE
  5
CF96
330
18
100
AcDbEntity
  8
DRAW2
100
AcDbLine
 10
1109.965663047059
 20
628.6763070970867
 30
0.0
 11
1109.965663047059
 21
607.6763070970867
 31
0.0
  0
LINE
  5
CF97
330
18
100
AcDbEntity
  8
DRAW2
100
AcDbLine
 10
1107.966213047059
 20
626.6760070970867
 30
0.0
 11
1107.966213047059
 21
609.6760070970866
 31
0.0
  0
LINE
  5
CF98
330
18
100
AcDbEntity
  8
DRAW2
100
AcDbLine
 10
1107.966703047059
 20
609.6757270970867
 30
0.0
 11
1109.966703047059
 21
607.6757270970866
 31
0.0
  0
LINE
  5
CF99
330
18
100
AcDbEntity
  8
DRAW2
100
AcDbLine
 10
1109.965663047059
 20
628.6774670970864
 30
0.0
 11
1107.965723047059
 21
626.6774970970865
 31
0.0
  0
LINE
  5
CF9A
330
18
100
AcDbEntity
  8
DRAW2
100
AcDbLine
 10
1139.967063047059
 20
619.2012028965067
 30
0.0
 11
1129.967063047059
 21
619.2012028965067
 31
0.0
  0
LINE
  5
CF9B
330
18
100
AcDbEntity
  8
DRAW2
100
AcDbLine
 10
1139.966393047058
 20
676.1768199029748
 30
0.0
 11
1202.966393047059
 21
676.1768199029748
 31
0.0
  0
LINE
  5
CF9C
330
18
100
AcDbEntity
  8
DRAW2
100
AcDbLine
 10
1109.967063047059
 20
668.6768199029748
 30
0.0
 11
1129.967063047059
 21
668.6768199029748
 31
0.0
  0
LINE
  5
CF9D
330
18
100
AcDbEntity
  8
DRAW2
100
AcDbLine
 10
1109.967133047059
 20
647.6767599029748
 30
0.0
 11
1129.967133047059
 21
647.6767599029748
 31
0.0
  0
LINE
  5
CF9F
330
18
100
AcDbEntity
  8
DRAW2
100
AcDbLine
 10
1109.965663047059
 20
668.6762999029747
 30
0.0
 11
1109.965663047059
 21
647.6762999029747
 31
0.0
  0
LINE
  5
CFA0
330
18
100
AcDbEntity
  8
DRAW2
100
AcDbLine
 10
1107.966213047059
 20
666.6759999029748
 30
0.0
 11
1107.966213047059
 21
649.6759999029748
 31
0.0
  0
LINE
  5
CFA1
330
18
100
AcDbEntity
  8
DRAW2
100
AcDbLine
 10
1107.966703047059
 20
649.6757199029748
 30
0.0
 11
1109.966703047059
 21
647.6757199029748
 31
0.0
  0
LINE
  5
CFA2
330
18
100
AcDbEntity
  8
DRAW2
100
AcDbLine
 10
1109.965663047059
 20
668.6774599029747
 30
0.0
 11
1107.965723047059
 21
666.6774899029745
 31
0.0
  0
LINE
  5
CFA3
330
18
100
AcDbEntity
  8
DRAW2
100
AcDbLine
 10
1139.967063047059
 20
676.1768199029748
 30
0.0
 11
1129.967063047059
 21
676.1768199029748
 31
0.0
  0
LINE
  5
CFA5
330
18
100
AcDbEntity
  8
DRAW2
100
AcDbLine
 10
1287.467063047059
 20
594.1768199029747
 30
0.0
 11
1287.467063047059
 21
676.1768199029748
 31
0.0
  0
LINE
  5
CFA6
330
18
100
AcDbEntity
  8
DRAW2
100
AcDbLine
 10
1288.967743047058
 20
480.1768199029748
 30
0.0
 11
1288.967743047058
 21
676.1768199029748
 31
0.0
  0
LINE
  5
CFA7
330
18
100
AcDbEntity
  8
DRAW2
100
AcDbLine
 10
1351.967743047059
 20
480.1768199029748
 30
0.0
 11
1351.967743047059
 21
676.1768199029748
 31
0.0
  0
LINE
  5
CFA8
330
18
100
AcDbEntity
  8
DRAW2
100
AcDbLine
 10
1361.967073047059
 20
676.1768199029748
 30
0.0
 11
1361.967073047059
 21
598.6768199029747
 31
0.0
  0
LINE
  5
CFA9
330
18
100
AcDbEntity
  8
DRAW2
100
AcDbLine
 10
1351.967073047059
 20
676.1768199029748
 30
0.0
 11
1351.967073047059
 21
480.1768199029748
 31
0.0
  0
LINE
  5
CFAA
330
18
100
AcDbEntity
  8
DRAW2
100
AcDbLine
 10
1351.967073047059
 20
619.2012028965067
 30
0.0
 11
1361.967073047059
 21
619.2012028965067
 31
0.0
  0
LINE
  5
CFAC
330
18
100
AcDbEntity
  8
DRAW2
100
AcDbLine
 10
1351.967073047059
 20
537.1524369094428
 30
0.0
 11
1361.967073047059
 21
537.1524369094428
 31
0.0
  0
LINE
  5
CFAE
330
18
100
AcDbEntity
  8
DRAW2
100
AcDbLine
 10
1351.967073047059
 20
480.1768199029748
 30
0.0
 11
1361.967073047059
 21
480.1768199029748
 31
0.0
  0
LINE
  5
CFB0
330
18
100
AcDbEntity
  8
DRAW2
100
AcDbLine
 10
1351.967063047059
 20
557.6768199029746
 30
0.0
 11
1379.967063047059
 21
557.6768199029746
 31
0.0
  0
LINE
  5
CFB1
330
18
100
AcDbEntity
  8
DRAW2
100
AcDbLine
 10
1351.967063047059
 20
598.6768199029747
 30
0.0
 11
1379.967063047059
 21
598.6768199029747
 31
0.0
  0
LINE
  5
CFB2
330
18
100
AcDbEntity
  8
DRAW2
100
AcDbLine
 10
1351.966393047059
 20
540.6768199029746
 30
0.0
 11
1351.966393047059
 21
615.6768199029747
 31
0.0
  0
LINE
  5
CFB3
330
18
100
AcDbEntity
  8
DRAW2
100
AcDbLine
 10
1288.966393047059
 20
615.6768199029747
 30
0.0
 11
1288.966393047059
 21
540.6768199029746
 31
0.0
  0
LINE
  5
CFB4
330
18
100
AcDbEntity
  8
DRAW2
100
AcDbLine
 10
1288.966393047059
 20
621.1768199029748
 30
0.0
 11
1288.966393047059
 21
535.1768199029748
 31
0.0
  0
LINE
  5
CFB5
330
18
100
AcDbEntity
  8
DRAW2
100
AcDbLine
 10
1351.966393047059
 20
621.1768199029748
 30
0.0
 11
1351.966393047059
 21
535.1768199029748
 31
0.0
  0
LINE
  5
CFB6
330
18
100
AcDbEntity
  8
DRAW2
100
AcDbLine
 10
1287.467063047059
 20
480.1768199029748
 30
0.0
 11
1287.467063047059
 21
562.1768199029746
 31
0.0
  0
LINE
  5
CFB7
330
18
100
AcDbEntity
  8
DRAW2
100
AcDbLine
 10
1351.967743047059
 20
539.3953810436442
 30
0.0
 11
1288.967743047058
 21
539.3953810436442
 31
0.0
  0
LINE
  5
CFB8
330
18
100
AcDbEntity
  8
DRAW2
100
AcDbLine
 10
1288.966393047059
 20
535.1768199029748
 30
0.0
 11
1351.966393047059
 21
535.1768199029748
 31
0.0
  0
LINE
  5
CFB9
330
18
100
AcDbEntity
  8
DRAW2
100
AcDbLine
 10
1351.967743047059
 20
480.1768199029748
 30
0.0
 11
1288.967743047058
 21
480.1768199029748
 31
0.0
  0
LINE
  5
CFBA
330
18
100
AcDbEntity
  8
DRAW2
100
AcDbLine
 10
1250.967063048092
 20
494.9598015391409
 30
0.0
 11
1250.967063048092
 21
489.7636491164344
 31
0.0
  0
LINE
  5
CFBB
330
18
100
AcDbEntity
  8
DRAW2
100
AcDbLine
 10
1249.283687838446
 20
495.8014891439634
 30
0.0
 11
1249.283687838446
 21
490.6053367212567
 31
0.0
  0
LINE
  5
CFBC
330
18
100
AcDbEntity
  8
DRAW2
100
AcDbLine
 10
1242.650438257736
 20
495.8014891439634
 30
0.0
 11
1242.650438257736
 21
490.6053367212567
 31
0.0
  0
LINE
  5
CFBD
330
18
100
AcDbEntity
  8
DRAW2
100
AcDbLine
 10
1240.967063048092
 20
494.9598015391409
 30
0.0
 11
1240.967063048092
 21
489.7636491164344
 31
0.0
  0
LINE
  5
CFBE
330
18
100
AcDbEntity
  8
DRAW2
100
AcDbLine
 10
1266.653596527554
 20
490.6292847614861
 30
0.0
 11
1264.153596527554
 21
491.350972597973
 31
0.0
  0
LINE
  5
CFBF
330
18
100
AcDbEntity
  8
DRAW2
100
AcDbLine
 10
1264.153596527554
 20
491.350972597973
 30
0.0
 11
1261.653596527554
 21
490.6292847614861
 31
0.0
  0
LINE
  5
CFC0
330
18
100
AcDbEntity
  8
DRAW2
100
AcDbLine
 10
1227.780529568607
 20
491.350972597973
 30
0.0
 11
1230.280529568607
 21
490.6292847614861
 31
0.0
  0
LINE
  5
CFC1
330
18
100
AcDbEntity
  8
DRAW2
100
AcDbLine
 10
1287.467063047059
 20
480.1768199029748
 30
0.0
 11
1251.950295940204
 21
480.1768199029748
 31
0.0
  0
LINE
  5
CFC2
330
18
100
AcDbEntity
  8
DRAW2
100
AcDbLine
 10
1248.967063048092
 20
475.3404002636288
 30
0.0
 11
1248.967063048092
 21
456.3706969640168
 31
0.0
  0
LINE
  5
CFC3
330
18
100
AcDbEntity
  8
DRAW2
100
AcDbLine
 10
1242.967063048092
 20
475.3404002636288
 30
0.0
 11
1242.967063048092
 21
455.3703862349689
 31
0.0
  0
LINE
  5
CFC4
330
18
100
AcDbEntity
  8
DRAW2
100
AcDbLine
 10
1231.467063047059
 20
480.1768199029748
 30
0.0
 11
1231.467063047059
 21
463.1768199029748
 31
0.0
  0
LINE
  5
CFC5
330
18
100
AcDbEntity
  8
DRAW2
100
AcDbLine
 10
1249.283687838446
 20
490.6053367212567
 30
0.0
 11
1242.650438257736
 21
490.6053367212567
 31
0.0
  0
LINE
  5
CFC6
330
18
100
AcDbEntity
  8
DRAW2
100
AcDbLine
 10
1239.983830155979
 20
485.4536341204997
 30
0.0
 11
1245.967063048091
 21
486.8944019883712
 31
0.0
  0
LINE
  5
CFC7
330
18
100
AcDbEntity
  8
DRAW2
100
AcDbLine
 10
1239.983830155979
 20
480.5045018787664
 30
0.0
 11
1245.967063048091
 21
481.945269746638
 31
0.0
  0
LINE
  5
CFC8
330
18
100
AcDbEntity
  8
DRAW2
100
AcDbLine
 10
1242.650438257736
 20
490.6053367212567
 30
0.0
 11
1240.967063048092
 21
489.7636491164344
 31
0.0
  0
LINE
  5
CFC9
330
18
100
AcDbEntity
  8
DRAW2
100
AcDbLine
 10
1240.967063048092
 20
485.6903974862476
 30
0.0
 11
1240.967063048092
 21
489.7636491164344
 31
0.0
  0
LINE
  5
CFCA
330
18
100
AcDbEntity
  8
DRAW2
100
AcDbLine
 10
1241.767063048091
 20
488.1053367212567
 30
0.0
 11
1241.767063048091
 21
487.1438857246527
 31
0.0
  0
LINE
  5
CFCB
330
18
100
AcDbEntity
  8
DRAW2
100
AcDbLine
 10
1239.983830155979
 20
480.5045018787664
 30
0.0
 11
1239.983830155979
 21
485.4536341204997
 31
0.0
  0
LINE
  5
CFCC
330
18
100
AcDbEntity
  8
DRAW2
100
AcDbLine
 10
1239.983830155979
 20
477.1045018787664
 30
0.0
 11
1240.217063048091
 21
477.0243088253441
 31
0.0
  0
LINE
  5
CFCD
330
18
100
AcDbEntity
  8
DRAW2
100
AcDbLine
 10
1239.983830155979
 20
477.1045018787664
 30
0.0
 11
1239.983830155979
 21
480.5045018787664
 31
0.0
  0
LINE
  5
CFCE
330
18
100
AcDbEntity
  8
DRAW2
100
AcDbLine
 10
1240.217063048091
 20
475.7734129655208
 30
0.0
 11
1240.217063048091
 21
477.938476474982
 31
0.0
  0
LINE
  5
CFCF
330
18
100
AcDbEntity
  8
DRAW2
100
AcDbLine
 10
1227.780529568607
 20
488.4642212520249
 30
0.0
 11
1230.280529568607
 21
489.1859090885119
 31
0.0
  0
LINE
  5
CFD0
330
18
100
AcDbEntity
  8
DRAW2
100
AcDbLine
 10
1230.280529568607
 20
490.6292847614861
 30
0.0
 11
1230.280529568607
 21
489.1859090885119
 31
0.0
  0
LINE
  5
CFD1
330
18
100
AcDbEntity
  8
DRAW2
100
AcDbLine
 10
1249.283687838447
 20
490.6053367212567
 30
0.0
 11
1250.967063048092
 21
489.7636491164344
 31
0.0
  0
LINE
  5
CFD2
330
18
100
AcDbEntity
  8
DRAW2
100
AcDbLine
 10
1250.967063048092
 20
485.6903974862476
 30
0.0
 11
1250.967063048092
 21
489.7636491164344
 31
0.0
  0
LINE
  5
CFD3
330
18
100
AcDbEntity
  8
DRAW2
100
AcDbLine
 10
1250.167063048092
 20
488.1053367212567
 30
0.0
 11
1250.167063048092
 21
487.1438857246527
 31
0.0
  0
LINE
  5
CFD4
330
18
100
AcDbEntity
  8
DRAW2
100
AcDbLine
 10
1251.950295940204
 20
480.5045018787664
 30
0.0
 11
1251.950295940204
 21
485.4536341204997
 31
0.0
  0
LINE
  5
CFD5
330
18
100
AcDbEntity
  8
DRAW2
100
AcDbLine
 10
1245.967063048091
 20
481.945269746638
 30
0.0
 11
1245.967063048091
 21
486.8944019883712
 31
0.0
  0
LINE
  5
CFD6
330
18
100
AcDbEntity
  8
DRAW2
100
AcDbLine
 10
1245.967063048091
 20
486.8944019883712
 30
0.0
 11
1251.950295940204
 21
485.4536341204997
 31
0.0
  0
LINE
  5
CFD7
330
18
100
AcDbEntity
  8
DRAW2
100
AcDbLine
 10
1251.717063048092
 20
477.0255623168831
 30
0.0
 11
1251.950295940204
 21
477.1045018787664
 31
0.0
  0
LINE
  5
CFD8
330
18
100
AcDbEntity
  8
DRAW2
100
AcDbLine
 10
1245.967063048091
 20
481.945269746638
 30
0.0
 11
1251.950295940204
 21
480.5045018787664
 31
0.0
  0
LINE
  5
CFD9
330
18
100
AcDbEntity
  8
DRAW2
100
AcDbLine
 10
1251.950295940204
 20
480.5045018787664
 30
0.0
 11
1251.950295940204
 21
477.1045018787664
 31
0.0
  0
LINE
  5
CFDA
330
18
100
AcDbEntity
  8
DRAW2
100
AcDbLine
 10
1251.717063048092
 20
477.938476474982
 30
0.0
 11
1251.717063048092
 21
475.7734129655208
 31
0.0
  0
LINE
  5
CFDB
330
18
100
AcDbEntity
  8
DRAW2
100
AcDbLine
 10
1281.467063047059
 20
480.1768199029748
 30
0.0
 11
1281.467063047059
 21
463.1768199029748
 31
0.0
  0
LINE
  5
CFDC
330
18
100
AcDbEntity
  8
DRAW2
100
AcDbLine
 10
1260.467063047059
 20
480.1768199029748
 30
0.0
 11
1260.467063047059
 21
463.1768199029748
 31
0.0
  0
LINE
  5
CFDD
330
18
100
AcDbEntity
  8
DRAW2
100
AcDbLine
 10
1281.467063047059
 20
463.1768199029748
 30
0.0
 11
1260.467063047059
 21
463.1768199029748
 31
0.0
  0
LINE
  5
CFDE
330
18
100
AcDbEntity
  8
DRAW2
100
AcDbLine
 10
1266.653596527554
 20
489.1859090885119
 30
0.0
 11
1264.153596527554
 21
488.4642212520249
 31
0.0
  0
LINE
  5
CFDF
330
18
100
AcDbEntity
  8
DRAW2
100
AcDbLine
 10
1264.153596527554
 20
488.4642212520249
 30
0.0
 11
1261.653596527554
 21
489.1859090885119
 31
0.0
  0
LINE
  5
CFE0
330
18
100
AcDbEntity
  8
DRAW2
100
AcDbLine
 10
1266.653596527554
 20
489.1859090885119
 30
0.0
 11
1266.653596527554
 21
490.6292847614861
 31
0.0
  0
LINE
  5
CFE1
330
18
100
AcDbEntity
  8
DRAW2
100
AcDbLine
 10
1261.653596527554
 20
490.6292847614861
 30
0.0
 11
1261.653596527554
 21
489.1859090885119
 31
0.0
  0
LINE
  5
CFE2
330
18
100
AcDbEntity
  8
DRAW2
100
AcDbLine
 10
1249.283687838446
 20
495.8014891439634
 30
0.0
 11
1242.650438257736
 21
495.8014891439631
 31
0.0
  0
LINE
  5
CFE3
330
18
100
AcDbEntity
  8
DRAW2
100
AcDbLine
 10
1241.103063048091
 20
497.657596924999
 30
0.0
 11
1241.02467749175
 21
494.9886087609701
 31
0.0
  0
LINE
  5
CFE4
330
18
100
AcDbEntity
  8
DRAW2
100
AcDbLine
 10
1242.650438257736
 20
495.8014891439634
 30
0.0
 11
1240.967063048092
 21
494.9598015391409
 31
0.0
  0
LINE
  5
CFE5
330
18
100
AcDbEntity
  8
DRAW2
100
AcDbLine
 10
1250.83106304809
 20
497.657596924999
 30
0.0
 11
1250.909448604433
 21
494.9886087609701
 31
0.0
  0
LINE
  5
CFE6
330
18
100
AcDbEntity
  8
DRAW2
100
AcDbLine
 10
1249.283687838447
 20
495.8014891439634
 30
0.0
 11
1250.967063048092
 21
494.9598015391409
 31
0.0
  0
LINE
  5
CFE7
330
18
100
AcDbEntity
  8
DRAW2
100
AcDbLine
 10
1243.467063048081
 20
506.3792847614861
 30
0.0
 11
1243.467063048081
 21
504.9359090885119
 31
0.0
  0
LINE
  5
CFE8
330
18
100
AcDbEntity
  8
DRAW2
100
AcDbLine
 10
1248.467063048081
 20
504.9359090885119
 30
0.0
 11
1248.467063048081
 21
506.3792847614861
 31
0.0
  0
LINE
  5
CFE9
330
18
100
AcDbEntity
  8
DRAW2
100
AcDbLine
 10
1245.967063048081
 20
504.2142212520249
 30
0.0
 11
1243.467063048081
 21
504.9359090885119
 31
0.0
  0
LINE
  5
CFEA
330
18
100
AcDbEntity
  8
DRAW2
100
AcDbLine
 10
1248.467063048081
 20
504.9359090885119
 30
0.0
 11
1245.967063048081
 21
504.2142212520249
 31
0.0
  0
LINE
  5
CFEB
330
18
100
AcDbEntity
  8
DRAW2
100
AcDbLine
 10
1245.967063048081
 20
507.1009725979731
 30
0.0
 11
1243.467063048081
 21
506.3792847614861
 31
0.0
  0
LINE
  5
CFEC
330
18
100
AcDbEntity
  8
DRAW2
100
AcDbLine
 10
1248.467063048081
 20
506.3792847614861
 30
0.0
 11
1245.967063048081
 21
507.1009725979731
 31
0.0
  0
LINE
  5
CFED
330
18
100
AcDbEntity
  8
DRAW2
100
AcDbLine
 10
1275.71706304808
 20
499.3074583737311
 30
0.0
 11
1275.71706304808
 21
496.889647732568
 31
0.0
  0
LINE
  5
CFEE
330
18
100
AcDbEntity
  8
DRAW2
100
AcDbLine
 10
1351.966393047059
 20
621.1768199029748
 30
0.0
 11
1288.966393047059
 21
621.1768199029748
 31
0.0
  0
LINE
  5
CFEF
330
18
100
AcDbEntity
  8
DRAW2
100
AcDbLine
 10
1351.967743047059
 20
616.9582587623055
 30
0.0
 11
1288.967743047058
 21
616.9582587623055
 31
0.0
  0
CIRCLE
  5
CFF0
330
18
100
AcDbEntity
  8
DRAW2
100
AcDbCircle
 10
1326.966393047059
 20
551.1768199029748
 30
0.0
 40
6.0
  0
CIRCLE
  5
CFF1
330
18
100
AcDbEntity
  8
DRAW2
100
AcDbCircle
 10
1326.966393047059
 20
551.1768199029748
 30
0.0
 40
8.0
  0
CIRCLE
  5
CFF2
330
18
100
AcDbEntity
  8
DRAW2
100
AcDbCircle
 10
1326.966393047059
 20
605.1768199029748
 30
0.0
 40
6.0
  0
CIRCLE
  5
CFF3
330
18
100
AcDbEntity
  8
DRAW2
100
AcDbCircle
 10
1326.966393047059
 20
605.1768199029748
 30
0.0
 40
8.0
  0
LINE
  5
CFF4
330
18
100
AcDbEntity
  8
DRAW2
100
AcDbLine
 10
1383.967923047059
 20
546.6760076987593
 30
0.0
 11
1383.967923047059
 21
529.6760076987593
 31
0.0
  0
LINE
  5
CFF5
330
18
100
AcDbEntity
  8
DRAW2
100
AcDbLine
 10
1381.968473047058
 20
548.6763076987593
 30
0.0
 11
1381.968473047058
 21
527.6763076987593
 31
0.0
  0
LINE
  5
CFF6
330
18
100
AcDbEntity
  8
DRAW2
100
AcDbLine
 10
1361.967073047059
 20
557.6768199029746
 30
0.0
 11
1361.967073047059
 21
480.1768199029748
 31
0.0
  0
LINE
  5
CFF7
330
18
100
AcDbEntity
  8
DRAW2
100
AcDbLine
 10
1381.968473047058
 20
508.6762999029747
 30
0.0
 11
1381.968473047058
 21
487.6762999029747
 31
0.0
  0
LINE
  5
CFF8
330
18
100
AcDbEntity
  8
DRAW2
100
AcDbLine
 10
1383.967923047059
 20
506.6759999029748
 30
0.0
 11
1383.967923047059
 21
489.6759999029747
 31
0.0
  0
LINE
  5
CFF9
330
18
100
AcDbEntity
  8
DRAW2
100
AcDbLine
 10
1381.967003047058
 20
487.6767599029746
 30
0.0
 11
1361.967003047059
 21
487.6767599029746
 31
0.0
  0
LINE
  5
CFFA
330
18
100
AcDbEntity
  8
DRAW2
100
AcDbLine
 10
1383.967433047059
 20
489.6757199029748
 30
0.0
 11
1381.967433047059
 21
487.6757199029747
 31
0.0
  0
LINE
  5
CFFB
330
18
100
AcDbEntity
  8
DRAW2
100
AcDbLine
 10
1381.967073047059
 20
508.6768199029747
 30
0.0
 11
1361.967073047059
 21
508.6768199029747
 31
0.0
  0
LINE
  5
CFFC
330
18
100
AcDbEntity
  8
DRAW2
100
AcDbLine
 10
1381.968473047058
 20
508.6774599029746
 30
0.0
 11
1383.968413047059
 21
506.6774899029747
 31
0.0
  0
LINE
  5
CFFD
330
18
100
AcDbEntity
  8
DRAW2
100
AcDbLine
 10
1381.967003047058
 20
527.6767676987591
 30
0.0
 11
1361.967003047059
 21
527.6767676987591
 31
0.0
  0
LINE
  5
CFFE
330
18
100
AcDbEntity
  8
DRAW2
100
AcDbLine
 10
1383.967433047059
 20
529.6757276987594
 30
0.0
 11
1381.967433047059
 21
527.6757276987592
 31
0.0
  0
LINE
  5
CFFF
330
18
100
AcDbEntity
  8
DRAW2
100
AcDbLine
 10
1379.967063047059
 20
557.6768199029746
 30
0.0
 11
1379.967063047059
 21
598.6768199029747
 31
0.0
  0
LINE
  5
D000
330
18
100
AcDbEntity
  8
DRAW2
100
AcDbLine
 10
1381.967063047059
 20
559.6768199029748
 30
0.0
 11
1381.967063047059
 21
596.6768199029748
 31
0.0
  0
LINE
  5
D001
330
18
100
AcDbEntity
  8
DRAW2
100
AcDbLine
 10
1381.967073047059
 20
548.6768276987593
 30
0.0
 11
1361.967073047059
 21
548.6768276987593
 31
0.0
  0
LINE
  5
D002
330
18
100
AcDbEntity
  8
DRAW2
100
AcDbLine
 10
1381.968473047058
 20
548.6774676987591
 30
0.0
 11
1383.968413047059
 21
546.6774976987591
 31
0.0
  0
LINE
  5
D003
330
18
100
AcDbEntity
  8
DRAW2
100
AcDbLine
 10
1379.967063047059
 20
557.6768199029746
 30
0.0
 11
1381.967063047059
 21
559.6768199029748
 31
0.0
  0
LINE
  5
D004
330
18
100
AcDbEntity
  8
DRAW2
100
AcDbLine
 10
1383.967923047059
 20
626.6760070970867
 30
0.0
 11
1383.967923047059
 21
609.6760070970866
 31
0.0
  0
LINE
  5
D005
330
18
100
AcDbEntity
  8
DRAW2
100
AcDbLine
 10
1381.968473047058
 20
628.6763070970867
 30
0.0
 11
1381.968473047058
 21
607.6763070970867
 31
0.0
  0
LINE
  5
D006
330
18
100
AcDbEntity
  8
DRAW2
100
AcDbLine
 10
1381.967003047058
 20
607.6767670970864
 30
0.0
 11
1361.967003047059
 21
607.6767670970864
 31
0.0
  0
LINE
  5
D007
330
18
100
AcDbEntity
  8
DRAW2
100
AcDbLine
 10
1383.967433047059
 20
609.6757270970867
 30
0.0
 11
1381.967433047059
 21
607.6757270970866
 31
0.0
  0
LINE
  5
D008
330
18
100
AcDbEntity
  8
DRAW2
100
AcDbLine
 10
1381.967063047059
 20
596.6768199029748
 30
0.0
 11
1379.967063047059
 21
598.6768199029747
 31
0.0
  0
LINE
  5
D009
330
18
100
AcDbEntity
  8
DRAW2
100
AcDbLine
 10
1381.967073047059
 20
628.6768270970866
 30
0.0
 11
1361.967073047059
 21
628.6768270970866
 31
0.0
  0
LINE
  5
D00A
330
18
100
AcDbEntity
  8
DRAW2
100
AcDbLine
 10
1381.968473047058
 20
628.6774670970864
 30
0.0
 11
1383.968413047059
 21
626.6774970970865
 31
0.0
  0
LINE
  5
D00B
330
18
100
AcDbEntity
  8
DRAW2
100
AcDbLine
 10
1351.967073047059
 20
676.1768199029748
 30
0.0
 11
1361.967073047059
 21
676.1768199029748
 31
0.0
  0
LINE
  5
D00D
330
18
100
AcDbEntity
  8
DRAW2
100
AcDbLine
 10
1351.967743047059
 20
676.1768199029748
 30
0.0
 11
1288.967743047058
 21
676.1768199029748
 31
0.0
  0
LINE
  5
D00E
330
18
100
AcDbEntity
  8
DRAW2
100
AcDbLine
 10
1383.967923047059
 20
666.6759999029748
 30
0.0
 11
1383.967923047059
 21
649.6759999029748
 31
0.0
  0
LINE
  5
D00F
330
18
100
AcDbEntity
  8
DRAW2
100
AcDbLine
 10
1381.968473047058
 20
668.6762999029747
 30
0.0
 11
1381.968473047058
 21
647.6762999029747
 31
0.0
  0
LINE
  5
D010
330
18
100
AcDbEntity
  8
DRAW2
100
AcDbLine
 10
1381.967003047058
 20
647.6767599029748
 30
0.0
 11
1361.967003047059
 21
647.6767599029748
 31
0.0
  0
LINE
  5
D011
330
18
100
AcDbEntity
  8
DRAW2
100
AcDbLine
 10
1383.967433047059
 20
649.6757199029748
 30
0.0
 11
1381.967433047059
 21
647.6757199029748
 31
0.0
  0
LINE
  5
D012
330
18
100
AcDbEntity
  8
DRAW2
100
AcDbLine
 10
1381.967073047059
 20
668.6768199029748
 30
0.0
 11
1361.967073047059
 21
668.6768199029748
 31
0.0
  0
LINE
  5
D013
330
18
100
AcDbEntity
  8
DRAW2
100
AcDbLine
 10
1381.968473047058
 20
668.6774599029747
 30
0.0
 11
1383.968413047059
 21
666.6774899029745
 31
0.0
  0
LINE
  5
D014
330
18
100
AcDbEntity
  8
DRAW2
100
AcDbLine
 10
1697.11715814706
 20
57.17056721614632
 30
0.0
 11
1699.98940814706
 21
38.02218721614621
 31
0.0
  0
LINE
  5
D015
330
18
100
AcDbEntity
  8
DRAW2
100
AcDbLine
 10
1766.11743814706
 20
57.17010721614633
 30
0.0
 11
1766.11743814706
 21
40.17010721614632
 31
0.0
  0
LINE
  5
D016
330
18
100
AcDbEntity
  8
DRAW2
100
AcDbLine
 10
1750.11730814706
 20
57.16985721614627
 30
0.0
 11
1750.11730814706
 21
40.16985721614628
 31
0.0
  0
LINE
  5
D017
330
18
100
AcDbEntity
  8
DRAW2
100
AcDbLine
 10
1733.11724814706
 20
57.17022721614625
 30
0.0
 11
1730.24496814706
 21
38.02181721614624
 31
0.0
  0
LINE
  5
D018
330
18
100
AcDbEntity
  8
DRAW2
100
AcDbLine
 10
1804.11669814706
 20
57.17010721614633
 30
0.0
 11
1804.11669814706
 21
40.17010721614632
 31
0.0
  0
LINE
  5
D019
330
18
100
AcDbEntity
  8
DRAW2
100
AcDbLine
 10
1820.11681814706
 20
57.16985721614627
 30
0.0
 11
1820.11681814706
 21
40.16985721614628
 31
0.0
  0
LINE
  5
D01A
330
18
100
AcDbEntity
  8
DRAW2
100
AcDbLine
 10
1837.11691814706
 20
57.17016721614618
 30
0.0
 11
1839.98916814706
 21
38.02181721614624
 31
0.0
  0
LINE
  5
D01B
330
18
100
AcDbEntity
  8
DRAW2
100
AcDbLine
 10
1873.11697814706
 20
57.17053721614639
 30
0.0
 11
1870.24471814706
 21
38.02215721614629
 31
0.0
  0
LINE
  5
D020
330
18
100
AcDbEntity
  8
DRAW2
100
AcDbLine
 10
1764.11620814706
 20
38.17077721614623
 30
0.0
 11
1752.11620814706
 21
38.17077721614623
 31
0.0
  0
LINE
  5
D021
330
18
100
AcDbEntity
  8
DRAW2
100
AcDbLine
 10
1766.11614814706
 20
40.17077721614622
 30
0.0
 11
1750.11614814706
 21
40.17077721614622
 31
0.0
  0
LINE
  5
D022
330
18
100
AcDbEntity
  8
DRAW2
100
AcDbLine
 10
1729.254948147059
 20
37.17065721614631
 30
0.0
 11
1700.97735814706
 21
37.17065721614631
 31
0.0
  0
ARC
  5
D023
330
18
100
AcDbEntity
  8
DRAW2
100
AcDbCircle
 10
1700.97778814706
 20
38.17010721614632
 30
0.0
 40
1.0
100
AcDbArc
 50
188.5310199999995
 51
270.0000499999919
  0
ARC
  5
D024
330
18
100
AcDbEntity
  8
DRAW2
100
AcDbCircle
 10
1729.255308147059
 20
38.17022721614625
 30
0.0
 40
1.0
100
AcDbArc
 50
270.000069999994
 51
351.4691799999959
  0
LINE
  5
D025
330
18
100
AcDbEntity
  8
DRAW2
100
AcDbLine
 10
1750.11727814706
 20
40.17111721614628
 30
0.0
 11
1752.11727814706
 21
38.17111721614628
 31
0.0
  0
LINE
  5
D026
330
18
100
AcDbEntity
  8
DRAW2
100
AcDbLine
 10
1806.11791814706
 20
38.17077721614623
 30
0.0
 11
1818.11791814706
 21
38.17077721614623
 31
0.0
  0
LINE
  5
D027
330
18
100
AcDbEntity
  8
DRAW2
100
AcDbLine
 10
1804.117978147059
 20
40.17077721614622
 30
0.0
 11
1820.11797814706
 21
40.17077721614622
 31
0.0
  0
LINE
  5
D028
330
18
100
AcDbEntity
  8
DRAW2
100
AcDbLine
 10
1766.11675814706
 20
40.16973721614635
 30
0.0
 11
1764.11669814706
 21
38.16967721614628
 31
0.0
  0
LINE
  5
D029
330
18
100
AcDbEntity
  8
DRAW2
100
AcDbLine
 10
1804.11746814706
 20
40.16970721614621
 30
0.0
 11
1806.11746814706
 21
38.1697072161462
 31
0.0
  0
LINE
  5
D02A
330
18
100
AcDbEntity
  8
DRAW2
100
AcDbLine
 10
1840.979188147058
 20
37.17065721614631
 30
0.0
 11
1869.25677814706
 21
37.17065721614631
 31
0.0
  0
LINE
  5
D02B
330
18
100
AcDbEntity
  8
DRAW2
100
AcDbLine
 10
1820.11692814706
 20
40.17108721614635
 30
0.0
 11
1818.11691814706
 21
38.17105721614621
 31
0.0
  0
ARC
  5
D02C
330
18
100
AcDbEntity
  8
DRAW2
100
AcDbCircle
 10
1840.97881814706
 20
38.17022721614625
 30
0.0
 40
1.0
100
AcDbArc
 50
188.5308100000029
 51
269.9999099999909
  0
ARC
  5
D02D
330
18
100
AcDbEntity
  8
DRAW2
100
AcDbCircle
 10
1869.25634814706
 20
38.17010721614632
 30
0.0
 40
1.0
100
AcDbArc
 50
269.9999399999938
 51
351.4689599999963
  0
SPLINE
  5
D02E
330
18
100
AcDbEntity
  8
DRAW3
100
AcDbSpline
210
0.0
220
0.0
230
1.0
 70
     8
 71
     3
 72
    10
 73
     6
 74
     4
 42
0.0000000001
 43
0.0000000001
 44
0.0000000001
 40
0.0
 40
0.0
 40
0.0
 40
0.0
 40
0.7869075212544673
 40
1.726788435349869
 40
2.626116616137498
 40
2.626116616137498
 40
2.626116616137498
 40
2.626116616137498
 10
1542.823579637528
 20
278.5590524465949
 30
0.0
 10
1542.613853423882
 20
278.3150438588507
 30
0.0
 10
1542.153630601591
 20
277.7795918571073
 30
0.0
 10
1541.42662470462
 20
278.9014334909852
 30
0.0
 10
1540.853717313628
 20
278.4571838677255
 30
0.0
 10
1540.573579637529
 20
278.2399566875134
 30
0.0
 11
1542.823579637528
 21
278.5590524465949
 31
0.0
 11
1542.190701212571
 21
278.0914111885446
 31
0.0
 11
1541.398751064921
 21
278.5975644225733
 31
0.0
 11
1540.573579637529
 21
278.2399566875134
 31
0.0
  0
SPLINE
  5
D02F
330
18
100
AcDbEntity
  8
DRAW3
100
AcDbSpline
210
0.0
220
0.0
230
1.0
 70
     8
 71
     3
 72
    10
 73
     6
 74
     4
 42
0.0000000001
 43
0.0000000001
 44
0.0000000001
 40
0.0
 40
0.0
 40
0.0
 40
0.0
 40
0.7869075212544673
 40
1.726788435349869
 40
2.626116616137498
 40
2.626116616137498
 40
2.626116616137498
 40
2.626116616137498
 10
1542.823579637528
 20
276.5590524465949
 30
0.0
 10
1542.613853423882
 20
276.3150438588508
 30
0.0
 10
1542.153630601591
 20
275.7795918571073
 30
0.0
 10
1541.42662470462
 20
276.9014334909852
 30
0.0
 10
1540.853717313628
 20
276.4571838677255
 30
0.0
 10
1540.573579637529
 20
276.2399566875135
 30
0.0
 11
1542.823579637528
 21
276.5590524465949
 31
0.0
 11
1542.190701212571
 21
276.0914111885446
 31
0.0
 11
1541.398751064921
 21
276.5975644225733
 31
0.0
 11
1540.573579637529
 21
276.2399566875135
 31
0.0
  0
SPLINE
  5
D030
330
18
100
AcDbEntity
  8
DRAW3
100
AcDbSpline
210
0.0
220
0.0
230
1.0
 70
     8
 71
     3
 72
    10
 73
     6
 74
     4
 42
0.0000000001
 43
0.0000000001
 44
0.0000000001
 40
0.0
 40
0.0
 40
0.0
 40
0.0
 40
0.3934537606265767
 40
0.863394217674887
 40
1.202033207996351
 40
1.202033207996351
 40
1.202033207996351
 40
1.202033207996351
 10
1525.823579637519
 20
278.5590524465949
 30
0.0
 10
1525.719281682466
 20
278.4342961719115
 30
0.0
 10
1525.490410439337
 20
278.1605312293454
 30
0.0
 10
1525.148003474141
 20
278.720964467183
 30
0.0
 10
1524.919343928661
 20
278.4943939555367
 30
0.0
 10
1524.823579637519
 20
278.3995045670542
 30
0.0
 11
1525.823579637519
 21
278.5590524465949
 31
0.0
 11
1525.507140425042
 21
278.3252318175698
 31
0.0
 11
1525.111165351216
 21
278.578308434584
 31
0.0
 11
1524.823579637519
 21
278.3995045670542
 31
0.0
  0
SPLINE
  5
D031
330
18
100
AcDbEntity
  8
DRAW3
100
AcDbSpline
210
0.0
220
0.0
230
1.0
 70
     8
 71
     3
 72
    10
 73
     6
 74
     4
 42
0.0000000001
 43
0.0000000001
 44
0.0000000001
 40
0.0
 40
0.0
 40
0.0
 40
0.0
 40
0.3934537606269762
 40
0.8633942176753782
 40
1.429935674776016
 40
1.429935674776016
 40
1.429935674776016
 40
1.429935674776016
 10
1518.948579637521
 20
278.5590524465953
 30
0.0
 10
1518.843553806624
 20
278.4388677087108
 30
0.0
 10
1518.613085314068
 20
278.1751345381931
 30
0.0
 10
1518.22052825176
 20
278.7490630013461
 30
0.0
 10
1517.883047021931
 20
278.5230457132768
 30
0.0
 10
1517.698579637521
 20
278.3995045670546
 30
0.0
 11
1518.948579637521
 21
278.5590524465953
 31
0.0
 11
1518.632140425043
 21
278.3252318175701
 31
0.0
 11
1518.236165351217
 21
278.5783084345845
 31
0.0
 11
1517.698579637521
 21
278.3995045670546
 31
0.0
  0
SPLINE
  5
D032
330
18
100
AcDbEntity
  8
DRAW3
100
AcDbSpline
210
0.0
220
0.0
230
1.0
 70
     8
 71
     3
 72
    10
 73
     6
 74
     4
 42
0.0000000001
 43
0.0000000001
 44
0.0000000001
 40
0.0
 40
0.0
 40
0.0
 40
0.0
 40
0.3934537606265767
 40
0.863394217674887
 40
1.202033207996351
 40
1.202033207996351
 40
1.202033207996351
 40
1.202033207996351
 10
1525.823579637519
 20
276.5590524465949
 30
0.0
 10
1525.719281682466
 20
276.4342961719115
 30
0.0
 10
1525.490410439337
 20
276.1605312293454
 30
0.0
 10
1525.148003474141
 20
276.720964467183
 30
0.0
 10
1524.919343928661
 20
276.4943939555367
 30
0.0
 10
1524.823579637519
 20
276.3995045670541
 30
0.0
 11
1525.823579637519
 21
276.5590524465949
 31
0.0
 11
1525.507140425042
 21
276.3252318175698
 31
0.0
 11
1525.111165351216
 21
276.578308434584
 31
0.0
 11
1524.823579637519
 21
276.3995045670541
 31
0.0
  0
SPLINE
  5
D033
330
18
100
AcDbEntity
  8
DRAW3
100
AcDbSpline
210
0.0
220
0.0
230
1.0
 70
     8
 71
     3
 72
    10
 73
     6
 74
     4
 42
0.0000000001
 43
0.0000000001
 44
0.0000000001
 40
0.0
 40
0.0
 40
0.0
 40
0.0
 40
0.3934537606269762
 40
0.8633942176753782
 40
1.429935674776016
 40
1.429935674776016
 40
1.429935674776016
 40
1.429935674776016
 10
1518.948579637521
 20
276.5590524465953
 30
0.0
 10
1518.843553806624
 20
276.4388677087108
 30
0.0
 10
1518.613085314068
 20
276.175134538193
 30
0.0
 10
1518.22052825176
 20
276.7490630013461
 30
0.0
 10
1517.883047021931
 20
276.5230457132768
 30
0.0
 10
1517.698579637521
 20
276.3995045670545
 30
0.0
 11
1518.948579637521
 21
276.5590524465953
 31
0.0
 11
1518.632140425043
 21
276.3252318175701
 31
0.0
 11
1518.236165351217
 21
276.5783084345845
 31
0.0
 11
1517.698579637521
 21
276.3995045670545
 31
0.0
  0
SPLINE
  5
D034
330
18
100
AcDbEntity
  8
DRAW3
100
AcDbSpline
210
0.0
220
0.0
230
1.0
 70
     8
 71
     3
 72
    10
 73
     6
 74
     4
 42
0.0000000001
 43
0.0000000001
 44
0.0000000001
 40
0.0
 40
0.0
 40
0.0
 40
0.0
 40
1.972684243529142
 40
4.621558289202623
 40
6.67977679436019
 40
6.67977679436019
 40
6.67977679436019
 40
6.67977679436019
 10
1604.981790068281
 20
308.5939424714126
 30
0.0
 10
1605.441334855317
 20
308.0176704739383
 30
0.0
 10
1606.517945583441
 20
306.6675939801969
 30
0.0
 10
1604.237497024297
 20
304.4850442437064
 30
0.0
 10
1605.451337948422
 20
303.1692745781937
 30
0.0
 10
1605.98210079733
 20
302.5939424714126
 30
0.0
 11
1604.981790068281
 21
308.5939424714126
 31
0.0
 11
1605.876805465613
 21
306.8359804231287
 31
0.0
 11
1604.929140709844
 21
304.3624272661265
 31
0.0
 11
1605.98210079733
 21
302.5939424714126
 31
0.0
  0
SPLINE
  5
D035
330
18
100
AcDbEntity
  8
DRAW3
100
AcDbSpline
210
0.0
220
0.0
230
1.0
 70
     8
 71
     3
 72
    10
 73
     6
 74
     4
 42
0.0000000001
 43
0.0000000001
 44
0.0000000001
 40
0.0
 40
0.0
 40
0.0
 40
0.0
 40
1.972684243528626
 40
4.621558289202107
 40
6.679776794359673
 40
6.679776794359673
 40
6.679776794359673
 40
6.679776794359673
 10
1606.981790068283
 20
308.5939424714122
 30
0.0
 10
1607.441334855318
 20
308.0176704739378
 30
0.0
 10
1608.517945583442
 20
306.6675939801962
 30
0.0
 10
1606.237497024298
 20
304.4850442437061
 30
0.0
 10
1607.451337948423
 20
303.1692745781933
 30
0.0
 10
1607.982100797331
 20
302.5939424714122
 30
0.0
 11
1606.981790068283
 21
308.5939424714122
 31
0.0
 11
1607.876805465614
 21
306.8359804231283
 31
0.0
 11
1606.929140709845
 21
304.3624272661261
 31
0.0
 11
1607.982100797331
 21
302.5939424714122
 31
0.0
  0
LINE
  5
D037
330
18
100
AcDbEntity
  8
DRAW2
100
AcDbLine
 10
1695.11706814706
 20
57.17101721614632
 30
0.0
 11
1875.11706814706
 21
57.17101721614632
 31
0.0
  0
CIRCLE
  5
D039
330
18
100
AcDbEntity
  8
DRAW2
100
AcDbCircle
 10
1745.117060351276
 20
134.8889894142897
 30
0.0
 40
10.50116005149908
  0
CIRCLE
  5
D03A
330
18
100
AcDbEntity
  8
DRAW2
100
AcDbCircle
 10
1745.117060351276
 20
134.8889894142897
 30
0.0
 40
8.500850000000012
  0
CIRCLE
  5
D03B
330
18
100
AcDbEntity
  8
DRAW2
100
AcDbCircle
 10
1745.117075942844
 20
273.453054019799
 30
0.0
 40
8.500850000000012
  0
CIRCLE
  5
D03C
330
18
100
AcDbEntity
  8
DRAW2
100
AcDbCircle
 10
1745.117075942844
 20
273.453054019799
 30
0.0
 40
10.50116005149908
  0
LINE
  5
D03D
330
18
100
AcDbEntity
  8
DRAW2
100
AcDbLine
 10
1764.11620814706
 20
365.1712672161463
 30
0.0
 11
1752.11620814706
 21
365.1712672161463
 31
0.0
  0
LINE
  5
D03E
330
18
100
AcDbEntity
  8
DRAW2
100
AcDbLine
 10
1766.11614814706
 20
363.1712672161463
 30
0.0
 11
1750.11614814706
 21
363.1712672161463
 31
0.0
  0
LINE
  5
D03F
330
18
100
AcDbEntity
  8
DRAW2
100
AcDbLine
 10
1747.59374814706
 20
346.1710172161463
 30
0.0
 11
1822.64039814706
 21
346.1710172161463
 31
0.0
  0
LINE
  5
D042
330
18
100
AcDbEntity
  8
DRAW2
100
AcDbLine
 10
1747.59374814706
 20
294.1710172161463
 30
0.0
 11
1822.64039814706
 21
294.1710172161463
 31
0.0
  0
LINE
  5
D044
330
18
100
AcDbEntity
  8
DRAW2
100
AcDbLine
 10
1747.59374814706
 20
336.1710172161463
 30
0.0
 11
1822.64039814706
 21
336.1710172161463
 31
0.0
  0
LINE
  5
D045
330
18
100
AcDbEntity
  8
DRAW2
100
AcDbLine
 10
1744.092688147059
 20
293.1710172161463
 30
0.0
 11
1826.14144814706
 21
293.1710172161463
 31
0.0
  0
LINE
  5
D048
330
18
100
AcDbEntity
  8
DRAW2
100
AcDbLine
 10
1746.33563814706
 20
114.1710172161463
 30
0.0
 11
1823.89849814706
 21
114.1710172161463
 31
0.0
  0
LINE
  5
D049
330
18
100
AcDbEntity
  8
DRAW2
100
AcDbLine
 10
1744.092688147059
 20
115.1710172161463
 30
0.0
 11
1826.14144814706
 21
115.1710172161463
 31
0.0
  0
LINE
  5
D04B
330
18
100
AcDbEntity
  8
DRAW2
100
AcDbLine
 10
1695.11706814706
 20
72.17101721614631
 30
0.0
 11
1875.11706814706
 21
72.17101721614631
 31
0.0
  0
ARC
  5
D04E
330
18
100
AcDbEntity
  8
DRAW2
100
AcDbCircle
 10
1563.948579637519
 20
236.2435160183271
 30
0.0
 40
25.0
100
AcDbArc
 50
160.4757284897095
 51
180.0
  0
ARC
  5
D04F
330
18
100
AcDbEntity
  8
DRAW2
100
AcDbCircle
 10
1563.948579637519
 20
236.2435160183271
 30
0.0
 40
26.25
100
AcDbArc
 50
160.4757284897095
 51
180.0
  0
ARC
  5
D051
330
18
100
AcDbEntity
  8
DRAW2
100
AcDbCircle
 10
1519.823579637519
 20
236.2435160183279
 30
0.0
 40
25.0
100
AcDbArc
 50
0.0
 51
19.94844358880153
  0
ARC
  5
D052
330
18
100
AcDbEntity
  8
DRAW2
100
AcDbCircle
 10
1519.823579637519
 20
236.2435160183279
 30
0.0
 40
26.0
100
AcDbArc
 50
0.0
 51
19.94844358880153
  0
LINE
  5
D054
330
18
100
AcDbEntity
  8
DRAW2
100
AcDbLine
 10
1525.823579637519
 20
235.2435160183281
 30
0.0
 11
1525.823579637519
 21
276.5590524465949
 31
0.0
  0
LINE
  5
D055
330
18
100
AcDbEntity
  8
DRAW2
100
AcDbLine
 10
1524.823579637519
 20
235.2435160183281
 30
0.0
 11
1524.823579637519
 21
276.3995045670541
 31
0.0
  0
LINE
  5
D056
330
18
100
AcDbEntity
  8
DRAW2
100
AcDbLine
 10
1518.948579637519
 20
235.243516018328
 30
0.0
 11
1518.948579637519
 21
276.5590524465938
 31
0.0
  0
LINE
  5
D057
330
18
100
AcDbEntity
  8
DRAW2
100
AcDbLine
 10
1517.698579637518
 20
235.243516018328
 30
0.0
 11
1517.698579637519
 21
276.3995045670541
 31
0.0
  0
ARC
  5
D05A
330
18
100
AcDbEntity
  8
DRAW2
100
AcDbCircle
 10
1785.11706814706
 20
204.1710172161462
 30
0.0
 40
98.0
100
AcDbArc
 50
112.6640678752462
 51
246.6885100000026
  0
LINE
  5
D05B
330
18
100
AcDbEntity
  8
DRAW2
100
AcDbLine
 10
1521.073579637519
 20
228.2435160183288
 30
0.0
 11
1522.573579637519
 21
228.2435160183288
 31
0.0
  0
LINE
  5
D05C
330
18
100
AcDbEntity
  8
DRAW2
100
AcDbLine
 10
1514.323579637519
 20
235.2435160183279
 30
0.0
 11
1529.323579637519
 21
235.2435160183283
 31
0.0
  0
LINE
  5
D05D
330
18
100
AcDbEntity
  8
DRAW2
100
AcDbLine
 10
1519.523579637519
 20
214.2435160183283
 30
0.0
 11
1519.523579637519
 21
224.2435160183288
 31
0.0
  0
LINE
  5
D05E
330
18
100
AcDbEntity
  8
DRAW2
100
AcDbLine
 10
1517.123579637519
 20
214.2435160183283
 30
0.0
 11
1517.123579637519
 21
224.2435160183288
 31
0.0
  0
LINE
  5
D05F
330
18
100
AcDbEntity
  8
DRAW2
100
AcDbLine
 10
1517.123579637519
 20
214.2435160183283
 30
0.0
 11
1519.523579637519
 21
214.2435160183288
 31
0.0
  0
LINE
  5
D060
330
18
100
AcDbEntity
  8
DRAW2
100
AcDbLine
 10
1520.92357963752
 20
226.7435160183283
 30
0.0
 11
1519.523579637519
 21
224.2435160183283
 31
0.0
  0
LINE
  5
D061
330
18
100
AcDbEntity
  8
DRAW2
100
AcDbLine
 10
1515.723579637519
 20
226.7435160183283
 30
0.0
 11
1517.123579637519
 21
224.2435160183283
 31
0.0
  0
LINE
  5
D062
330
18
100
AcDbEntity
  8
DRAW2
100
AcDbLine
 10
1517.123579637519
 20
224.2435160183283
 30
0.0
 11
1519.523579637519
 21
224.2435160183283
 31
0.0
  0
LINE
  5
D063
330
18
100
AcDbEntity
  8
DRAW2
100
AcDbLine
 10
1521.073579637519
 20
228.2435160183288
 30
0.0
 11
1521.073579637519
 21
231.2435160183279
 31
0.0
  0
LINE
  5
D064
330
18
100
AcDbEntity
  8
DRAW2
100
AcDbLine
 10
1520.92357963752
 20
226.7435160183283
 30
0.0
 11
1520.92357963752
 21
230.7435160183283
 31
0.0
  0
LINE
  5
D065
330
18
100
AcDbEntity
  8
DRAW2
100
AcDbLine
 10
1515.723579637519
 20
226.7435160183283
 30
0.0
 11
1515.723579637518
 21
230.7435160183283
 31
0.0
  0
LINE
  5
D066
330
18
100
AcDbEntity
  8
DRAW2
100
AcDbLine
 10
1519.573579637519
 20
230.7435160183288
 30
0.0
 11
1519.573579637519
 21
231.2435160183279
 31
0.0
  0
LINE
  5
D067
330
18
100
AcDbEntity
  8
DRAW2
100
AcDbLine
 10
1517.073579637519
 20
230.7435160183288
 30
0.0
 11
1517.073579637519
 21
231.2435160183279
 31
0.0
  0
LINE
  5
D068
330
18
100
AcDbEntity
  8
DRAW2
100
AcDbLine
 10
1514.323579637519
 20
231.2435160183283
 30
0.0
 11
1521.073579637519
 21
231.2435160183279
 31
0.0
  0
LINE
  5
D069
330
18
100
AcDbEntity
  8
DRAW2
100
AcDbLine
 10
1515.723579637518
 20
230.7435160183283
 30
0.0
 11
1520.92357963752
 21
230.7435160183283
 31
0.0
  0
LINE
  5
D06A
330
18
100
AcDbEntity
  8
DRAW2
100
AcDbLine
 10
1515.723579637519
 20
226.7435160183283
 30
0.0
 11
1520.92357963752
 21
226.7435160183283
 31
0.0
  0
LINE
  5
D06B
330
18
100
AcDbEntity
  8
DRAW2
100
AcDbLine
 10
1514.323579637519
 20
231.2435160183283
 30
0.0
 11
1514.323579637519
 21
235.2435160183279
 31
0.0
  0
LINE
  5
D06E
330
18
100
AcDbEntity
  8
DRAW2
100
AcDbLine
 10
1524.12357963752
 20
214.2435160183283
 30
0.0
 11
1524.12357963752
 21
224.2435160183288
 31
0.0
  0
LINE
  5
D06F
330
18
100
AcDbEntity
  8
DRAW2
100
AcDbLine
 10
1526.523579637519
 20
214.2435160183283
 30
0.0
 11
1526.523579637519
 21
224.2435160183288
 31
0.0
  0
LINE
  5
D070
330
18
100
AcDbEntity
  8
DRAW2
100
AcDbLine
 10
1546.523579637519
 20
214.2435160183283
 30
0.0
 11
1546.523579637519
 21
224.2435160183288
 31
0.0
  0
LINE
  5
D071
330
18
100
AcDbEntity
  8
DRAW2
100
AcDbLine
 10
1544.12357963752
 20
214.2435160183283
 30
0.0
 11
1544.12357963752
 21
224.2435160183288
 31
0.0
  0
LINE
  5
D072
330
18
100
AcDbEntity
  8
DRAW2
100
AcDbLine
 10
1539.52357963752
 20
214.2435160183283
 30
0.0
 11
1539.52357963752
 21
224.2435160183288
 31
0.0
  0
LINE
  5
D073
330
18
100
AcDbEntity
  8
DRAW2
100
AcDbLine
 10
1537.123579637519
 20
214.2435160183283
 30
0.0
 11
1537.123579637519
 21
224.2435160183288
 31
0.0
  0
LINE
  5
D074
330
18
100
AcDbEntity
  8
DRAW2
100
AcDbLine
 10
1537.123579637519
 20
214.2435160183283
 30
0.0
 11
1539.52357963752
 21
214.2435160183288
 31
0.0
  0
LINE
  5
D075
330
18
100
AcDbEntity
  8
DRAW2
100
AcDbLine
 10
1524.12357963752
 20
214.2435160183283
 30
0.0
 11
1526.523579637519
 21
214.2435160183288
 31
0.0
  0
LINE
  5
D076
330
18
100
AcDbEntity
  8
DRAW2
100
AcDbLine
 10
1544.12357963752
 20
214.2435160183283
 30
0.0
 11
1546.523579637519
 21
214.2435160183288
 31
0.0
  0
LINE
  5
D077
330
18
100
AcDbEntity
  8
DRAW2
100
AcDbLine
 10
1537.123579637519
 20
224.2435160183283
 30
0.0
 11
1539.52357963752
 21
224.2435160183283
 31
0.0
  0
LINE
  5
D078
330
18
100
AcDbEntity
  8
DRAW2
100
AcDbLine
 10
1534.323579637519
 20
231.2435160183283
 30
0.0
 11
1541.073579637519
 21
231.2435160183279
 31
0.0
  0
LINE
  5
D079
330
18
100
AcDbEntity
  8
DRAW2
100
AcDbLine
 10
1535.723579637519
 20
230.7435160183283
 30
0.0
 11
1540.92357963752
 21
230.7435160183283
 31
0.0
  0
LINE
  5
D07A
330
18
100
AcDbEntity
  8
DRAW2
100
AcDbLine
 10
1535.723579637519
 20
226.7435160183283
 30
0.0
 11
1540.92357963752
 21
226.7435160183283
 31
0.0
  0
LINE
  5
D07B
330
18
100
AcDbEntity
  8
DRAW2
100
AcDbLine
 10
1534.323579637519
 20
235.2435160183279
 30
0.0
 11
1549.323579637519
 21
235.2435160183283
 31
0.0
  0
LINE
  5
D07C
330
18
100
AcDbEntity
  8
DRAW2
100
AcDbLine
 10
1535.723579637519
 20
226.7435160183283
 30
0.0
 11
1537.123579637519
 21
224.2435160183283
 31
0.0
  0
LINE
  5
D07D
330
18
100
AcDbEntity
  8
DRAW2
100
AcDbLine
 10
1537.698579637519
 20
236.2435160183273
 30
0.0
 11
1537.698579637519
 21
235.2435160183279
 31
0.0
  0
LINE
  5
D07E
330
18
100
AcDbEntity
  8
DRAW2
100
AcDbLine
 10
1529.323579637519
 20
231.2435160183283
 30
0.0
 11
1529.323579637519
 21
235.2435160183279
 31
0.0
  0
LINE
  5
D07F
330
18
100
AcDbEntity
  8
DRAW2
100
AcDbLine
 10
1534.323579637519
 20
231.2435160183283
 30
0.0
 11
1534.323579637519
 21
235.2435160183279
 31
0.0
  0
LINE
  5
D080
330
18
100
AcDbEntity
  8
DRAW2
100
AcDbLine
 10
1527.923579637519
 20
226.7435160183283
 30
0.0
 11
1527.923579637519
 21
230.7435160183283
 31
0.0
  0
LINE
  5
D081
330
18
100
AcDbEntity
  8
DRAW2
100
AcDbLine
 10
1535.723579637519
 20
226.7435160183283
 30
0.0
 11
1535.723579637519
 21
230.7435160183283
 31
0.0
  0
LINE
  5
D082
330
18
100
AcDbEntity
  8
DRAW2
100
AcDbLine
 10
1537.073579637519
 20
230.7435160183288
 30
0.0
 11
1537.073579637519
 21
231.2435160183279
 31
0.0
  0
LINE
  5
D083
330
18
100
AcDbEntity
  8
DRAW2
100
AcDbLine
 10
1522.72357963752
 20
226.7435160183283
 30
0.0
 11
1524.12357963752
 21
224.2435160183283
 31
0.0
  0
LINE
  5
D084
330
18
100
AcDbEntity
  8
DRAW2
100
AcDbLine
 10
1524.12357963752
 20
224.2435160183283
 30
0.0
 11
1526.523579637519
 21
224.2435160183283
 31
0.0
  0
LINE
  5
D085
330
18
100
AcDbEntity
  8
DRAW2
100
AcDbLine
 10
1522.573579637519
 20
228.2435160183288
 30
0.0
 11
1522.573579637519
 21
231.2435160183279
 31
0.0
  0
LINE
  5
D086
330
18
100
AcDbEntity
  8
DRAW2
100
AcDbLine
 10
1522.72357963752
 20
226.7435160183283
 30
0.0
 11
1522.72357963752
 21
230.7435160183283
 31
0.0
  0
LINE
  5
D087
330
18
100
AcDbEntity
  8
DRAW2
100
AcDbLine
 10
1526.573579637519
 20
230.7435160183288
 30
0.0
 11
1526.573579637519
 21
231.2435160183279
 31
0.0
  0
LINE
  5
D088
330
18
100
AcDbEntity
  8
DRAW2
100
AcDbLine
 10
1524.073579637519
 20
230.7435160183288
 30
0.0
 11
1524.073579637519
 21
231.2435160183279
 31
0.0
  0
LINE
  5
D089
330
18
100
AcDbEntity
  8
DRAW2
100
AcDbLine
 10
1527.923579637519
 20
226.7435160183283
 30
0.0
 11
1526.523579637519
 21
224.2435160183283
 31
0.0
  0
LINE
  5
D08A
330
18
100
AcDbEntity
  8
DRAW2
100
AcDbLine
 10
1522.72357963752
 20
230.7435160183283
 30
0.0
 11
1527.923579637519
 21
230.7435160183283
 31
0.0
  0
LINE
  5
D08B
330
18
100
AcDbEntity
  8
DRAW2
100
AcDbLine
 10
1522.72357963752
 20
226.7435160183283
 30
0.0
 11
1527.923579637519
 21
226.7435160183283
 31
0.0
  0
LINE
  5
D08C
330
18
100
AcDbEntity
  8
DRAW2
100
AcDbLine
 10
1529.323579637519
 20
231.2435160183283
 30
0.0
 11
1522.573579637519
 21
231.2435160183279
 31
0.0
  0
LINE
  5
D08D
330
18
100
AcDbEntity
  8
DRAW2
100
AcDbLine
 10
1547.92357963752
 20
226.7435160183283
 30
0.0
 11
1546.523579637519
 21
224.2435160183283
 31
0.0
  0
LINE
  5
D08E
330
18
100
AcDbEntity
  8
DRAW2
100
AcDbLine
 10
1544.12357963752
 20
224.2435160183283
 30
0.0
 11
1546.523579637519
 21
224.2435160183283
 31
0.0
  0
LINE
  5
D08F
330
18
100
AcDbEntity
  8
DRAW2
100
AcDbLine
 10
1545.823579637519
 20
236.2435160183279
 30
0.0
 11
1545.823579637519
 21
235.2435160183279
 31
0.0
  0
LINE
  5
D090
330
18
100
AcDbEntity
  8
DRAW2
100
AcDbLine
 10
1544.823579637519
 20
236.2435160183279
 30
0.0
 11
1544.823579637519
 21
235.2435160183279
 31
0.0
  0
LINE
  5
D091
330
18
100
AcDbEntity
  8
DRAW2
100
AcDbLine
 10
1547.92357963752
 20
226.7435160183283
 30
0.0
 11
1547.92357963752
 21
230.7435160183283
 31
0.0
  0
LINE
  5
D092
330
18
100
AcDbEntity
  8
DRAW2
100
AcDbLine
 10
1546.573579637519
 20
230.7435160183288
 30
0.0
 11
1546.573579637519
 21
231.2435160183279
 31
0.0
  0
LINE
  5
D093
330
18
100
AcDbEntity
  8
DRAW2
100
AcDbLine
 10
1549.323579637519
 20
231.2435160183283
 30
0.0
 11
1549.323579637519
 21
235.2435160183279
 31
0.0
  0
LINE
  5
D094
330
18
100
AcDbEntity
  8
DRAW2
100
AcDbLine
 10
1540.92357963752
 20
226.7435160183283
 30
0.0
 11
1539.52357963752
 21
224.2435160183283
 31
0.0
  0
LINE
  5
D095
330
18
100
AcDbEntity
  8
DRAW2
100
AcDbLine
 10
1538.948579637518
 20
236.2435160183273
 30
0.0
 11
1538.948579637518
 21
235.2435160183279
 31
0.0
  0
LINE
  5
D096
330
18
100
AcDbEntity
  8
DRAW2
100
AcDbLine
 10
1542.723579637519
 20
226.7435160183283
 30
0.0
 11
1542.723579637518
 21
230.7435160183283
 31
0.0
  0
LINE
  5
D097
330
18
100
AcDbEntity
  8
DRAW2
100
AcDbLine
 10
1540.92357963752
 20
226.7435160183283
 30
0.0
 11
1540.92357963752
 21
230.7435160183283
 31
0.0
  0
LINE
  5
D098
330
18
100
AcDbEntity
  8
DRAW2
100
AcDbLine
 10
1541.073579637519
 20
228.2435160183288
 30
0.0
 11
1541.073579637519
 21
231.2435160183279
 31
0.0
  0
LINE
  5
D099
330
18
100
AcDbEntity
  8
DRAW2
100
AcDbLine
 10
1542.573579637519
 20
228.2435160183288
 30
0.0
 11
1542.573579637519
 21
231.2435160183279
 31
0.0
  0
LINE
  5
D09A
330
18
100
AcDbEntity
  8
DRAW2
100
AcDbLine
 10
1539.573579637519
 20
230.7435160183288
 30
0.0
 11
1539.573579637519
 21
231.2435160183279
 31
0.0
  0
LINE
  5
D09B
330
18
100
AcDbEntity
  8
DRAW2
100
AcDbLine
 10
1544.073579637519
 20
230.7435160183288
 30
0.0
 11
1544.073579637519
 21
231.2435160183279
 31
0.0
  0
LINE
  5
D09C
330
18
100
AcDbEntity
  8
DRAW2
100
AcDbLine
 10
1541.073579637519
 20
228.2435160183288
 30
0.0
 11
1542.573579637519
 21
228.2435160183288
 31
0.0
  0
LINE
  5
D09D
330
18
100
AcDbEntity
  8
DRAW2
100
AcDbLine
 10
1542.723579637519
 20
226.7435160183283
 30
0.0
 11
1544.12357963752
 21
224.2435160183283
 31
0.0
  0
LINE
  5
D09E
330
18
100
AcDbEntity
  8
DRAW2
100
AcDbLine
 10
1549.323579637519
 20
231.2435160183283
 30
0.0
 11
1542.573579637519
 21
231.2435160183279
 31
0.0
  0
LINE
  5
D09F
330
18
100
AcDbEntity
  8
DRAW2
100
AcDbLine
 10
1542.723579637518
 20
230.7435160183283
 30
0.0
 11
1547.92357963752
 21
230.7435160183283
 31
0.0
  0
LINE
  5
D0A0
330
18
100
AcDbEntity
  8
DRAW2
100
AcDbLine
 10
1542.723579637519
 20
226.7435160183283
 30
0.0
 11
1547.92357963752
 21
226.7435160183283
 31
0.0
  0
LINE
  5
D0A1
330
18
100
AcDbEntity
  8
DRAW2
100
AcDbLine
 10
1710.911167943606
 20
135.4316048626758
 30
0.0
 11
1704.53640217299
 21
143.0287548717525
 31
0.0
  0
LINE
  5
D0A9
330
18
100
AcDbEntity
  8
DRAW2
100
AcDbLine
 10
1725.61706814706
 20
92.1710172161463
 30
0.0
 11
1725.61706814706
 21
72.17101721614631
 31
0.0
  0
LINE
  5
D0AA
330
18
100
AcDbEntity
  8
DRAW2
100
AcDbLine
 10
1704.61706814706
 20
92.1710172161463
 30
0.0
 11
1704.61706814706
 21
72.17101721614631
 31
0.0
  0
ARC
  5
D0AB
330
18
100
AcDbEntity
  8
DRAW2
100
AcDbCircle
 10
1785.11706814706
 20
93.17101721614632
 30
0.0
 40
43.0
100
AcDbArc
 50
150.7663699999978
 51
209.2336100000035
  0
LINE
  5
D0AC
330
18
100
AcDbEntity
  8
DRAW2
100
AcDbLine
 10
1695.11706814706
 20
72.17101721614631
 30
0.0
 11
1695.11706814706
 21
57.17101721614629
 31
0.0
  0
LINE
  5
D0AD
330
18
100
AcDbEntity
  8
DRAW2
100
AcDbLine
 10
1704.61706814706
 20
92.1710172161463
 30
0.0
 11
1725.61706814706
 21
92.1710172161463
 31
0.0
  0
LINE
  5
D0AE
330
18
100
AcDbEntity
  8
DRAW2
100
AcDbLine
 10
1706.61703814706
 20
94.17101721614631
 30
0.0
 11
1723.61706814706
 21
94.17101721614631
 31
0.0
  0
LINE
  5
D0AF
330
18
100
AcDbEntity
  8
DRAW2
100
AcDbLine
 10
1704.61706814706
 20
92.17089721614641
 30
0.0
 11
1706.617008147059
 21
94.17089721614637
 31
0.0
  0
LINE
  5
D0B1
330
18
100
AcDbEntity
  8
DRAW3
100
AcDbLine
 10
1710.537708342378
 20
135.8766766841279
 30
0.0
 11
1712.890328178186
 21
137.979416240082
 31
0.0
  0
LINE
  5
D0B2
330
18
100
AcDbEntity
  8
DRAW2
100
AcDbLine
 10
1710.911167943606
 20
135.4316048626758
 30
0.0
 11
1713.290547416047
 21
137.558261817266
 31
0.0
  0
LINE
  5
D0B3
330
18
100
AcDbEntity
  8
DRAW2
100
AcDbLine
 10
1723.61712814706
 20
94.17095721614623
 30
0.0
 11
1725.61706814706
 21
92.1710572161462
 31
0.0
  0
LINE
  5
D0B5
330
18
100
AcDbEntity
  8
DRAW2
100
AcDbLine
 10
1670.11706814706
 20
194.6710172161463
 30
0.0
 11
1687.681188147059
 21
194.6710172161463
 31
0.0
  0
LINE
  5
D0B6
330
18
100
AcDbEntity
  8
DRAW2
100
AcDbLine
 10
1670.11706814706
 20
173.6710172161463
 30
0.0
 11
1690.11706814706
 21
173.6710172161463
 31
0.0
  0
LINE
  5
D0B7
330
18
100
AcDbEntity
  8
DRAW2
100
AcDbLine
 10
1670.11706814706
 20
194.6710172161463
 30
0.0
 11
1670.11706814706
 21
186.1710172161463
 31
0.0
  0
LINE
  5
D0B9
330
18
100
AcDbEntity
  8
DRAW2
100
AcDbLine
 10
1672.61706814706
 20
186.1710172161463
 30
0.0
 11
1672.61706814706
 21
182.1710172161463
 31
0.0
  0
LINE
  5
D0BA
330
18
100
AcDbEntity
  8
DRAW2
100
AcDbLine
 10
1670.11706814706
 20
182.1710172161463
 30
0.0
 11
1672.61706814706
 21
182.1710172161463
 31
0.0
  0
LINE
  5
D0BB
330
18
100
AcDbEntity
  8
DRAW2
100
AcDbLine
 10
1670.11706814706
 20
186.1710172161463
 30
0.0
 11
1672.61706814706
 21
186.1710172161463
 31
0.0
  0
LINE
  5
D0BC
330
18
100
AcDbEntity
  8
DRAW2
100
AcDbLine
 10
1670.11706814706
 20
182.1710172161463
 30
0.0
 11
1670.11706814706
 21
173.6710172161463
 31
0.0
  0
LINE
  5
D0C8
330
18
100
AcDbEntity
  8
DRAW3
100
AcDbLine
 10
1704.909861774218
 20
142.5836830503004
 30
0.0
 11
1707.389184138719
 21
144.5354244124954
 31
0.0
  0
LINE
  5
D0C9
330
18
100
AcDbEntity
  8
DRAW2
100
AcDbLine
 10
1704.53640217299
 20
143.0287548717525
 30
0.0
 11
1707.043925339236
 21
145.002696118884
 31
0.0
  0
LINE
  5
D0CC
330
18
100
AcDbEntity
  8
DRAW2
100
AcDbLine
 10
1690.11706814706
 20
177.3737672161462
 30
0.0
 11
1690.845508876676
 21
177.3965309889466
 31
0.0
  0
LINE
  5
D0CD
330
18
100
AcDbEntity
  8
DRAW2
100
AcDbLine
 10
1690.11706814706
 20
180.1085983851143
 30
0.0
 11
1690.11706814706
 21
173.6710172161463
 31
0.0
  0
CIRCLE
  5
D0D0
330
18
100
AcDbEntity
  8
DRAW2
100
AcDbCircle
 10
1705.117068147059
 20
204.1710262179425
 30
0.0
 40
10.50116005149908
  0
CIRCLE
  5
D0D1
330
18
100
AcDbEntity
  8
DRAW2
100
AcDbCircle
 10
1705.117068147059
 20
204.1710262179425
 30
0.0
 40
8.500850000000012
  0
LINE
  5
D0D2
330
18
100
AcDbEntity
  8
DRAW2
100
AcDbLine
 10
1689.321032445564
 20
224.8378879003515
 30
0.0
 11
1688.710728147059
 21
225.190247216146
 31
0.0
  0
LINE
  5
D0D3
330
18
100
AcDbEntity
  8
DRAW2
100
AcDbLine
 10
1687.978638147059
 20
227.9223672161463
 30
0.0
 11
1688.710698147059
 21
225.190247216146
 31
0.0
  0
LINE
  5
D0D4
330
18
100
AcDbEntity
  8
DRAW2
100
AcDbLine
 10
1692.129773420762
 20
235.1123006330436
 30
0.0
 11
1687.97866814706
 21
227.9223672161463
 31
0.0
  0
ARC
  5
D0D6
330
18
100
AcDbEntity
  8
DRAW2
100
AcDbCircle
 10
1610.605121539788
 20
272.5939424714122
 30
0.0
 40
30.0
100
AcDbArc
 50
59.99999999999997
 51
90.0
  0
ARC
  5
D0D7
330
18
100
AcDbEntity
  8
DRAW2
100
AcDbCircle
 10
1610.605121539788
 20
272.5939424714122
 30
0.0
 40
36.0
100
AcDbArc
 50
59.99999999999997
 51
90.0
  0
LINE
  5
D0D8
330
18
100
AcDbEntity
  8
DRAW2
100
AcDbLine
 10
1550.823579637518
 20
304.9689424714108
 30
0.0
 11
1556.190494478456
 21
304.9689424714113
 31
0.0
  0
LINE
  5
D0D9
330
18
100
AcDbEntity
  8
DRAW2
100
AcDbLine
 10
1543.948579637519
 20
305.9689424714113
 30
0.0
 11
1558.819674340734
 21
305.9689424714117
 31
0.0
  0
ARC
  5
D0DA
330
18
100
AcDbEntity
  8
DRAW2
100
AcDbCircle
 10
1566.823579637524
 20
280.9689424714113
 30
0.0
 40
26.25
100
AcDbArc
 50
90.0
 51
180.0
  0
ARC
  5
D0DB
330
18
100
AcDbEntity
  8
DRAW2
100
AcDbCircle
 10
1566.823579637524
 20
280.9689424714113
 30
0.0
 40
25.0
100
AcDbArc
 50
90.0
 51
180.0
  0
ARC
  5
D0DD
330
18
100
AcDbEntity
  8
DRAW2
100
AcDbCircle
 10
1567.823579637522
 20
278.9689424714125
 30
0.0
 40
26.0
100
AcDbArc
 50
90.0
 51
180.0
  0
ARC
  5
D0DE
330
18
100
AcDbEntity
  8
DRAW2
100
AcDbCircle
 10
1567.823579637522
 20
278.9689424714125
 30
0.0
 40
25.0
100
AcDbArc
 50
90.0
 51
180.0
  0
LINE
  5
D0E0
330
18
100
AcDbEntity
  8
DRAW2
100
AcDbLine
 10
1543.948579637519
 20
307.2189424714113
 30
0.0
 11
1575.19588457211
 21
307.2189424714117
 31
0.0
  0
ARC
  5
D0E3
330
18
100
AcDbEntity
  8
DRAW2
100
AcDbCircle
 10
1550.823579637521
 20
278.9689424714122
 30
0.0
 40
26.0
100
AcDbArc
 50
90.0
 51
180.0
  0
ARC
  5
D0E4
330
18
100
AcDbEntity
  8
DRAW2
100
AcDbCircle
 10
1550.823579637521
 20
278.9689424714122
 30
0.0
 40
25.0
100
AcDbArc
 50
90.0
 51
180.0
  0
ARC
  5
D0E6
330
18
100
AcDbEntity
  8
DRAW2
100
AcDbCircle
 10
1543.948579637521
 20
280.9689424714117
 30
0.0
 40
26.25
100
AcDbArc
 50
90.0
 51
180.0
  0
ARC
  5
D0E7
330
18
100
AcDbEntity
  8
DRAW2
100
AcDbCircle
 10
1543.948579637521
 20
280.9689424714117
 30
0.0
 40
25.0
100
AcDbArc
 50
90.0
 51
180.0
  0
LINE
  5
D0E9
330
18
100
AcDbEntity
  8
DRAW2
100
AcDbLine
 10
1518.948579637521
 20
278.5590524465952
 30
0.0
 11
1518.948579637521
 21
280.9689424714117
 31
0.0
  0
LINE
  5
D0EA
330
18
100
AcDbEntity
  8
DRAW2
100
AcDbLine
 10
1517.698579637521
 20
278.3995045670546
 30
0.0
 11
1517.698579637521
 21
280.9689424714117
 31
0.0
  0
LINE
  5
D0EC
330
18
100
AcDbEntity
  8
DRAW2
100
AcDbLine
 10
1543.823579637529
 20
273.3022381275639
 30
0.0
 11
1543.823579637519
 21
253.3022381275638
 31
0.0
  0
LINE
  5
D0ED
330
18
100
AcDbEntity
  8
DRAW2
100
AcDbLine
 10
1539.823579637526
 20
273.3022381275639
 30
0.0
 11
1539.823579637511
 21
253.3022381275638
 31
0.0
  0
ARC
  5
D0EF
330
18
100
AcDbEntity
  8
DRAW2
100
AcDbCircle
 10
1516.823579637519
 20
252.9538234661287
 30
0.0
 40
25.0
100
AcDbArc
 50
340.4757284897096
 51
0.0
  0
ARC
  5
D0F0
330
18
100
AcDbEntity
  8
DRAW2
100
AcDbCircle
 10
1566.823579637519
 20
253.3022381275595
 30
0.0
 40
25.0
100
AcDbArc
 50
180.0
 51
199.9484435888015
  0
ARC
  5
D0F1
330
18
100
AcDbEntity
  8
DRAW2
100
AcDbCircle
 10
1516.823579637519
 20
252.9538234661287
 30
0.0
 40
23.75
100
AcDbArc
 50
340.4757284897096
 51
0.0
  0
LINE
  5
D0F4
330
18
100
AcDbEntity
  8
DRAW2
100
AcDbLine
 10
1539.823579637511
 20
253.3022381275638
 30
0.0
 11
1543.823579637519
 21
253.3022381275638
 31
0.0
  0
LINE
  5
D0F5
330
18
100
AcDbEntity
  8
DRAW2
100
AcDbLine
 10
1540.573579637515
 20
252.9538234661287
 30
0.0
 11
1540.573579637515
 21
253.3022381275638
 31
0.0
  0
LINE
  5
D0F6
330
18
100
AcDbEntity
  8
DRAW2
100
AcDbLine
 10
1541.823579637519
 20
252.9538234661287
 30
0.0
 11
1541.823579637519
 21
253.3022381275638
 31
0.0
  0
ARC
  5
D0F8
330
18
100
AcDbEntity
  8
DRAW2
100
AcDbCircle
 10
1566.823579637519
 20
253.3022381275595
 30
0.0
 40
24.0
100
AcDbArc
 50
180.0
 51
199.9484435888015
  0
TEXT
  5
D0F9
330
18
100
AcDbEntity
  8
DRAW4
100
AcDbText
 10
1543.423579637521
 20
262.3758959159463
 30
0.0
 40
3.2
  1
A
 50
90.0
 51
10.0
  7
DIMFONT
 72
     1
 11
1541.823579637522
 21
263.7473244873749
 31
0.0
100
AcDbText
 73
     2
  0
LINE
  5
D0FA
330
18
100
AcDbEntity
  8
DRAW2
100
AcDbLine
 10
1525.823579637519
 20
278.5590524465949
 30
0.0
 11
1525.823579637519
 21
278.9689424714117
 31
0.0
  0
LINE
  5
D0FC
330
18
100
AcDbEntity
  8
DRAW2
100
AcDbLine
 10
1524.823579637519
 20
278.3995045670542
 30
0.0
 11
1524.823579637519
 21
278.9689424714117
 31
0.0
  0
LINE
  5
D0FD
330
18
100
AcDbEntity
  8
DRAW2
100
AcDbLine
 10
1542.823579637528
 20
278.5590524465949
 30
0.0
 11
1542.823579637528
 21
278.9689424714122
 31
0.0
  0
LINE
  5
D0FE
330
18
100
AcDbEntity
  8
DRAW2
100
AcDbLine
 10
1541.823579637528
 20
278.3057497084145
 30
0.0
 11
1541.823579637528
 21
280.9689424714108
 31
0.0
  0
LINE
  5
D0FF
330
18
100
AcDbEntity
  8
DRAW2
100
AcDbLine
 10
1540.573579637529
 20
278.2399566875134
 30
0.0
 11
1540.573579637529
 21
280.9689424714113
 31
0.0
  0
LINE
  5
D102
330
18
100
AcDbEntity
  8
DRAW2
100
AcDbLine
 10
1539.823579637526
 20
273.3022381275639
 30
0.0
 11
1543.823579637529
 21
273.3022381275639
 31
0.0
  0
LINE
  5
D103
330
18
100
AcDbEntity
  8
DRAW2
100
AcDbLine
 10
1542.823579637528
 20
273.3022381275639
 30
0.0
 11
1542.823579637528
 21
276.5590524465948
 31
0.0
  0
LINE
  5
D105
330
18
100
AcDbEntity
  8
DRAW2
100
AcDbLine
 10
1541.823579637528
 20
273.3022381275639
 30
0.0
 11
1541.823579637528
 21
276.3057497084145
 31
0.0
  0
LINE
  5
D106
330
18
100
AcDbEntity
  8
DRAW2
100
AcDbLine
 10
1540.573579637528
 20
273.3022381275639
 30
0.0
 11
1540.573579637528
 21
276.2399566875127
 31
0.0
  0
LINE
  5
D108
330
18
100
AcDbEntity
  8
DRAW2
100
AcDbLine
 10
1550.823579637519
 20
303.9689424714117
 30
0.0
 11
1554.171998708644
 21
303.9689424714117
 31
0.0
  0
LINE
  5
D10A
330
18
100
AcDbEntity
  8
DRAW2
100
AcDbLine
 10
1575.195884572109
 20
302.593942471411
 30
0.0
 11
1605.98210079733
 21
302.5939424714117
 31
0.0
  0
LINE
  5
D10B
330
18
100
AcDbEntity
  8
DRAW2
100
AcDbLine
 10
1575.19588457211
 20
308.593942471411
 30
0.0
 11
1604.981790068283
 21
308.5939424714116
 31
0.0
  0
LINE
  5
D10C
330
18
100
AcDbEntity
  8
DRAW2
100
AcDbLine
 10
1567.823579637522
 20
303.9689424714126
 30
0.0
 11
1575.195884572109
 21
303.9689424714126
 31
0.0
  0
LINE
  5
D10D
330
18
100
AcDbEntity
  8
DRAW2
100
AcDbLine
 10
1566.823579637524
 20
305.9689424714113
 30
0.0
 11
1575.19588457211
 21
305.9689424714113
 31
0.0
  0
LINE
  5
D10E
330
18
100
AcDbEntity
  8
DRAW2
100
AcDbLine
 10
1559.823579637524
 20
304.9689424714113
 30
0.0
 11
1575.19588457211
 21
304.9689424714122
 31
0.0
  0
LINE
  5
D10F
330
18
100
AcDbEntity
  8
DRAW2
100
AcDbLine
 10
1557.025620666391
 20
303.9689424714117
 30
0.0
 11
1560.682151208975
 21
303.9689424714117
 31
0.0
  0
LINE
  5
D110
330
18
100
AcDbEntity
  8
DRAW2
100
AcDbLine
 10
1575.19588457211
 20
308.5939424714115
 30
0.0
 11
1575.195884572109
 21
302.5939424714115
 31
0.0
  0
LINE
  5
D111
330
18
100
AcDbEntity
  8
DRAW2
100
AcDbLine
 10
1607.982100797331
 20
302.5939424714122
 30
0.0
 11
1610.605121539786
 21
302.5939424714122
 31
0.0
  0
LINE
  5
D112
330
18
100
AcDbEntity
  8
DRAW2
100
AcDbLine
 10
1606.981790068283
 20
308.5939424714122
 30
0.0
 11
1610.605121539786
 21
308.5939424714122
 31
0.0
  0
LINE
  5
D113
330
18
100
AcDbEntity
  8
DRAW2
100
AcDbLine
 10
1747.617068147059
 20
346.1710172161463
 30
0.0
 11
1747.617068147059
 21
336.1710172161463
 31
0.0
  0
LINE
  5
D114
330
18
100
AcDbEntity
  8
DRAW2
100
AcDbLine
 10
1685.469413088999
 20
274.11566945498
 30
0.0
 11
1687.634476598461
 21
272.8656694549799
 31
0.0
  0
LINE
  5
D115
330
18
100
AcDbEntity
  8
DRAW2
100
AcDbLine
 10
1687.325502002246
 20
270.3305097560865
 30
0.0
 11
1685.593451098461
 21
269.3305095894363
 31
0.0
  0
LINE
  5
D117
330
18
100
AcDbEntity
  8
DRAW2
100
AcDbLine
 10
1681.884476801355
 20
261.5994951284848
 30
0.0
 11
1686.833609043089
 21
258.7421122964649
 31
0.0
  0
LINE
  5
D118
330
18
100
AcDbEntity
  8
DRAW2
100
AcDbLine
 10
1683.925502002246
 20
264.4415370103522
 30
0.0
 11
1688.68864172306
 21
261.6915370103523
 31
0.0
  0
LINE
  5
D11A
330
18
100
AcDbEntity
  8
DRAW2
100
AcDbLine
 10
1687.634476598461
 20
272.8656694549799
 30
0.0
 11
1681.884476598461
 21
262.9063773114588
 31
0.0
  0
LINE
  5
D11C
330
18
100
AcDbEntity
  8
DRAW2
100
AcDbLine
 10
1628.605121539786
 20
303.7708570076509
 30
0.0
 11
1683.661400387108
 21
271.9840995945724
 31
0.0
  0
LINE
  5
D11D
330
18
100
AcDbEntity
  8
DRAW2
100
AcDbLine
 10
1625.605121539788
 20
298.5747045849458
 30
0.0
 11
1680.661400387108
 21
266.7879471718662
 31
0.0
  0
LINE
  5
D11E
330
18
100
AcDbEntity
  8
DRAW2
100
AcDbLine
 10
1685.469413088999
 20
274.11566945498
 30
0.0
 11
1679.719413088999
 21
264.1563773114588
 31
0.0
  0
LINE
  5
D11F
330
18
100
AcDbEntity
  8
DRAW2
100
AcDbLine
 10
1684.892062887107
 20
274.1156695715424
 30
0.0
 11
1679.430737887107
 21
264.6563771948963
 31
0.0
  0
LINE
  5
D120
330
18
100
AcDbEntity
  8
DRAW2
100
AcDbLine
 10
1683.925502002246
 20
264.4415370103522
 30
0.0
 11
1683.92550209846
 21
266.4415371770024
 31
0.0
  0
LINE
  5
D121
330
18
100
AcDbEntity
  8
DRAW2
100
AcDbLine
 10
1679.719413088999
 20
264.1563773114588
 30
0.0
 11
1681.884476598461
 21
262.9063773114588
 31
0.0
  0
LINE
  5
D122
330
18
100
AcDbEntity
  8
DRAW2
100
AcDbLine
 10
1683.925502002246
 20
264.4415370103522
 30
0.0
 11
1682.193451098461
 21
263.441536843702
 31
0.0
  0
LINE
  5
D123
330
18
100
AcDbEntity
  8
DRAW2
100
AcDbLine
 10
1681.884476598461
 20
262.9063773114588
 30
0.0
 11
1681.884476801355
 21
261.5994951284847
 31
0.0
  0
LINE
  5
D124
330
18
100
AcDbEntity
  8
DRAW2
100
AcDbLine
 10
1679.719413088999
 20
264.1563773114588
 30
0.0
 11
1679.430737887107
 21
264.6563771948963
 31
0.0
  0
LINE
  5
D125
330
18
100
AcDbEntity
  8
DRAW2
100
AcDbLine
 10
1685.469413088999
 20
274.11566945498
 30
0.0
 11
1684.892062887107
 21
274.1156695715424
 31
0.0
  0
LINE
  5
D126
330
18
100
AcDbEntity
  8
DRAW2
100
AcDbLine
 10
1719.321057331522
 20
276.7994204807205
 30
0.0
 11
1718.710728147059
 21
277.151797216146
 31
0.0
  0
LINE
  5
D128
330
18
100
AcDbEntity
  8
DRAW2
100
AcDbLine
 10
1697.026336844736
 20
265.653490579114
 30
0.0
 11
1695.294286037167
 21
266.653490579114
 31
0.0
  0
LINE
  5
D129
330
18
100
AcDbEntity
  8
DRAW2
100
AcDbLine
 10
1692.088641723059
 20
267.5805097560863
 30
0.0
 11
1692.088641626845
 21
265.5805095894361
 31
0.0
  0
LINE
  5
D12A
330
18
100
AcDbEntity
  8
DRAW2
100
AcDbLine
 10
1697.426336844736
 20
266.3463109021415
 30
0.0
 11
1702.622489267442
 21
263.3463109021414
 31
0.0
  0
LINE
  5
D12C
330
18
100
AcDbEntity
  8
DRAW2
100
AcDbLine
 10
1694.129667126845
 20
269.1156694549798
 30
0.0
 11
1688.379667126843
 21
259.1563773114588
 31
0.0
  0
LINE
  5
D12D
330
18
100
AcDbEntity
  8
DRAW2
100
AcDbLine
 10
1697.426336844736
 20
266.3463109021415
 30
0.0
 11
1692.426336844736
 21
257.6860568642972
 31
0.0
  0
LINE
  5
D12E
330
18
100
AcDbEntity
  8
DRAW2
100
AcDbLine
 10
1695.108419851506
 20
267.6845609021414
 30
0.0
 11
1690.108419851507
 21
259.0243068642971
 31
0.0
  0
LINE
  5
D12F
330
18
100
AcDbEntity
  8
DRAW2
100
AcDbLine
 10
1695.356036037167
 20
266.7604447164813
 30
0.0
 11
1691.032536037167
 21
259.2719230499572
 31
0.0
  0
LINE
  5
D130
330
18
100
AcDbEntity
  8
DRAW2
100
AcDbLine
 10
1703.429136725486
 20
262.8712796528266
 30
0.0
 11
1702.618456567205
 21
263.3393260604377
 31
0.0
  0
LINE
  5
D131
330
18
100
AcDbEntity
  8
DRAW2
100
AcDbLine
 10
1704.333883825011
 20
262.3105332276475
 30
0.0
 11
1699.375196325011
 21
253.7218345387909
 31
0.0
  0
LINE
  5
D132
330
18
100
AcDbEntity
  8
DRAW2
100
AcDbLine
 10
1701.276768962382
 20
261.0154549610001
 30
0.0
 11
1701.276768962382
 21
262.1794686216509
 31
0.0
  0
LINE
  5
D133
330
18
100
AcDbEntity
  8
DRAW2
100
AcDbLine
 10
1702.118456567205
 20
263.637314317304
 30
0.0
 11
1701.276768962382
 21
262.1794686216509
 31
0.0
  0
LINE
  5
D134
330
18
100
AcDbEntity
  8
DRAW2
100
AcDbLine
 10
1697.930369544974
 20
266.0553074869786
 30
0.0
 11
1697.088681940151
 21
264.5974617913255
 31
0.0
  0
LINE
  5
D135
330
18
100
AcDbEntity
  8
DRAW2
100
AcDbLine
 10
1696.080616539676
 20
264.015454961
 30
0.0
 11
1697.088681940151
 21
264.5974617913255
 31
0.0
  0
LINE
  5
D136
330
18
100
AcDbEntity
  8
DRAW2
100
AcDbLine
 10
1701.276768962382
 20
262.1794686216509
 30
0.0
 11
1697.088681940151
 21
264.5974617913255
 31
0.0
  0
LINE
  5
D137
330
18
100
AcDbEntity
  8
DRAW3
100
AcDbLine
 10
1698.437202125962
 20
254.2249952983897
 30
0.0
 11
1699.665696325011
 21
254.2249952983895
 31
0.0
  0
LINE
  5
D138
330
18
100
AcDbEntity
  8
DRAW2
100
AcDbLine
 10
1698.437202125962
 20
254.2249952983897
 30
0.0
 11
1697.62652196768
 21
254.6930417060008
 31
0.0
  0
LINE
  5
D139
330
18
100
AcDbEntity
  8
DRAW2
100
AcDbLine
 10
1698.968209572503
 20
257.0169128054384
 30
0.0
 11
1697.960144172027
 21
256.4349059751129
 31
0.0
  0
LINE
  5
D13A
330
18
100
AcDbEntity
  8
DRAW2
100
AcDbLine
 10
1697.118456567205
 20
254.9770602794598
 30
0.0
 11
1697.960144172027
 21
256.4349059751129
 31
0.0
  0
LINE
  5
D13B
330
18
100
AcDbEntity
  8
DRAW3
100
AcDbLine
 10
1691.032536037167
 20
259.2719230499572
 30
0.0
 11
1689.092917126845
 21
260.3917625499573
 31
0.0
  0
LINE
  5
D13C
330
18
100
AcDbEntity
  8
DRAW2
100
AcDbLine
 10
1692.826336844736
 20
258.3788771873245
 30
0.0
 11
1691.094286037166
 21
259.3788771873247
 31
0.0
  0
LINE
  5
D13D
330
18
100
AcDbEntity
  8
DRAW2
100
AcDbLine
 10
1693.772057149796
 20
260.0169128054385
 30
0.0
 11
1693.772057149796
 21
258.8528991447876
 31
0.0
  0
LINE
  5
D13E
330
18
100
AcDbEntity
  8
DRAW2
100
AcDbLine
 10
1692.930369544973
 20
257.3950534491344
 30
0.0
 11
1693.772057149796
 21
258.8528991447876
 31
0.0
  0
LINE
  5
D13F
330
18
100
AcDbEntity
  8
DRAW2
100
AcDbLine
 10
1688.379667126843
 20
259.1563773114588
 30
0.0
 11
1686.833609043089
 21
258.7421122964649
 31
0.0
  0
LINE
  5
D140
330
18
100
AcDbEntity
  8
DRAW2
100
AcDbLine
 10
1688.68864172306
 20
261.6915370103523
 30
0.0
 11
1688.688641626844
 21
259.691536843702
 31
0.0
  0
LINE
  5
D141
330
18
100
AcDbEntity
  8
DRAW2
100
AcDbLine
 10
1691.032536037167
 20
259.2719230499572
 30
0.0
 11
1690.108419851507
 21
259.0243068642971
 31
0.0
  0
LINE
  5
D142
330
18
100
AcDbEntity
  8
DRAW2
100
AcDbLine
 10
1690.108419851507
 20
259.0243068642971
 30
0.0
 11
1688.754667126843
 21
259.8058963642971
 31
0.0
  0
LINE
  5
D143
330
18
100
AcDbEntity
  8
DRAW2
100
AcDbLine
 10
1692.426336844736
 20
257.6860568642972
 30
0.0
 11
1697.622489267442
 21
254.686056864297
 31
0.0
  0
LINE
  5
D144
330
18
100
AcDbEntity
  8
DRAW2
100
AcDbLine
 10
1697.960144172027
 20
256.4349059751129
 30
0.0
 11
1693.772057149796
 21
258.8528991447876
 31
0.0
  0
LINE
  5
D145
330
18
100
AcDbEntity
  8
DRAW2
100
AcDbLine
 10
1702.622489267442
 20
263.3463109021414
 30
0.0
 11
1697.622489267442
 21
254.686056864297
 31
0.0
  0
LINE
  5
D146
330
18
100
AcDbEntity
  8
DRAW2
100
AcDbLine
 10
1688.68864172306
 20
261.6915370103523
 30
0.0
 11
1690.420692626844
 21
262.6915371770024
 31
0.0
  0
LINE
  5
D147
330
18
100
AcDbEntity
  8
DRAW3
100
AcDbLine
 10
1699.665696325011
 20
254.2249952983895
 30
0.0
 11
1700.57576584946
 21
253.7368139496409
 31
0.0
  0
LINE
  5
D148
330
18
100
AcDbEntity
  8
DRAW2
100
AcDbLine
 10
1700.283362721886
 20
253.2346740696141
 30
0.0
 11
1698.437202125962
 21
254.2249952983897
 31
0.0
  0
LINE
  5
D149
330
18
100
AcDbEntity
  8
DRAW3
100
AcDbLine
 10
1703.429136725486
 20
262.8712796528266
 30
0.0
 11
1704.043383825011
 21
261.8073724680487
 31
0.0
  0
LINE
  5
D14A
330
18
100
AcDbEntity
  8
DRAW3
100
AcDbLine
 10
1704.043383825011
 20
261.8073724680487
 30
0.0
 11
1705.298012696142
 21
261.0297754414498
 31
0.0
  0
LINE
  5
D14B
330
18
100
AcDbEntity
  8
DRAW2
100
AcDbLine
 10
1705.637105433396
 20
261.5028192725513
 30
0.0
 11
1703.429136725486
 21
262.8712796528266
 31
0.0
  0
LINE
  5
D14D
330
18
100
AcDbEntity
  8
DRAW3
100
AcDbLine
 10
1695.356036037167
 20
266.7604447164813
 30
0.0
 11
1693.416417126845
 21
267.8802842164813
 31
0.0
  0
LINE
  5
D14E
330
18
100
AcDbEntity
  8
DRAW2
100
AcDbLine
 10
1688.766269870117
 20
273.5191103707553
 30
0.0
 11
1693.715402111851
 21
270.6617275387354
 31
0.0
  0
LINE
  5
D14F
330
18
100
AcDbEntity
  8
DRAW2
100
AcDbLine
 10
1687.325502002246
 20
270.3305097560865
 30
0.0
 11
1692.088641723059
 21
267.5805097560863
 31
0.0
  0
LINE
  5
D150
330
18
100
AcDbEntity
  8
DRAW2
100
AcDbLine
 10
1694.129667126845
 20
269.1156694549798
 30
0.0
 11
1693.715402111851
 21
270.6617275387356
 31
0.0
  0
LINE
  5
D151
330
18
100
AcDbEntity
  8
DRAW2
100
AcDbLine
 10
1692.088641723059
 20
267.5805097560863
 30
0.0
 11
1693.820692626845
 21
268.5805099227367
 31
0.0
  0
LINE
  5
D152
330
18
100
AcDbEntity
  8
DRAW2
100
AcDbLine
 10
1695.356036037167
 20
266.7604447164813
 30
0.0
 11
1695.108419851506
 21
267.6845609021414
 31
0.0
  0
LINE
  5
D153
330
18
100
AcDbEntity
  8
DRAW2
100
AcDbLine
 10
1695.108419851506
 20
267.6845609021414
 30
0.0
 11
1693.754667126845
 21
268.4661504021415
 31
0.0
  0
LINE
  5
D154
330
18
100
AcDbEntity
  8
DRAW2
100
AcDbLine
 10
1687.325502002246
 20
270.3305097560865
 30
0.0
 11
1687.32550209846
 21
272.3305099227367
 31
0.0
  0
LINE
  5
D155
330
18
100
AcDbEntity
  8
DRAW2
100
AcDbLine
 10
1687.634476598461
 20
272.8656694549799
 30
0.0
 11
1688.766269870117
 21
273.5191103707554
 31
0.0
  0
ARC
  5
D156
330
18
100
AcDbEntity
  8
DRAW2
100
AcDbCircle
 10
1716.21069814706
 20
272.8216572161461
 30
0.0
 40
1.0
100
AcDbArc
 50
91.9890390731585
 51
150.0000000000019
  0
LINE
  5
D157
330
18
100
AcDbEntity
  8
DRAW2
100
AcDbLine
 10
1715.97866814706
 20
276.4196772161462
 30
0.0
 11
1718.710758147059
 21
277.1516772161461
 31
0.0
  0
LINE
  5
D158
330
18
100
AcDbEntity
  8
DRAW2
100
AcDbLine
 10
1716.658378089248
 20
274.2952480894214
 30
0.0
 11
1715.22860814706
 21
275.120727216146
 31
0.0
  0
LINE
  5
D159
330
18
100
AcDbEntity
  8
DRAW2
100
AcDbLine
 10
1715.34466814706
 20
273.321657216146
 30
0.0
 11
1714.875882901353
 21
272.5097024191729
 31
0.0
  0
LINE
  5
D15A
330
18
100
AcDbEntity
  8
DRAW2
100
AcDbLine
 10
1715.97863814706
 20
276.419737216146
 30
0.0
 11
1711.827500754711
 21
269.22975461123
 31
0.0
  0
ARC
  5
D15B
330
18
100
AcDbEntity
  8
DRAW2
100
AcDbCircle
 10
1785.11706814706
 20
315.1710172161463
 30
0.0
 40
43.0
100
AcDbArc
 50
150.7663699999978
 51
209.2336100000035
  0
LINE
  5
D15C
330
18
100
AcDbEntity
  8
DRAW2
100
AcDbLine
 10
1750.11730814706
 20
346.1721772161463
 30
0.0
 11
1750.11730814706
 21
363.1721772161463
 31
0.0
  0
LINE
  5
D15D
330
18
100
AcDbEntity
  8
DRAW2
100
AcDbLine
 10
1750.11718814706
 20
363.171087216146
 30
0.0
 11
1752.11718814706
 21
365.171087216146
 31
0.0
  0
ARC
  5
D15F
330
18
100
AcDbEntity
  8
DRAW2
100
AcDbCircle
 10
1785.11706814706
 20
204.1710172161462
 30
0.0
 40
98.0
100
AcDbArc
 50
293.3114400000013
 51
66.68855999999852
  0
CIRCLE
  5
D160
330
18
100
AcDbEntity
  8
DRAW2
100
AcDbCircle
 10
1825.117060351275
 20
134.8889804124935
 30
0.0
 40
10.50116005149908
  0
CIRCLE
  5
D161
330
18
100
AcDbEntity
  8
DRAW2
100
AcDbCircle
 10
1825.117060351275
 20
134.8889804124935
 30
0.0
 40
8.500850000000012
  0
LINE
  5
D164
330
18
100
AcDbEntity
  8
HIDDEN
100
AcDbLine
 10
1855.117009364845
 20
139.1711287186162
 30
0.0
 11
1855.117009364845
 21
161.1711287186162
 31
0.0
  0
CIRCLE
  5
D165
330
18
100
AcDbEntity
  8
DRAW2
100
AcDbCircle
 10
1785.11706814706
 20
93.17101721614632
 30
0.0
 40
11.0
  0
CIRCLE
  5
D166
330
18
100
AcDbEntity
  8
DRAW2
100
AcDbCircle
 10
1785.11706814706
 20
93.17101721614632
 30
0.0
 40
16.0
  0
CIRCLE
  5
D167
330
18
100
AcDbEntity
  8
DRAW2
100
AcDbCircle
 10
1785.11706814706
 20
93.17101721614632
 30
0.0
 40
20.5
  0
CIRCLE
  5
D168
330
18
100
AcDbEntity
  8
DRAW2
100
AcDbCircle
 10
1785.11706814706
 20
93.17101721614632
 30
0.0
 40
18.5
  0
LINE
  5
D169
330
18
100
AcDbEntity
  8
DRAW2
100
AcDbLine
 10
1844.61706814706
 20
92.1710172161463
 30
0.0
 11
1844.61706814706
 21
72.17101721614631
 31
0.0
  0
LINE
  5
D16A
330
18
100
AcDbEntity
  8
DRAW2
100
AcDbLine
 10
1865.61706814706
 20
92.1710172161463
 30
0.0
 11
1865.61706814706
 21
72.17101721614631
 31
0.0
  0
ARC
  5
D16B
330
18
100
AcDbEntity
  8
DRAW2
100
AcDbCircle
 10
1785.11706814706
 20
93.17101721614632
 30
0.0
 40
43.0
100
AcDbArc
 50
330.7663599999997
 51
0.0
  0
LINE
  5
D16C
330
18
100
AcDbEntity
  8
DRAW2
100
AcDbLine
 10
1875.11706814706
 20
72.17101721614631
 30
0.0
 11
1875.11706814706
 21
57.17101721614629
 31
0.0
  0
LINE
  5
D16D
330
18
100
AcDbEntity
  8
DRAW2
100
AcDbLine
 10
1865.61706814706
 20
92.1710172161463
 30
0.0
 11
1844.61706814706
 21
92.1710172161463
 31
0.0
  0
LINE
  5
D16E
330
18
100
AcDbEntity
  8
DRAW2
100
AcDbLine
 10
1863.617098147059
 20
94.17101721614631
 30
0.0
 11
1846.61706814706
 21
94.17101721614631
 31
0.0
  0
ARC
  5
D16F
330
18
100
AcDbEntity
  8
DRAW2
100
AcDbCircle
 10
1785.11706814706
 20
93.17101721614632
 30
0.0
 40
43.0
100
AcDbArc
 50
0.0
 51
29.23363700000018
  0
LINE
  5
D170
330
18
100
AcDbEntity
  8
DRAW2
100
AcDbLine
 10
1846.61700814706
 20
94.17092721614631
 30
0.0
 11
1844.61709814706
 21
92.1710172161463
 31
0.0
  0
LINE
  5
D171
330
18
100
AcDbEntity
  8
DRAW2
100
AcDbLine
 10
1865.61704814706
 20
92.17083721614631
 30
0.0
 11
1863.61706814706
 21
94.17083721614631
 31
0.0
  0
LINE
  5
D172
330
18
100
AcDbEntity
  8
HIDDEN
100
AcDbLine
 10
1855.117009364845
 20
139.1711287186162
 30
0.0
 11
1858.458745029988
 21
139.1711287186161
 31
0.0
  0
LINE
  5
D173
330
18
100
AcDbEntity
  8
HIDDEN
100
AcDbLine
 10
1785.117009364846
 20
146.1711587186165
 30
0.0
 11
1839.362309364847
 21
146.1711587186165
 31
0.0
  0
LINE
  5
D174
330
18
100
AcDbEntity
  8
HIDDEN
100
AcDbLine
 10
1785.117009364847
 20
154.1711287186164
 30
0.0
 11
1839.362309364847
 21
154.1711287186164
 31
0.0
  0
CIRCLE
  5
D176
330
18
100
AcDbEntity
  8
HIDDEN
100
AcDbCircle
 10
1785.117009364847
 20
150.1711287186163
 30
0.0
 40
4.0
  0
LINE
  5
D178
330
18
100
AcDbEntity
  8
HIDDEN
100
AcDbLine
 10
1845.117009364847
 20
156.4004087186163
 30
0.0
 11
1855.117009364845
 21
156.7496187186165
 31
0.0
  0
LINE
  5
D179
330
18
100
AcDbEntity
  8
HIDDEN
100
AcDbLine
 10
1855.117009364845
 20
143.5926387186165
 30
0.0
 11
1845.117009364847
 21
143.9418187186165
 31
0.0
  0
LINE
  5
D17A
330
18
100
AcDbEntity
  8
HIDDEN
100
AcDbLine
 10
1855.117009364845
 20
144.4486544616677
 30
0.0
 11
1845.117009364847
 21
144.7978687186163
 31
0.0
  0
LINE
  5
D17B
330
18
100
AcDbEntity
  8
HIDDEN
100
AcDbLine
 10
1845.117039364847
 20
155.5444187186165
 30
0.0
 11
1855.117009364845
 21
155.8936330775321
 31
0.0
  0
LINE
  5
D17C
330
18
100
AcDbEntity
  8
HIDDEN
100
AcDbLine
 10
1840.117009364847
 20
144.7978387186162
 30
0.0
 11
1840.117009364847
 21
155.5444187186163
 31
0.0
  0
LINE
  5
D17D
330
18
100
AcDbEntity
  8
HIDDEN
100
AcDbLine
 10
1839.324129364847
 20
146.1711287186161
 30
0.0
 11
1839.324129364847
 21
154.1711287186164
 31
0.0
  0
ARC
  5
D17E
330
18
100
AcDbEntity
  8
HIDDEN
100
AcDbCircle
 10
1839.639783789794
 20
150.1711287186163
 30
0.0
 40
6.5
100
AcDbArc
 50
327.4210296071982
 51
32.57897039280176
  0
LINE
  5
D17F
330
18
100
AcDbEntity
  8
HIDDEN
100
AcDbLine
 10
1840.117009364847
 20
144.7978387186162
 30
0.0
 11
1839.324129364847
 21
146.1711287186161
 31
0.0
  0
LINE
  5
D180
330
18
100
AcDbEntity
  8
HIDDEN
100
AcDbLine
 10
1840.117009364847
 20
144.7978387186162
 30
0.0
 11
1845.117009364847
 21
144.7978387186164
 31
0.0
  0
LINE
  5
D181
330
18
100
AcDbEntity
  8
HIDDEN
100
AcDbLine
 10
1840.117009364847
 20
155.5444187186163
 30
0.0
 11
1845.117009364847
 21
155.5444187186163
 31
0.0
  0
LINE
  5
D182
330
18
100
AcDbEntity
  8
HIDDEN
100
AcDbLine
 10
1839.324129364847
 20
154.1711287186164
 30
0.0
 11
1840.117009364847
 21
155.5444187186163
 31
0.0
  0
LINE
  5
D183
330
18
100
AcDbEntity
  8
HIDDEN
100
AcDbLine
 10
1845.117009364847
 20
143.9418187186165
 30
0.0
 11
1843.634369364847
 21
144.7978387186165
 31
0.0
  0
LINE
  5
D184
330
18
100
AcDbEntity
  8
HIDDEN
100
AcDbLine
 10
1846.158945051433
 20
143.9054364083123
 30
0.0
 11
1845.117009364846
 21
144.9804412186163
 31
0.0
  0
LINE
  5
D185
330
18
100
AcDbEntity
  8
HIDDEN
100
AcDbLine
 10
1845.117009364847
 20
143.9418487186163
 30
0.0
 11
1845.117009364847
 21
156.4004387186163
 31
0.0
  0
LINE
  5
D186
330
18
100
AcDbEntity
  8
HIDDEN
100
AcDbLine
 10
1843.634369364846
 20
155.5444187186163
 30
0.0
 11
1845.117009364847
 21
156.4004087186163
 31
0.0
  0
LINE
  5
D187
330
18
100
AcDbEntity
  8
HIDDEN
100
AcDbLine
 10
1846.158918091432
 20
156.4367932132574
 30
0.0
 11
1845.117009364847
 21
155.3618162186161
 31
0.0
  0
LINE
  5
D188
330
18
100
AcDbEntity
  8
HIDDEN
100
AcDbLine
 10
1855.117009364845
 20
161.1711287186162
 30
0.0
 11
1873.179554870976
 21
161.1711287186158
 31
0.0
  0
ARC
  5
D189
330
18
100
AcDbEntity
  8
HIDDEN
100
AcDbCircle
 10
1866.41869845765
 20
150.171128718616
 30
0.0
 40
15.5
100
AcDbArc
 50
162.736043677183
 51
197.2639563228165
  0
LINE
  5
D18A
330
18
100
AcDbEntity
  8
HIDDEN
100
AcDbLine
 10
1855.117009364846
 20
154.7711287186161
 30
0.0
 11
1851.617009364846
 21
154.7711287186161
 31
0.0
  0
LINE
  5
D18B
330
18
100
AcDbEntity
  8
HIDDEN
100
AcDbLine
 10
1855.117009364845
 20
145.571128718616
 30
0.0
 11
1851.617009364845
 21
145.571128718616
 31
0.0
  0
CIRCLE
  5
D18C
330
18
100
AcDbEntity
  8
DRAW2
100
AcDbCircle
 10
1865.117068147059
 20
204.1710082143498
 30
0.0
 40
10.50116005149908
  0
CIRCLE
  5
D18D
330
18
100
AcDbEntity
  8
DRAW2
100
AcDbCircle
 10
1865.117068147059
 20
204.1710082143498
 30
0.0
 40
8.500850000000012
  0
LINE
  5
D190
330
18
100
AcDbEntity
  8
DRAW2
100
AcDbLine
 10
1822.61706814706
 20
346.1710172161463
 30
0.0
 11
1822.61706814706
 21
336.1710172161463
 31
0.0
  0
CIRCLE
  5
D191
330
18
100
AcDbEntity
  8
DRAW2
100
AcDbCircle
 10
1825.117075942844
 20
273.4530450180026
 30
0.0
 40
10.50116005149908
  0
CIRCLE
  5
D192
330
18
100
AcDbEntity
  8
DRAW2
100
AcDbCircle
 10
1825.117075942844
 20
273.4530450180026
 30
0.0
 40
8.500850000000012
  0
CIRCLE
  5
D194
330
18
100
AcDbEntity
  8
DRAW2
100
AcDbCircle
 10
1785.11706814706
 20
315.1710172161463
 30
0.0
 40
11.0
  0
CIRCLE
  5
D195
330
18
100
AcDbEntity
  8
DRAW2
100
AcDbCircle
 10
1785.11706814706
 20
315.1710172161463
 30
0.0
 40
16.0
  0
CIRCLE
  5
D196
330
18
100
AcDbEntity
  8
DRAW2
100
AcDbCircle
 10
1785.10905814706
 20
315.1710172161463
 30
0.0
 40
18.5
  0
CIRCLE
  5
D197
330
18
100
AcDbEntity
  8
DRAW2
100
AcDbCircle
 10
1785.10905814706
 20
315.1710172161463
 30
0.0
 40
20.5
  0
ARC
  5
D199
330
18
100
AcDbEntity
  8
DRAW2
100
AcDbCircle
 10
1785.11706814706
 20
315.1710172161463
 30
0.0
 40
43.0
100
AcDbArc
 50
0.0
 51
29.23363700000018
  0
ARC
  5
D19A
330
18
100
AcDbEntity
  8
DRAW2
100
AcDbCircle
 10
1785.11706814706
 20
315.1710172161463
 30
0.0
 40
43.0
100
AcDbArc
 50
330.7663599999997
 51
0.0
  0
LINE
  5
D19B
330
18
100
AcDbEntity
  8
DRAW2
100
AcDbLine
 10
1806.11791814706
 20
365.1712672161463
 30
0.0
 11
1818.11791814706
 21
365.1712672161463
 31
0.0
  0
LINE
  5
D19C
330
18
100
AcDbEntity
  8
DRAW2
100
AcDbLine
 10
1804.117978147059
 20
363.1712672161463
 30
0.0
 11
1820.11797814706
 21
363.1712672161463
 31
0.0
  0
LINE
  5
D19D
330
18
100
AcDbEntity
  8
DRAW2
100
AcDbLine
 10
1766.11743814706
 20
346.1719372161461
 30
0.0
 11
1766.11743814706
 21
363.1719372161461
 31
0.0
  0
LINE
  5
D19E
330
18
100
AcDbEntity
  8
DRAW2
100
AcDbLine
 10
1766.11672814706
 20
363.1723072161461
 30
0.0
 11
1764.11672814706
 21
365.1723072161461
 31
0.0
  0
LINE
  5
D19F
330
18
100
AcDbEntity
  8
DRAW2
100
AcDbLine
 10
1804.11669814706
 20
346.1719372161461
 30
0.0
 11
1804.11669814706
 21
363.1719372161461
 31
0.0
  0
LINE
  5
D1A0
330
18
100
AcDbEntity
  8
DRAW2
100
AcDbLine
 10
1804.11730814706
 20
363.1723672161463
 30
0.0
 11
1806.11733814706
 21
365.1724272161461
 31
0.0
  0
LINE
  5
D1A1
330
18
100
AcDbEntity
  8
DRAW2
100
AcDbLine
 10
1820.11681814706
 20
346.1721772161463
 30
0.0
 11
1820.11681814706
 21
363.1721772161463
 31
0.0
  0
LINE
  5
D1A2
330
18
100
AcDbEntity
  8
DRAW2
100
AcDbLine
 10
1820.11683814706
 20
363.1709572161462
 30
0.0
 11
1818.11685814706
 21
365.1709572161461
 31
0.0
  0
LINE
  5
D62E
330
18
100
AcDbEntity
  8
DRAW2
100
AcDbLine
 10
1139.967063047059
 20
115.1710177161455
 30
0.0
 11
1139.967063047059
 21
293.1710177161455
 31
0.0
  0
LINE
  5
D62F
330
18
100
AcDbEntity
  8
DRAW2
100
AcDbLine
 10
1129.967063047059
 20
115.1710177161455
 30
0.0
 11
1129.967063047059
 21
293.1710177161455
 31
0.0
  0
LINE
  5
D630
330
18
100
AcDbEntity
  8
DRAW2
100
AcDbLine
 10
1129.967063047059
 20
115.1710177161455
 30
0.0
 11
1139.967063047059
 21
115.1710177161455
 31
0.0
  0
LINE
  5
D632
330
18
100
AcDbEntity
  8
DRAW2
100
AcDbLine
 10
1129.967063047059
 20
293.1710177161455
 30
0.0
 11
1139.967063047059
 21
293.1710177161455
 31
0.0
  0
LINE
  5
D633
330
18
100
AcDbEntity
  8
DRAW2
100
AcDbLine
 10
1139.966393047058
 20
336.1712672161456
 30
0.0
 11
1139.966393047058
 21
346.1712672161457
 31
0.0
  0
LINE
  5
D634
330
18
100
AcDbEntity
  8
DRAW2
100
AcDbLine
 10
1139.966393047058
 20
336.1712672161456
 30
0.0
 11
1202.966393047059
 21
336.1712672161456
 31
0.0
  0
LINE
  5
D635
330
18
100
AcDbEntity
  8
DRAW2
100
AcDbLine
 10
1139.966393047058
 20
346.1712672161457
 30
0.0
 11
1202.966393047059
 21
346.1712672161457
 31
0.0
  0
LINE
  5
D636
330
18
100
AcDbEntity
  8
DRAW2
100
AcDbLine
 10
1202.966393047059
 20
346.1712672161457
 30
0.0
 11
1202.966393047059
 21
336.1712672161456
 31
0.0
  0
LINE
  5
D637
330
18
100
AcDbEntity
  8
DRAW2
100
AcDbLine
 10
1351.967063047059
 20
115.1710177161455
 30
0.0
 11
1351.967063047059
 21
293.1710177161455
 31
0.0
  0
LINE
  5
D638
330
18
100
AcDbEntity
  8
DRAW2
100
AcDbLine
 10
1361.967063047059
 20
115.1710177161455
 30
0.0
 11
1361.967063047059
 21
293.1710177161455
 31
0.0
  0
LINE
  5
D639
330
18
100
AcDbEntity
  8
DRAW2
100
AcDbLine
 10
1361.967063047059
 20
115.1710177161455
 30
0.0
 11
1351.967063047059
 21
115.1710177161455
 31
0.0
  0
LINE
  5
D63B
330
18
100
AcDbEntity
  8
DRAW2
100
AcDbLine
 10
1361.967063047059
 20
293.1710177161455
 30
0.0
 11
1351.967063047059
 21
293.1710177161455
 31
0.0
  0
LINE
  5
D63C
330
18
100
AcDbEntity
  8
DRAW2
100
AcDbLine
 10
1351.966763047059
 20
346.1712672161457
 30
0.0
 11
1351.966763047059
 21
336.1712672161456
 31
0.0
  0
LINE
  5
D63D
330
18
100
AcDbEntity
  8
DRAW2
100
AcDbLine
 10
1288.966763047059
 20
346.1712672161457
 30
0.0
 11
1351.966763047059
 21
346.1712672161457
 31
0.0
  0
LINE
  5
D63E
330
18
100
AcDbEntity
  8
DRAW2
100
AcDbLine
 10
1351.966763047059
 20
336.1712672161456
 30
0.0
 11
1288.966763047059
 21
336.1712672161456
 31
0.0
  0
LINE
  5
D640
330
18
100
AcDbEntity
  8
DRAW2
100
AcDbLine
 10
1288.966763047059
 20
336.1712672161456
 30
0.0
 11
1288.966763047059
 21
346.1712672161457
 31
0.0
  0
VIEWPORT
  5
37
330
15
100
AcDbEntity
 67
     1
  8
0
100
AcDbViewport
 10
296.9950122070311
 20
209.9950000476836
 30
0.0
 40
632.1056339387388
 41
423.1939163498098
 68
     1
 69
     1
 12
296.9950122070311
 22
209.9950000476836
 13
0.0
 23
0.0
 14
10.0
 24
10.0
 15
10.0
 25
10.0
 16
0.0
 26
0.0
 36
1.0
 17
0.0
 27
0.0
 37
0.0
 42
50.0
 43
0.0
 44
0.0
 45
423.1939163498098
 50
0.0
 51
0.0
 72
   100
 90
    32768
  1

281
     0
 71
     1
 74
     0
110
0.0
120
0.0
130
0.0
111
1.0
121
0.0
131
0.0
112
0.0
122
1.0
132
0.0
 79
     0
146
0.0
  0
ENDSEC
  0
SECTION
  2
OBJECTS
  0
DICTIONARY
  5
C
330
0
100
AcDbDictionary
281
     1
  3
ACAD_GROUP
350
D
  3
ACAD_IMAGE_VARS
350
7A9
  3
ACAD_LAYOUT
350
1AD
  3
ACAD_MLINESTYLE
350
1B
  3
ACAD_PLOTSETTINGS
350
1AE
  3
ACAD_PLOTSTYLENAME
350
1AB
  0
DICTIONARY
  5
D
102
{ACAD_REACTORS
330
C
102
}
330
C
100
AcDbDictionary
281
     1
  3
*A1
350
1485
  0
RASTERVARIABLES
  5
7A9
102
{ACAD_REACTORS
330
C
102
}
330
C
100
AcDbRasterVariables
 90
        0
 70
     1
 71
     1
 72
     0
  0
DICTIONARY
  5
1AD
102
{ACAD_REACTORS
330
C
102
}
330
C
100
AcDbDictionary
281
     1
  3
Model
350
1AF
  3
ﾚｲｱｳﾄ1
350
1B0
  0
DICTIONARY
  5
1B
102
{ACAD_REACTORS
330
C
102
}
330
C
100
AcDbDictionary
281
     1
  3
STANDARD
350
1C
  0
DICTIONARY
  5
1AE
102
{ACAD_REACTORS
330
C
102
}
330
C
100
AcDbDictionary
281
     1
  3
AdobePDF_A1
350
B21F
  3
AdobePDF_A2
350
B21E
  3
AdobePDF_A3
350
B220
  3
AdobePDF_A4
350
B221
  3
普通紙Ａ３_XL-5800_WinNT40
350
298B
  3
普通紙Ａ３からＡ４_XL-5800_WinNT40
350
298C
  0
ACDBDICTIONARYWDFLT
  5
1AB
102
{ACAD_REACTORS
330
C
102
}
330
C
100
AcDbDictionary
281
     1
  3
Normal
350
1AC
100
AcDbDictionaryWithDefault
340
1AC
  0
GROUP
  5
1485
102
{ACAD_REACTORS
330
D
102
}
330
D
100
AcDbGroup
300

 70
     1
 71
     1
  0
LAYOUT
  5
1AF
102
{ACAD_REACTORS
330
1AD
102
}
330
1AD
100
AcDbPlotSettings
  1

  2
FUJITSU XL-5800
  4
A4
  6

 40
5.873749732971191
 41
5.704405784606932
 42
5.873748779296875
 43
5.873748779296875
 44
210.0579986572264
 45
296.9259948730469
 46
-934.06
 47
-482.3299999999998
 48
0.0
 49
0.0
140
0.0
141
0.0
142
1.0
143
1.0
 70
 11956
 72
     1
 73
     0
 74
     0
  7
LineScale_10.ctb
 75
    16
147
1.0
148
1033.210332103321
149
625.0
100
AcDbLayout
  1
Model
 70
     1
 71
     0
 10
0.0
 20
0.0
 11
12.0
 21
9.0
 12
0.0
 22
0.0
 32
0.0
 14
0.0
 24
0.0
 34
0.0
 15
0.0
 25
0.0
 35
0.0
146
0.0
 13
0.0
 23
0.0
 33
0.0
 16
1.0
 26
0.0
 36
0.0
 17
0.0
 27
1.0
 37
0.0
 76
     0
330
18
  0
LAYOUT
  5
1B0
102
{ACAD_REACTORS
330
1AD
102
}
330
1AD
100
AcDbPlotSettings
  1
AdobePDF_A2
  2
Adobe PDF
  4
User66
  6
A1
 40
3.174999952316283
 41
3.174999952316283
 42
3.17498779296875
 43
3.17498779296875
 44
420.0
 45
594.0
 46
-3.169999999999998
 47
-3.169999999999998
 48
0.0
 49
0.0
140
594.0
141
420.0
142
1.0
143
1.0
 70
   692
 72
     1
 73
     1
 74
     4
  7
LineScale_10.ctb
 75
    16
147
1.0
148
0.0
149
0.0
100
AcDbLayout
  1
ﾚｲｱｳﾄ1
 70
     1
 71
     1
 10
-0.0049877929687501
 20
-0.0049999523162843
 11
593.9950122070312
 21
419.9950000476837
 12
0.0
 22
0.0
 32
0.0
 14
1.000000000000000E+20
 24
1.000000000000000E+20
 34
1.000000000000000E+20
 15
-1.000000000000000E+20
 25
-1.000000000000000E+20
 35
-1.000000000000000E+20
146
0.0
 13
0.0
 23
0.0
 33
0.0
 16
1.0
 26
0.0
 36
0.0
 17
0.0
 27
1.0
 37
0.0
 76
     0
330
15
331
37
  0
MLINESTYLE
  5
1C
102
{ACAD_REACTORS
330
1B
102
}
330
1B
100
AcDbMlineStyle
  2
STANDARD
 70
     0
  3

 62
   256
 51
90.0
 52
90.0
 71
     2
 49
0.5
 62
   256
  6
BYLAYER
 49
-0.5
 62
   256
  6
BYLAYER
  0
PLOTSETTINGS
  5
B21F
102
{ACAD_REACTORS
330
1AE
102
}
330
1AE
100
AcDbPlotSettings
  1
AdobePDF_A1
  2
Adobe PDF
  4
User120
  6
A1
 40
3.174999952316283
 41
3.174999952316283
 42
3.17498779296875
 43
3.17498779296875
 44
594.0
 45
841.0
 46
-3.169999999999998
 47
-3.169999999999998
 48
0.0
 49
0.0
140
841.0
141
594.0
142
1.0
143
1.0
 70
   692
 72
     1
 73
     1
 74
     4
  7
LineScale_10.ctb
 75
    16
147
1.0
148
0.0
149
0.0
  0
PLOTSETTINGS
  5
B21E
102
{ACAD_REACTORS
330
1AE
102
}
330
1AE
100
AcDbPlotSettings
  1
AdobePDF_A2
  2
Adobe PDF
  4
User66
  6
A1
 40
3.174999952316283
 41
3.174999952316283
 42
3.17498779296875
 43
3.17498779296875
 44
420.0
 45
594.0
 46
-3.169999999999998
 47
-3.169999999999998
 48
0.0
 49
0.0
140
594.0
141
420.0
142
1.0
143
1.0
 70
   692
 72
     1
 73
     1
 74
     4
  7
LineScale_10.ctb
 75
    16
147
1.0
148
0.0
149
0.0
  0
PLOTSETTINGS
  5
B220
102
{ACAD_REACTORS
330
1AE
102
}
330
1AE
100
AcDbPlotSettings
  1
AdobePDF_A3
  2
Adobe PDF
  4
A3
  6
A1
 40
3.174999952316283
 41
3.174999952316283
 42
3.17498779296875
 43
3.17498779296875
 44
297.0318298339843
 45
420.1583251953125
 46
-3.16
 47
-3.1
 48
0.0
 49
0.0
140
420.0
141
297.0
142
1.0
143
1.0
 70
   692
 72
     1
 73
     1
 74
     4
  7
LineScale_10.ctb
 75
    16
147
1.0
148
0.0
149
0.0
  0
PLOTSETTINGS
  5
B221
102
{ACAD_REACTORS
330
1AE
102
}
330
1AE
100
AcDbPlotSettings
  1
AdobePDF_A4
  2
Adobe PDF
  4
A4
  6
A1
 40
3.174999952316283
 41
3.174999952316283
 42
3.175003051757812
 43
3.17498779296875
 44
209.9098358154297
 45
297.0318298339843
 46
-3.22
 47
-3.16
 48
0.0
 49
0.0
140
210.0
141
297.0
142
1.0
143
1.0
 70
   692
 72
     1
 73
     0
 74
     4
  7
LineScale_10.ctb
 75
    16
147
1.0
148
0.0
149
0.0
  0
PLOTSETTINGS
  5
298B
102
{ACAD_REACTORS
330
1AE
102
}
330
1AE
100
AcDbPlotSettings
  1
普通紙Ａ３_XL-5800_WinNT40
  2
FUJITSU XL-5800
  4
A3
  6
A1
 40
5.873749732971191
 41
5.873747825622557
 42
5.70440673828125
 43
5.873748779296875
 44
296.9259948730469
 45
420.1159973144531
 46
-5.009999999999998
 47
-6.7
 48
0.0
 49
0.0
140
420.0
141
297.0
142
1.0
143
1.0
 70
   688
 72
     1
 73
     1
 74
     4
  7
LineScale_10.ctb
 75
    16
147
1.0
148
0.0
149
0.0
  0
PLOTSETTINGS
  5
298C
102
{ACAD_REACTORS
330
1AE
102
}
330
1AE
100
AcDbPlotSettings
  1
普通紙Ａ３からＡ４_XL-5800_WinNT40
  2
FUJITSU XL-5800
  4
A4
  6
A1
 40
5.873749732971191
 41
5.704405784606932
 42
5.873748779296875
 43
5.873748779296875
 44
210.0579986572264
 45
296.9259948730469
 46
-6.4
 47
-5.459999999999999
 48
0.0
 49
0.0
140
420.0
141
297.0
142
0.7071066999999999
143
1.0
 70
   672
 72
     1
 73
     1
 74
     4
  7
LineScale_07.ctb
 75
     0
147
0.7071066999999999
148
0.0
149
0.0
  0
ACDBPLACEHOLDER
  5
1AC
102
{ACAD_REACTORS
330
1AB
102
}
330
1AB
  0
ENDSEC
  0
EOF
