  0
SECTION
  2
HEADER
  9
$ACADVER
  1
AC1015
  9
$ACADMAINTVER
 70
     6
  9
$DWGCODEPAGE
  3
ANSI_932
  9
$INSBASE
 10
0.0
 20
0.0
 30
0.0
  9
$EXTMIN
 10
965.5884410542311
 20
28.44017396818708
 30
-0.0000000100021362
  9
$EXTMAX
 10
1775.825518199959
 20
701.1072065748535
 30
0.0000000100021363
  9
$LIMMIN
 10
-841.0
 20
-594.0
  9
$LIMMAX
 10
841.0
 20
594.0
  9
$ORTHOMODE
 70
     0
  9
$REGENMODE
 70
     1
  9
$FILLMODE
 70
     1
  9
$QTEXTMODE
 70
     0
  9
$MIRRTEXT
 70
     0
  9
$LTSCALE
 40
7.0
  9
$ATTMODE
 70
     1
  9
$TEXTSIZE
 40
3.2
  9
$TRACEWID
 40
1.0
  9
$TEXTSTYLE
  7
DIMFONT
  9
$CLAYER
  8
DRAW2
  9
$CELTYPE
  6
BYLAYER
  9
$CECOLOR
 62
   256
  9
$CELTSCALE
 40
1.0
  9
$DISPSILH
 70
     0
  9
$DIMSCALE
 40
3.0
  9
$DIMASZ
 40
3.0
  9
$DIMEXO
 40
0.0
  9
$DIMDLI
 40
10.0
  9
$DIMRND
 40
0.0
  9
$DIMDLE
 40
0.0
  9
$DIMEXE
 40
1.0
  9
$DIMTP
 40
0.0
  9
$DIMTM
 40
0.0
  9
$DIMTXT
 40
3.2
  9
$DIMCEN
 40
0.0
  9
$DIMTSZ
 40
0.0
  9
$DIMTOL
 70
     0
  9
$DIMLIM
 70
     0
  9
$DIMTIH
 70
     0
  9
$DIMTOH
 70
     0
  9
$DIMSE1
 70
     0
  9
$DIMSE2
 70
     0
  9
$DIMTAD
 70
     3
  9
$DIMZIN
 70
     8
  9
$DIMBLK
  1

  9
$DIMASO
 70
     1
  9
$DIMSHO
 70
     1
  9
$DIMPOST
  1

  9
$DIMAPOST
  1

  9
$DIMALT
 70
     0
  9
$DIMALTD
 70
     2
  9
$DIMALTF
 40
25.4
  9
$DIMLFAC
 40
1.0
  9
$DIMTOFL
 70
     1
  9
$DIMTVP
 40
0.0
  9
$DIMTIX
 70
     0
  9
$DIMSOXD
 70
     0
  9
$DIMSAH
 70
     1
  9
$DIMBLK1
  1
OPEN
  9
$DIMBLK2
  1
OPEN
  9
$DIMSTYLE
  2
1_3
  9
$DIMCLRD
 70
     0
  9
$DIMCLRE
 70
     0
  9
$DIMCLRT
 70
     0
  9
$DIMTFAC
 40
0.75
  9
$DIMGAP
 40
1.0
  9
$DIMJUST
 70
     0
  9
$DIMSD1
 70
     0
  9
$DIMSD2
 70
     0
  9
$DIMTOLJ
 70
     1
  9
$DIMTZIN
 70
     8
  9
$DIMALTZ
 70
     0
  9
$DIMALTTZ
 70
     0
  9
$DIMUPT
 70
     0
  9
$DIMDEC
 70
     0
  9
$DIMTDEC
 70
     0
  9
$DIMALTU
 70
     2
  9
$DIMALTTD
 70
     2
  9
$DIMTXSTY
  7
DIMFONT
  9
$DIMAUNIT
 70
     0
  9
$DIMADEC
 70
     2
  9
$DIMALTRND
 40
0.0
  9
$DIMAZIN
 70
     2
  9
$DIMDSEP
 70
    46
  9
$DIMATFIT
 70
     1
  9
$DIMFRAC
 70
     0
  9
$DIMLDRBLK
  1
OPEN
  9
$DIMLUNIT
 70
     2
  9
$DIMLWD
 70
    -2
  9
$DIMLWE
 70
    -2
  9
$DIMTMOVE
 70
     0
  9
$LUNITS
 70
     2
  9
$LUPREC
 70
     4
  9
$SKETCHINC
 40
1.0
  9
$FILLETRAD
 40
0.0
  9
$AUNITS
 70
     0
  9
$AUPREC
 70
     4
  9
$MENU
  1
acad
  9
$ELEVATION
 40
0.0
  9
$PELEVATION
 40
0.0
  9
$THICKNESS
 40
0.0
  9
$LIMCHECK
 70
     0
  9
$CHAMFERA
 40
0.0
  9
$CHAMFERB
 40
0.0
  9
$CHAMFERC
 40
0.0
  9
$CHAMFERD
 40
0.0
  9
$SKPOLY
 70
     0
  9
$TDCREATE
 40
2452311.864408912
  9
$TDUCREATE
 40
2452311.489408912
  9
$TDUPDATE
 40
2454973.435407985
  9
$TDUUPDATE
 40
2454973.060407986
  9
$TDINDWG
 40
0.8435713657
  9
$TDUSRTIMER
 40
0.8435712500
  9
$USRTIMER
 70
     1
  9
$ANGBASE
 50
0.0
  9
$ANGDIR
 70
     0
  9
$PDMODE
 70
    35
  9
$PDSIZE
 40
0.5
  9
$PLINEWID
 40
0.0
  9
$SPLFRAME
 70
     0
  9
$SPLINETYPE
 70
     6
  9
$SPLINESEGS
 70
     8
  9
$HANDSEED
  5
BF57
  9
$SURFTAB1
 70
     6
  9
$SURFTAB2
 70
     6
  9
$SURFTYPE
 70
     6
  9
$SURFU
 70
     6
  9
$SURFV
 70
     6
  9
$UCSBASE
  2

  9
$UCSNAME
  2

  9
$UCSORG
 10
0.0
 20
0.0
 30
0.0
  9
$UCSXDIR
 10
1.0
 20
0.0
 30
0.0
  9
$UCSYDIR
 10
0.0
 20
1.0
 30
0.0
  9
$UCSORTHOREF
  2

  9
$UCSORTHOVIEW
 70
     0
  9
$UCSORGTOP
 10
0.0
 20
0.0
 30
0.0
  9
$UCSORGBOTTOM
 10
0.0
 20
0.0
 30
0.0
  9
$UCSORGLEFT
 10
0.0
 20
0.0
 30
0.0
  9
$UCSORGRIGHT
 10
0.0
 20
0.0
 30
0.0
  9
$UCSORGFRONT
 10
0.0
 20
0.0
 30
0.0
  9
$UCSORGBACK
 10
0.0
 20
0.0
 30
0.0
  9
$PUCSBASE
  2

  9
$PUCSNAME
  2

  9
$PUCSORG
 10
0.0
 20
0.0
 30
0.0
  9
$PUCSXDIR
 10
1.0
 20
0.0
 30
0.0
  9
$PUCSYDIR
 10
0.0
 20
1.0
 30
0.0
  9
$PUCSORTHOREF
  2

  9
$PUCSORTHOVIEW
 70
     0
  9
$PUCSORGTOP
 10
0.0
 20
0.0
 30
0.0
  9
$PUCSORGBOTTOM
 10
0.0
 20
0.0
 30
0.0
  9
$PUCSORGLEFT
 10
0.0
 20
0.0
 30
0.0
  9
$PUCSORGRIGHT
 10
0.0
 20
0.0
 30
0.0
  9
$PUCSORGFRONT
 10
0.0
 20
0.0
 30
0.0
  9
$PUCSORGBACK
 10
0.0
 20
0.0
 30
0.0
  9
$USERI1
 70
     0
  9
$USERI2
 70
     0
  9
$USERI3
 70
     0
  9
$USERI4
 70
     0
  9
$USERI5
 70
     0
  9
$USERR1
 40
0.0
  9
$USERR2
 40
0.0
  9
$USERR3
 40
0.0
  9
$USERR4
 40
0.0
  9
$USERR5
 40
0.0
  9
$WORLDVIEW
 70
     1
  9
$SHADEDGE
 70
     3
  9
$SHADEDIF
 70
    70
  9
$TILEMODE
 70
     1
  9
$MAXACTVP
 70
    48
  9
$PINSBASE
 10
0.0
 20
0.0
 30
0.0
  9
$PLIMCHECK
 70
     0
  9
$PEXTMIN
 10
1.000000000000000E+20
 20
1.000000000000000E+20
 30
1.000000000000000E+20
  9
$PEXTMAX
 10
-1.000000000000000E+20
 20
-1.000000000000000E+20
 30
-1.000000000000000E+20
  9
$PLIMMIN
 10
-0.0049877929687501
 20
-0.0049999523162843
  9
$PLIMMAX
 10
593.9950122070312
 20
419.9950000476837
  9
$UNITMODE
 70
     0
  9
$VISRETAIN
 70
     0
  9
$PLINEGEN
 70
     1
  9
$PSLTSCALE
 70
     1
  9
$TREEDEPTH
 70
  3020
  9
$CMLSTYLE
  2
STANDARD
  9
$CMLJUST
 70
     0
  9
$CMLSCALE
 40
20.0
  9
$PROXYGRAPHICS
 70
     1
  9
$MEASUREMENT
 70
     1
  9
$CELWEIGHT
370
    -1
  9
$ENDCAPS
280
     0
  9
$JOINSTYLE
280
     0
  9
$LWDISPLAY
290
     0
  9
$INSUNITS
 70
     0
  9
$HYPERLINKBASE
  1

  9
$STYLESHEET
  1

  9
$XEDIT
290
     1
  9
$CEPSNTYPE
380
     0
  9
$PSTYLEMODE
290
     1
  9
$FINGERPRINTGUID
  2
{7FD28A7C-F8BA-11D3-9BCC-00A0C977751D}
  9
$VERSIONGUID
  2
{A9E131BD-8E03-4362-A267-C4B0BD49A1C3}
  9
$EXTNAMES
290
     1
  9
$PSVPSCALE
 40
0.0
  9
$OLESTARTUP
290
     0
  0
ENDSEC
  0
SECTION
  2
CLASSES
  0
CLASS
  1
LWPOLYLINE
  2
AcDbPolyline
  3
AutoCAD 2000
 90
    32768
280
     0
281
     1
  0
CLASS
  1
ACDBDICTIONARYWDFLT
  2
AcDbDictionaryWithDefault
  3
AutoCAD 2000
 90
        0
280
     0
281
     0
  0
CLASS
  1
ACDBPLACEHOLDER
  2
AcDbPlaceHolder
  3
AutoCAD 2000
 90
        0
280
     0
281
     0
  0
CLASS
  1
LAYOUT
  2
AcDbLayout
  3
AutoCAD 2000
 90
        0
280
     0
281
     0
  0
CLASS
  1
PLOTSETTINGS
  2
AcDbPlotSettings
  3
AutoCAD 2000
 90
        0
280
     0
281
     0
  0
CLASS
  1
RASTERVARIABLES
  2
AcDbRasterVariables
  3
ISM
 90
        0
280
     0
281
     0
  0
ENDSEC
  0
SECTION
  2
TABLES
  0
TABLE
  2
VPORT
  5
8
330
0
100
AcDbSymbolTable
 70
     2
  0
VPORT
  5
BF56
330
8
100
AcDbSymbolTableRecord
100
AcDbViewportTableRecord
  2
*Active
 70
     0
 10
0.0
 20
0.0
 11
1.0
 21
1.0
 12
1370.706979627095
 22
364.7736902715203
 13
0.0
 23
0.0
 14
5.0
 24
5.0
 15
10.0
 25
10.0
 16
0.0
 26
0.0
 36
1.0
 17
0.0
 27
0.0
 37
0.0
 40
677.7823712576678
 41
1.493654822335025
 42
50.0
 43
0.0
 44
0.0
 50
0.0
 51
0.0
 71
     0
 72
   100
 73
     1
 74
     0
 75
     0
 76
     0
 77
     0
 78
     1
281
     0
 65
     1
110
0.0
120
0.0
130
0.0
111
1.0
121
0.0
131
0.0
112
0.0
122
1.0
132
0.0
 79
     0
146
0.0
  0
ENDTAB
  0
TABLE
  2
LTYPE
  5
5
330
0
100
AcDbSymbolTable
 70
     6
  0
LTYPE
  5
12
330
5
100
AcDbSymbolTableRecord
100
AcDbLinetypeTableRecord
  2
BYBLOCK
 70
     0
  3

 72
    65
 73
     0
 40
0.0
  0
LTYPE
  5
13
330
5
100
AcDbSymbolTableRecord
100
AcDbLinetypeTableRecord
  2
BYLAYER
 70
     0
  3

 72
    65
 73
     0
 40
0.0
  0
LTYPE
  5
14
330
5
100
AcDbSymbolTableRecord
100
AcDbLinetypeTableRecord
  2
CONTINUOUS
 70
     0
  3
Solid line
 72
    65
 73
     0
 40
0.0
  0
LTYPE
  5
23
330
5
100
AcDbSymbolTableRecord
100
AcDbLinetypeTableRecord
  2
HIDDEN
 70
     0
  3
__ __ __ __ __ __ __ __ __ __ __ __ __ __ __ __
 72
    65
 73
     2
 40
0.375
 49
0.25
 74
     0
 49
-0.125
 74
     0
  0
ENDTAB
  0
TABLE
  2
LAYER
  5
2
330
0
100
AcDbSymbolTable
 70
    18
  0
LAYER
  5
E
330
2
100
AcDbSymbolTableRecord
100
AcDbLayerTableRecord
  2
0
 70
     0
 62
     7
  6
CONTINUOUS
370
    -3
390
1AC
  0
LAYER
  5
29
330
2
100
AcDbSymbolTableRecord
100
AcDbLayerTableRecord
  2
DRAW2
 70
     0
 62
     4
  6
CONTINUOUS
370
    -3
390
1AC
  0
LAYER
  5
2A
330
2
100
AcDbSymbolTableRecord
100
AcDbLayerTableRecord
  2
DRAW3
 70
     0
 62
     1
  6
CONTINUOUS
370
    -3
390
1AC
  0
LAYER
  5
2B
330
2
100
AcDbSymbolTableRecord
100
AcDbLayerTableRecord
  2
DRAW4
 70
     0
 62
     2
  6
CONTINUOUS
370
    -3
390
1AC
  0
LAYER
  5
2C
330
2
100
AcDbSymbolTableRecord
100
AcDbLayerTableRecord
  2
HIDDEN
 70
     0
 62
     7
  6
HIDDEN
370
    -3
390
1AC
  0
LAYER
  5
133
330
2
100
AcDbSymbolTableRecord
100
AcDbLayerTableRecord
  2
DEFPOINTS
 70
     0
 62
     7
  6
CONTINUOUS
290
     0
370
    -3
390
1AC
  0
ENDTAB
  0
TABLE
  2
STYLE
  5
3
330
0
100
AcDbSymbolTable
 70
     4
  0
STYLE
  5
F
330
3
100
AcDbSymbolTableRecord
100
AcDbTextStyleTableRecord
  2
STANDARD
 70
     0
 40
0.0
 41
1.0
 50
0.0
 71
     0
 42
2.5
  3
txt
  4

  0
STYLE
  5
30
330
3
100
AcDbSymbolTableRecord
100
AcDbTextStyleTableRecord
  2
DIMFONT
 70
     0
 40
0.0
 41
1.0
 50
10.0
 71
     0
 42
3.2
  3
romans.shx
  4
extfont.shx
  0
ENDTAB
  0
TABLE
  2
VIEW
  5
6
330
0
100
AcDbSymbolTable
 70
     5
  0
VIEW
  5
C27
330
6
100
AcDbSymbolTableRecord
100
AcDbViewTableRecord
  2
View1
 70
     0
 40
1250.0
 10
0.0
 20
0.0
 41
2066.420664206642
 11
0.0
 21
0.0
 31
1.0
 12
0.0
 22
0.0
 32
0.0
 42
50.0
 43
0.0
 44
0.0
 50
0.0
 71
     0
281
     0
 72
     1
110
0.0
120
0.0
130
0.0
111
1.0
121
0.0
131
0.0
112
0.0
122
1.0
132
0.0
 79
     0
146
0.0
  0
VIEW
  5
C2A
330
6
100
AcDbSymbolTableRecord
100
AcDbViewTableRecord
  2
A4
 70
     1
 40
314.2148930664062
 10
103.8222427368164
 20
144.5197510242462
 41
519.4401184271217
 11
0.0
 21
0.0
 31
1.0
 12
0.0
 22
0.0
 32
0.0
 42
50.0
 43
0.0
 44
0.0
 50
0.0
 71
     0
281
     0
 72
     1
110
0.0
120
0.0
130
0.0
111
1.0
121
0.0
131
0.0
112
0.0
122
1.0
132
0.0
 79
     0
146
0.0
  0
VIEW
  5
C2B
330
6
100
AcDbSymbolTableRecord
100
AcDbViewTableRecord
  2
A3
 70
     1
 40
314.2148930664062
 10
205.8194916248321
 20
151.3197510242462
 41
519.4401184271217
 11
0.0
 21
0.0
 31
1.0
 12
0.0
 22
0.0
 32
0.0
 42
50.0
 43
0.0
 44
0.0
 50
0.0
 71
     0
281
     0
 72
     1
110
0.0
120
0.0
130
0.0
111
1.0
121
0.0
131
0.0
112
0.0
122
1.0
132
0.0
 79
     0
146
0.0
  0
VIEW
  5
C2C
330
6
100
AcDbSymbolTableRecord
100
AcDbViewTableRecord
  2
A2
 70
     1
 40
444.3483441772461
 10
293.3145020008087
 20
213.3194916248321
 41
734.5684804110931
 11
0.0
 21
0.0
 31
1.0
 12
0.0
 22
0.0
 32
0.0
 42
50.0
 43
0.0
 44
0.0
 50
0.0
 71
     0
281
     0
 72
     1
110
0.0
120
0.0
130
0.0
111
1.0
121
0.0
131
0.0
112
0.0
122
1.0
132
0.0
 79
     0
146
0.0
  0
VIEW
  5
C2D
330
6
100
AcDbSymbolTableRecord
100
AcDbViewTableRecord
  2
A1
 70
     1
 40
628.2954051513671
 10
422.5084997558593
 20
293.4384954071044
 41
1038.658086744695
 11
0.0
 21
0.0
 31
1.0
 12
0.0
 22
0.0
 32
0.0
 42
50.0
 43
0.0
 44
0.0
 50
0.0
 71
     0
281
     0
 72
     1
110
0.0
120
0.0
130
0.0
111
1.0
121
0.0
131
0.0
112
0.0
122
1.0
132
0.0
 79
     0
146
0.0
  0
ENDTAB
  0
TABLE
  2
UCS
  5
7
330
0
100
AcDbSymbolTable
 70
     0
  0
ENDTAB
  0
TABLE
  2
APPID
  5
9
330
0
100
AcDbSymbolTable
 70
     1
  0
APPID
  5
10
330
9
100
AcDbSymbolTableRecord
100
AcDbRegAppTableRecord
  2
ACAD
 70
     0
  0
ENDTAB
  0
TABLE
  2
DIMSTYLE
  5
A
330
0
100
AcDbSymbolTable
 70
    12
100
AcDbDimStyleTable
 71
     1
340
4D
  0
DIMSTYLE
105
4D
102
{ACAD_REACTORS
330
5B49
330
9B67
330
900E
330
900D
330
6F1C
330
5F4F
330
5C02
330
5B56
330
5AB6
330
5AB7
330
6F32
330
5BB6
330
5B4B
330
6F4D
330
68C0
330
68B3
330
601B
330
5B4A
330
9B42
330
5F39
102
}
330
A
100
AcDbSymbolTableRecord
100
AcDbDimStyleTableRecord
  2
1_3
 70
     0
 40
3.0
 41
3.0
 42
0.0
 43
10.0
 44
1.0
 73
     0
 74
     0
 77
     3
 78
     8
 79
     2
140
3.2
141
0.0
146
0.75
147
1.0
172
     1
173
     1
179
     2
271
     0
272
     0
284
     8
289
     1
340
30
341
125
343
125
344
125
  0
DIMSTYLE
105
26A3
330
A
100
AcDbSymbolTableRecord
100
AcDbDimStyleTableRecord
  2
STANDARD
 70
     0
340
F
  0
ENDTAB
  0
TABLE
  2
BLOCK_RECORD
  5
1
330
0
100
AcDbSymbolTable
 70
   200
  0
BLOCK_RECORD
  5
18
330
1
100
AcDbSymbolTableRecord
100
AcDbBlockTableRecord
  2
*MODEL_SPACE
340
1AF
  0
BLOCK_RECORD
  5
15
330
1
100
AcDbSymbolTableRecord
100
AcDbBlockTableRecord
  2
*PAPER_SPACE
340
1B0
  0
BLOCK_RECORD
  5
125
330
1
100
AcDbSymbolTableRecord
100
AcDbBlockTableRecord
  2
_OPEN
340
0
102
{BLKREFS
331
2665
331
2666
331
2671
331
2672
331
267D
331
267E
331
9EE8
331
9EE9
331
9F0E
331
9F0F
331
B91B
331
B91C
331
B924
331
B925
331
B936
331
B937
331
B948
331
B949
331
B963
331
B964
331
B96C
331
B96D
331
B97E
331
B97F
331
BA5A
331
BA5B
331
BE80
331
BE81
331
BE92
331
BE93
331
BEB3
331
BEB4
331
BEBC
331
BEBD
331
BECE
331
BECF
331
BEE0
331
BEE1
331
BEF2
331
BEF3
331
BF0D
331
BF0E
331
BF16
331
BF17
331
BF28
331
BF29
102
}
  0
ENDTAB
  0
ENDSEC
  0
SECTION
  2
BLOCKS
  0
BLOCK
  5
19
330
18
100
AcDbEntity
  8
0
100
AcDbBlockBegin
  2
*MODEL_SPACE
 70
     0
 10
0.0
 20
0.0
 30
0.0
  3
*MODEL_SPACE
  1

  0
ENDBLK
  5
1A
330
18
100
AcDbEntity
  8
0
100
AcDbBlockEnd
  0
BLOCK
  5
16
330
15
100
AcDbEntity
 67
     1
  8
0
100
AcDbBlockBegin
  2
*PAPER_SPACE
 70
     0
 10
0.0
 20
0.0
 30
0.0
  3
*PAPER_SPACE
  1

  0
ENDBLK
  5
17
330
15
100
AcDbEntity
 67
     1
  8
0
100
AcDbBlockEnd
  0
BLOCK
  5
126
330
125
100
AcDbEntity
  8
0
100
AcDbBlockBegin
  2
_OPEN
 70
     0
 10
0.0
 20
0.0
 30
0.0
  3
_OPEN
  1

  0
LINE
  5
127
330
125
100
AcDbEntity
  8
0
  6
ByBlock
 62
     0
100
AcDbLine
 10
-1.0
 20
0.1666666666666666
 30
0.0
 11
0.0
 21
0.0
 31
0.0
  0
LINE
  5
128
330
125
100
AcDbEntity
  8
0
  6
ByBlock
 62
     0
100
AcDbLine
 10
0.0
 20
0.0
 30
0.0
 11
-1.0
 21
-0.1666666666666666
 31
0.0
  0
LINE
  5
129
330
125
100
AcDbEntity
  8
0
  6
ByBlock
 62
     0
100
AcDbLine
 10
0.0
 20
0.0
 30
0.0
 11
-1.0
 21
0.0
 31
0.0
  0
ENDBLK
  5
12A
330
125
100
AcDbEntity
  8
0
100
AcDbBlockEnd
  0
ENDSEC
  0
SECTION
  2
ENTITIES
  0
TEXT
  5
2783
330
18
100
AcDbEntity
  8
0
100
AcDbText
 10
289.9791188454981
 20
596.53434424429
 30
0.0
 40
3.2
  1

 51
10.0
  7
DIMFONT
100
AcDbText
  0
TEXT
  5
2791
330
18
100
AcDbEntity
  8
0
100
AcDbText
 10
399.046620988657
 20
559.3598774521149
 30
0.0
 40
3.2
  1

 51
10.0
  7
DIMFONT
100
AcDbText
  0
LINE
  5
BA71
102
{ACAD_REACTORS
330
BE6B
102
}
330
18
100
AcDbEntity
  8
DRAW2
100
AcDbLine
 10
1284.621910619408
 20
37.36851058431648
 30
0.0
 11
1284.621910619408
 21
135.3685105843165
 31
0.0
  0
LINE
  5
BA72
102
{ACAD_REACTORS
330
BE6B
102
}
330
18
100
AcDbEntity
  8
DRAW2
100
AcDbLine
 10
1282.621910619408
 20
135.3685105843165
 30
0.0
 11
1282.621910619408
 21
37.36851058431648
 31
0.0
  0
LINE
  5
BA73
102
{ACAD_REACTORS
330
BE6B
102
}
330
18
100
AcDbEntity
  8
DRAW2
100
AcDbLine
 10
1286.621910619409
 20
136.3685105843166
 30
0.0
 11
1286.621910619407
 21
36.36851058431648
 31
0.0
  0
LINE
  5
BA74
102
{ACAD_REACTORS
330
BE6B
102
}
330
18
100
AcDbEntity
  8
DRAW2
100
AcDbLine
 10
1301.621910619409
 20
136.3685105843165
 30
0.0
 11
1301.621910619408
 21
36.36851058431648
 31
0.0
  0
ARC
  5
BA75
102
{ACAD_REACTORS
330
BE6A
102
}
330
18
100
AcDbEntity
  8
DRAW2
100
AcDbCircle
 10
1107.621910619408
 20
56.32679112287269
 30
0.0
 40
100.0
100
AcDbArc
 50
180.0
 51
188.5307656099486
  0
ARC
  5
BA76
102
{ACAD_REACTORS
330
BE6A
102
}
330
18
100
AcDbEntity
  8
DRAW2
100
AcDbCircle
 10
943.6219106194082
 20
56.32679112287269
 30
0.0
 40
100.0
100
AcDbArc
 50
351.4692343900513
 51
0.0
  0
ARC
  5
BA77
102
{ACAD_REACTORS
330
BE69
102
}
330
18
100
AcDbEntity
  8
DRAW2
100
AcDbCircle
 10
1288.621910619408
 20
56.32679112287269
 30
0.0
 40
100.0
100
AcDbArc
 50
180.0
 51
188.5307656099486
  0
ARC
  5
BA78
102
{ACAD_REACTORS
330
BE69
102
}
330
18
100
AcDbEntity
  8
DRAW2
100
AcDbCircle
 10
1124.621910619408
 20
56.32679112287269
 30
0.0
 40
100.0
100
AcDbArc
 50
351.4692343900513
 51
0.0
  0
LINE
  5
BA7B
102
{ACAD_REACTORS
330
BE6A
102
}
330
18
100
AcDbEntity
  8
DRAW2
100
AcDbLine
 10
1009.621910619408
 20
48.86851058431648
 30
0.0
 11
1041.621910619408
 21
48.86851058431648
 31
0.0
  0
LINE
  5
BA7C
102
{ACAD_REACTORS
330
BE6A
102
}
330
18
100
AcDbEntity
  8
DRAW2
100
AcDbLine
 10
1012.344285461024
 20
28.86851058431648
 30
0.0
 11
1038.899535777792
 21
28.86851058431648
 31
0.0
  0
LINE
  5
BA7D
102
{ACAD_REACTORS
330
BE6A
102
}
330
18
100
AcDbEntity
  8
DRAW2
100
AcDbLine
 10
1008.728275332578
 20
41.49274582984822
 30
0.0
 11
1010.366412755287
 21
30.57182967845597
 31
0.0
  0
ARC
  5
BA7E
102
{ACAD_REACTORS
330
BE6A
102
}
330
18
100
AcDbEntity
  8
DRAW2
100
AcDbCircle
 10
1012.344285461024
 20
30.86851058431648
 30
0.0
 40
2.0
100
AcDbArc
 50
188.5307656099486
 51
270.0
  0
LINE
  5
BA7F
102
{ACAD_REACTORS
330
BE6A
102
}
330
18
100
AcDbEntity
  8
DRAW2
100
AcDbLine
 10
1042.515545906238
 20
41.49274582984822
 30
0.0
 11
1040.877408483529
 21
30.57182967845597
 31
0.0
  0
ARC
  5
BA80
102
{ACAD_REACTORS
330
BE6A
102
}
330
18
100
AcDbEntity
  8
DRAW2
100
AcDbCircle
 10
1038.899535777792
 20
30.86851058431648
 30
0.0
 40
2.0
100
AcDbArc
 50
270.0
 51
351.4692343900513
  0
LINE
  5
BA81
102
{ACAD_REACTORS
330
BE69
102
}
330
18
100
AcDbEntity
  8
DRAW2
100
AcDbLine
 10
1190.621910619408
 20
48.86851058431648
 30
0.0
 11
1222.621910619408
 21
48.86851058431648
 31
0.0
  0
LINE
  5
BA82
102
{ACAD_REACTORS
330
BE69
102
}
330
18
100
AcDbEntity
  8
DRAW2
100
AcDbLine
 10
1193.344285461024
 20
28.86851058431648
 30
0.0
 11
1219.899535777792
 21
28.86851058431648
 31
0.0
  0
LINE
  5
BA83
102
{ACAD_REACTORS
330
BE69
102
}
330
18
100
AcDbEntity
  8
DRAW2
100
AcDbLine
 10
1189.728275332578
 20
41.49274582984822
 30
0.0
 11
1191.366412755287
 21
30.57182967845597
 31
0.0
  0
ARC
  5
BA84
102
{ACAD_REACTORS
330
BE69
102
}
330
18
100
AcDbEntity
  8
DRAW2
100
AcDbCircle
 10
1193.344285461024
 20
30.86851058431648
 30
0.0
 40
2.0
100
AcDbArc
 50
188.5307656099486
 51
270.0
  0
LINE
  5
BA85
102
{ACAD_REACTORS
330
BE69
102
}
330
18
100
AcDbEntity
  8
DRAW2
100
AcDbLine
 10
1223.515545906238
 20
41.49274582984822
 30
0.0
 11
1221.877408483529
 21
30.57182967845597
 31
0.0
  0
ARC
  5
BA86
102
{ACAD_REACTORS
330
BE69
102
}
330
18
100
AcDbEntity
  8
DRAW2
100
AcDbCircle
 10
1219.899535777792
 20
30.86851058431648
 30
0.0
 40
2.0
100
AcDbArc
 50
270.0
 51
351.4692343900513
  0
LINE
  5
BA87
102
{ACAD_REACTORS
330
BE6B
102
}
330
18
100
AcDbEntity
  8
DRAW2
100
AcDbLine
 10
1301.621910619408
 20
36.36851058431648
 30
0.0
 11
1286.621910619407
 21
36.36851058431648
 31
0.0
  0
LINE
  5
BA89
102
{ACAD_REACTORS
330
BE6B
102
}
330
18
100
AcDbEntity
  8
DRAW2
100
AcDbLine
 10
1286.621910619408
 20
37.36851058431648
 30
0.0
 11
1282.621910619408
 21
37.36851058431648
 31
0.0
  0
ELLIPSE
  5
BA8A
330
18
100
AcDbEntity
  8
DRAW2
100
AcDbEllipse
 10
1116.121910619408
 20
539.2400212509112
 30
0.0
 11
-29.0
 21
0.0
 31
0.0
210
0.0
220
0.0
230
1.0
 40
0.5
 41
9.424777960769379
 42
9.47906096591967
  0
ELLIPSE
  5
BA8B
330
18
100
AcDbEntity
  8
DRAW2
100
AcDbEllipse
 10
1116.121910619408
 20
539.2400212509112
 30
0.0
 11
-29.0
 21
0.0
 31
0.0
210
0.0
220
0.0
230
1.0
 40
0.5
 41
10.26368254298508
 42
11.72746603214346
  0
ELLIPSE
  5
BA8C
330
18
100
AcDbEntity
  8
DRAW2
100
AcDbEllipse
 10
1116.121910619408
 20
539.2400212509112
 30
0.0
 11
-29.0
 21
0.0
 31
0.0
210
0.0
220
0.0
230
1.0
 40
0.5
 41
6.228902302029295
 42
6.283185307179586
  0
ELLIPSE
  5
BA8D
330
18
100
AcDbEntity
  8
DRAW2
100
AcDbEllipse
 10
1116.121910619408
 20
239.3449358996326
 30
0.0
 11
-29.0
 21
0.0
 31
0.0
210
0.0
220
0.0
230
1.0
 40
0.8660254037844383
 41
6.283191950524359
 42
9.424771317424607
  0
ELLIPSE
  5
BA8E
330
18
100
AcDbEntity
  8
DRAW2
100
AcDbEllipse
 10
1116.121910619408
 20
535.3020743822348
 30
0.0
 11
-29.0
 21
0.0
 31
0.0
210
0.0
220
0.0
230
1.0
 40
0.5000000000000118
 41
5.951286396542762
 42
6.948323062864271
  0
ELLIPSE
  5
BA8F
330
18
100
AcDbEntity
  8
DRAW2
100
AcDbEllipse
 10
1116.121910619408
 20
533.570023574666
 30
0.0
 11
-27.0
 21
0.0
 31
0.0
210
0.0
220
0.0
230
1.0
 40
0.5000000000000085
 41
8.07743784269742
 42
8.860763024730298
  0
SPLINE
  5
BA90
330
18
100
AcDbEntity
  8
DRAW3
100
AcDbSpline
210
0.0
220
0.0
230
1.0
 70
     8
 71
     3
 72
    11
 73
     7
 74
     5
 42
0.0000000001
 43
0.0000000001
 44
0.0000000001
 40
0.0
 40
0.0
 40
0.0
 40
0.0
 40
2.188604848425167
 40
3.713779298773978
 40
5.878143169043564
 40
7.748492056972173
 40
7.748492056972173
 40
7.748492056972173
 40
7.748492056972173
 10
1113.121910619408
 20
494.1164415482325
 30
0.0
 10
1113.625338545858
 20
493.4140275683648
 30
0.0
 10
1114.479590611059
 20
492.2221219123581
 30
0.0
 10
1116.429403405133
 20
493.3416431722676
 30
0.0
 10
1117.431737631462
 20
495.6530985622468
 30
0.0
 10
1118.5865710484
 20
494.4127379141874
 30
0.0
 10
1119.121910619408
 20
493.8377509701938
 30
0.0
 11
1113.121910619408
 21
494.1164415482325
 31
0.0
 11
1114.763344336876
 21
492.6687929259113
 31
0.0
 11
1116.121910619408
 21
493.3619413659766
 31
0.0
 11
1117.607748950987
 21
494.9357124469594
 31
0.0
 11
1119.121910619408
 21
493.8377509701938
 31
0.0
  0
ELLIPSE
  5
BA91
330
18
100
AcDbEntity
  8
DRAW2
100
AcDbEllipse
 10
1116.121910619408
 20
513.752826913296
 30
0.0
 11
-3.0
 21
0.0
 31
0.0
210
0.0
220
0.0
230
1.0
 40
0.5
 41
3.141592653589793
 42
6.283185307179586
  0
ELLIPSE
  5
BA92
330
18
100
AcDbEntity
  8
DRAW2
100
AcDbEllipse
 10
1116.121910619408
 20
536.0700235746662
 30
0.0
 11
-4.864000000000089
 21
0.0
 31
0.0
210
0.0
220
0.0
230
1.0
 40
0.4999999999999708
 41
3.141592653589793
 42
6.283185307179586
  0
ELLIPSE
  5
BA93
330
18
100
AcDbEntity
  8
DRAW2
100
AcDbEllipse
 10
1116.121910619408
 20
526.5177633709238
 30
0.0
 11
-4.200000000000045
 21
0.0
 31
0.0
210
0.0
220
0.0
230
1.0
 40
0.5000000000000271
 41
3.141592653589793
 42
6.283185307179586
  0
ELLIPSE
  5
BA94
330
18
100
AcDbEntity
  8
DRAW2
100
AcDbEllipse
 10
1116.121910619408
 20
524.1998463776949
 30
0.0
 11
-5.0
 21
0.0
 31
0.0
210
0.0
220
0.0
230
1.0
 40
0.5
 41
3.141592653589793
 42
6.283185307179586
  0
ELLIPSE
  5
BA95
330
18
100
AcDbEntity
  8
DRAW2
100
AcDbEllipse
 10
1116.121910619408
 20
516.3509031246491
 30
0.0
 11
-5.75
 21
0.0
 31
0.0
210
0.0
220
0.0
230
1.0
 40
0.5000000000000198
 41
3.141592653589793
 42
6.283185307179586
  0
ELLIPSE
  5
BA96
330
18
100
AcDbEntity
  8
DRAW2
100
AcDbEllipse
 10
1116.121910619408
 20
514.1858396151881
 30
0.0
 11
-5.75
 21
0.0
 31
0.0
210
0.0
220
0.0
230
1.0
 40
0.5000000000000198
 41
2.729778632910046
 42
6.694999327859333
  0
ELLIPSE
  5
BA97
330
18
100
AcDbEntity
  8
DRAW2
100
AcDbEllipse
 10
1116.121910619408
 20
513.752826913296
 30
0.0
 11
-5.461324999999987
 21
0.0
 31
0.0
210
0.0
220
0.0
230
1.0
 40
0.5
 41
2.152343274395363
 42
7.272434686374015
  0
ELLIPSE
  5
BA98
330
18
100
AcDbEntity
  8
DRAW2
100
AcDbEllipse
 10
1116.121910619408
 20
533.570023574666
 30
0.0
 11
-27.0
 21
0.0
 31
0.0
210
0.0
220
0.0
230
1.0
 40
0.5000000000000085
 41
6.847200243218145
 42
7.630525425251535
  0
ELLIPSE
  5
BA99
330
18
100
AcDbEntity
  8
DRAW2
100
AcDbEllipse
 10
1116.121910619408
 20
533.570023574666
 30
0.0
 11
-27.0
 21
0.0
 31
0.0
210
0.0
220
0.0
230
1.0
 40
0.5000000000000085
 41
8.995226520452405
 42
9.923467588038917
  0
ELLIPSE
  5
BA9A
330
18
100
AcDbEntity
  8
DRAW2
100
AcDbEllipse
 10
1135.174469502665
 20
528.070023574666
 30
0.0
 11
5.5
 21
0.0
 31
0.0
210
0.0
220
0.0
230
-1.0
 40
0.5
 41
1.002727996245953
 42
6.496762331199837
  0
ELLIPSE
  5
BA9B
330
18
100
AcDbEntity
  8
DRAW2
100
AcDbEllipse
 10
1135.174469502665
 20
528.0700235746662
 30
0.0
 11
5.0
 21
0.0
 31
0.0
210
0.0
220
0.0
230
-1.0
 40
0.4999999999999773
 41
0.0
 42
6.283185307179586
  0
ELLIPSE
  5
BA9C
330
18
100
AcDbEntity
  8
DRAW2
100
AcDbEllipse
 10
1097.06935173615
 20
528.0700235746662
 30
0.0
 11
-5.0
 21
0.0
 31
0.0
210
0.0
220
0.0
230
1.0
 40
0.4999999999999773
 41
0.0
 42
6.283185307179586
  0
ELLIPSE
  5
BA9D
330
18
100
AcDbEntity
  8
DRAW2
100
AcDbEllipse
 10
1097.06935173615
 20
528.070023574666
 30
0.0
 11
-5.5
 21
0.0
 31
0.0
210
0.0
220
0.0
230
1.0
 40
0.5
 41
1.002727996246317
 42
6.496762331199462
  0
ELLIPSE
  5
BA9E
330
18
100
AcDbEntity
  8
DRAW2
100
AcDbEllipse
 10
1116.121910619408
 20
533.570023574666
 30
0.0
 11
-27.0
 21
0.0
 31
0.0
210
0.0
220
0.0
230
1.0
 40
0.5000000000000085
 41
5.784495679910047
 42
6.712736747498577
  0
ELLIPSE
  5
BA9F
330
18
100
AcDbEntity
  8
DRAW2
100
AcDbEllipse
 10
1116.121910619408
 20
535.3020743822348
 30
0.0
 11
-29.0
 21
0.0
 31
0.0
210
0.0
220
0.0
230
1.0
 40
0.5000000000000118
 41
2.476454897904653
 42
3.473491564226616
  0
ELLIPSE
  5
BAA0
330
18
100
AcDbEntity
  8
DRAW2
100
AcDbEllipse
 10
1116.121910620047
 20
261.6710694675748
 30
0.0
 11
5.5
 21
0.0
 31
0.0
210
0.0
220
0.0
230
-1.0
 40
0.86602540378443
 41
5.28932032564252
 42
6.396499917445205
  0
ELLIPSE
  5
BAA1
330
18
100
AcDbEntity
  8
DRAW2
100
AcDbEllipse
 10
1116.121910620047
 20
261.6710694675746
 30
0.0
 11
5.0
 21
0.0
 31
0.0
210
0.0
220
0.0
230
-1.0
 40
0.8660254037844424
 41
5.355890089202611
 42
6.189635250690937
  0
SPLINE
  5
BAA2
330
18
100
AcDbEntity
  8
DRAW3
100
AcDbSpline
210
0.0
220
0.0
230
1.0
 70
     8
 71
     3
 72
    11
 73
     7
 74
     5
 42
0.0000000001
 43
0.0000000001
 44
0.0000000001
 40
0.0
 40
0.0
 40
0.0
 40
0.0
 40
2.188604848425338
 40
3.713779298773946
 40
5.878143169043688
 40
7.748492056972112
 40
7.748492056972112
 40
7.748492056972112
 40
7.748492056972112
 10
1113.121910620146
 20
284.7323822770874
 30
0.0
 10
1113.625338546596
 20
284.0299682972197
 30
0.0
 10
1114.479590611797
 20
282.838062641213
 30
0.0
 10
1116.429403405871
 20
283.9575839011228
 30
0.0
 10
1117.4317376322
 20
286.2690392911019
 30
0.0
 10
1118.586571049138
 20
285.0286786430423
 30
0.0
 10
1119.121910620145
 20
284.4536916990488
 30
0.0
 11
1113.121910620146
 21
284.7323822770874
 31
0.0
 11
1114.763344337614
 21
283.2847336547663
 31
0.0
 11
1116.121910620146
 21
283.9778820948315
 31
0.0
 11
1117.607748951725
 21
285.5516531758144
 31
0.0
 11
1119.121910620145
 21
284.4536916990488
 31
0.0
  0
ELLIPSE
  5
BAA3
330
18
100
AcDbEntity
  8
DRAW2
100
AcDbEllipse
 10
1116.121910620146
 20
259.8334771032396
 30
0.0
 11
-3.0
 21
0.0
 31
0.0
210
0.0
220
0.0
230
1.0
 40
0.8660254037844197
 41
0.0
 42
3.141592653589793
  0
ELLIPSE
  5
BAA4
330
18
100
AcDbEntity
  8
DRAW2
100
AcDbEllipse
 10
1116.121910620146
 20
246.9486376032393
 30
0.0
 11
-4.864000000000145
 21
0.0
 31
0.0
210
0.0
220
0.0
230
1.0
 40
0.8660254037844051
 41
0.1202947649453564
 42
3.021297888644465
  0
ELLIPSE
  5
BAA5
330
18
100
AcDbEntity
  8
DRAW2
100
AcDbEllipse
 10
1116.121910620146
 20
252.4636376032394
 30
0.0
 11
-4.200000000000045
 21
0.0
 31
0.0
210
0.0
220
0.0
230
1.0
 40
0.8660254037844483
 41
0.4078566933202142
 42
2.733735960269579
  0
ELLIPSE
  5
BAA6
330
18
100
AcDbEntity
  8
DRAW2
100
AcDbEllipse
 10
1116.121910620146
 20
253.8018876032395
 30
0.0
 11
-5.0
 21
0.0
 31
0.0
210
0.0
220
0.0
230
1.0
 40
0.8660254037844424
 41
6.986721980372481
 42
7.717884243034339
  0
ELLIPSE
  5
BAA7
330
18
100
AcDbEntity
  8
DRAW2
100
AcDbEllipse
 10
1116.121910620146
 20
253.8018876032395
 30
0.0
 11
-5.0
 21
0.0
 31
0.0
210
0.0
220
0.0
230
1.0
 40
0.8660254037844424
 41
1.70689371773504
 42
2.438055980396924
  0
ELLIPSE
  5
BAA8
330
18
100
AcDbEntity
  8
DRAW2
100
AcDbEllipse
 10
1116.121910620146
 20
258.3334771032395
 30
0.0
 11
-5.75
 21
0.0
 31
0.0
210
0.0
220
0.0
230
1.0
 40
0.8660254037844346
 41
0.0
 42
3.141592653589793
  0
ELLIPSE
  5
BAA9
330
18
100
AcDbEntity
  8
DRAW2
100
AcDbEllipse
 10
1116.121910620146
 20
259.5834771032396
 30
0.0
 11
-5.75
 21
0.0
 31
0.0
210
0.0
220
0.0
230
1.0
 40
0.8660254037844346
 41
5.261277252027786
 42
10.44668601592117
  0
ELLIPSE
  5
BAAA
330
18
100
AcDbEntity
  8
DRAW2
100
AcDbEllipse
 10
1116.121910620146
 20
259.8334771032396
 30
0.0
 11
-5.461324999999987
 21
0.0
 31
0.0
210
0.0
220
0.0
230
1.0
 40
0.8660254037844396
 41
5.293935927985154
 42
10.41402733996381
  0
ELLIPSE
  5
BAAB
330
18
100
AcDbEntity
  8
DRAW2
100
AcDbEllipse
 10
1116.121910620048
 20
242.6185105843172
 30
0.0
 11
-27.0
 21
0.0
 31
0.0
210
0.0
220
0.0
230
1.0
 40
0.8660254037844323
 41
4.823729994721999
 42
6.712736747498572
  0
ELLIPSE
  5
BAAC
330
18
100
AcDbEntity
  8
DRAW2
100
AcDbEllipse
 10
1116.121910620048
 20
242.6185105843172
 30
0.0
 11
-27.0
 21
0.0
 31
0.0
210
0.0
220
0.0
230
1.0
 40
0.8660254037844323
 41
2.712041213270709
 42
4.601047966040069
  0
ELLIPSE
  5
BAAD
330
18
100
AcDbEntity
  8
DRAW2
100
AcDbEllipse
 10
1135.174469503305
 20
233.0922311426886
 30
0.0
 11
5.5
 21
0.0
 31
0.0
210
0.0
220
0.0
230
-1.0
 40
0.86602540378443
 41
0.0
 42
6.283185307179586
  0
ELLIPSE
  5
BAAE
330
18
100
AcDbEntity
  8
DRAW2
100
AcDbEllipse
 10
1135.174469503305
 20
233.0922311426884
 30
0.0
 11
5.0
 21
0.0
 31
0.0
210
0.0
220
0.0
230
-1.0
 40
0.8660254037844424
 41
0.0
 42
6.283185307179586
  0
ELLIPSE
  5
BAAF
330
18
100
AcDbEntity
  8
DRAW2
100
AcDbEllipse
 10
1116.121910620047
 20
261.6710694675748
 30
0.0
 11
5.5
 21
0.0
 31
0.0
210
0.0
220
0.0
230
-1.0
 40
0.86602540378443
 41
3.028278043242491
 42
4.135457635169601
  0
ELLIPSE
  5
BAB0
330
18
100
AcDbEntity
  8
DRAW2
100
AcDbEllipse
 10
1116.121910620047
 20
261.6710694675746
 30
0.0
 11
5.0
 21
0.0
 31
0.0
210
0.0
220
0.0
230
-1.0
 40
0.8660254037844424
 41
3.235142709996655
 42
4.068887871616047
  0
ELLIPSE
  5
BAB1
330
18
100
AcDbEntity
  8
DRAW2
100
AcDbEllipse
 10
1097.069351736789
 20
233.0922311426884
 30
0.0
 11
-5.0
 21
0.0
 31
0.0
210
0.0
220
0.0
230
1.0
 40
0.8660254037844424
 41
0.0
 42
6.283185307179586
  0
ELLIPSE
  5
BAB2
330
18
100
AcDbEntity
  8
DRAW2
100
AcDbEllipse
 10
1097.069351736789
 20
233.0922311426886
 30
0.0
 11
-5.5
 21
0.0
 31
0.0
210
0.0
220
0.0
230
1.0
 40
0.86602540378443
 41
0.0
 42
6.283185307179586
  0
ELLIPSE
  5
BAB3
330
18
100
AcDbEntity
  8
DRAW2
100
AcDbEllipse
 10
1116.121910620048
 20
242.6185105843172
 30
0.0
 11
-27.0
 21
0.0
 31
0.0
210
0.0
220
0.0
230
1.0
 40
0.8660254037844323
 41
0.6176461108775761
 42
2.523946542712271
  0
ELLIPSE
  5
BAB4
330
18
100
AcDbEntity
  8
DRAW2
100
AcDbEllipse
 10
1116.121910620048
 20
241.6185105843171
 30
0.0
 11
-29.0
 21
0.0
 31
0.0
210
0.0
220
0.0
230
1.0
 40
0.8660254037844353
 41
4.81602265989602
 42
10.89194060804614
  0
ELLIPSE
  5
BAB5
330
18
100
AcDbEntity
  8
DRAW2
100
AcDbEllipse
 10
1106.121910619408
 20
161.1388028542251
 30
0.0
 11
-4.999999999999943
 21
-0.0000000000000804
 31
0.0
210
0.0
220
0.0
230
1.0
 40
0.7071067811865613
 41
0.0
 42
6.283185307179586
  0
ELLIPSE
  5
BAB6
330
18
100
AcDbEntity
  8
DRAW2
100
AcDbEllipse
 10
1106.121910619408
 20
162.1356919273519
 30
0.0
 11
-5.000000000000028
 21
0.000000000000087
 31
0.0
210
0.0
220
0.0
230
1.0
 40
0.6533929634855915
 41
3.141592653589793
 42
6.283185307179586
  0
ELLIPSE
  5
BAB7
330
18
100
AcDbEntity
  8
DRAW2
100
AcDbEllipse
 10
1126.121910619408
 20
162.1356919273519
 30
0.0
 11
5.000000000000028
 21
0.000000000000087
 31
0.0
210
0.0
220
0.0
230
-1.0
 40
0.6533929634855915
 41
3.141592653589793
 42
6.283185307179586
  0
ELLIPSE
  5
BAB8
330
18
100
AcDbEntity
  8
DRAW2
100
AcDbEllipse
 10
1126.121910619408
 20
161.1388028542251
 30
0.0
 11
4.999999999999943
 21
-0.0000000000000804
 31
0.0
210
0.0
220
0.0
230
-1.0
 40
0.7071067811865613
 41
0.0
 42
6.283185307179586
  0
LINE
  5
BAB9
330
18
100
AcDbEntity
  8
DRAW2
100
AcDbLine
 10
1097.069351736789
 20
230.5922311426882
 30
0.0
 11
1094.56935173679
 21
231.8422311426882
 31
0.0
  0
LINE
  5
BABA
330
18
100
AcDbEntity
  8
DRAW2
100
AcDbLine
 10
1094.56935173679
 20
234.3422311426881
 30
0.0
 11
1097.069351736789
 21
235.5922311426882
 31
0.0
  0
CIRCLE
  5
BABC
330
18
100
AcDbEntity
  8
DRAW2
100
AcDbCircle
 10
1094.121910619408
 20
192.8685105843171
 30
0.0
 40
11.0
  0
CIRCLE
  5
BABD
330
18
100
AcDbEntity
  8
DRAW3
100
AcDbCircle
 10
1094.121910619408
 20
192.8685105843171
 30
0.0
 40
6.578500006249994
  0
CIRCLE
  5
BABE
330
18
100
AcDbEntity
  8
DRAW2
100
AcDbCircle
 10
1094.121910619408
 20
192.8685105843171
 30
0.0
 40
5.694887103024191
  0
CIRCLE
  5
BABF
330
18
100
AcDbEntity
  8
DRAW2
100
AcDbCircle
 10
1094.121910619408
 20
192.8685105843171
 30
0.0
 40
7.0
  0
CIRCLE
  5
BAC0
330
18
100
AcDbEntity
  8
DRAW2
100
AcDbCircle
 10
1094.121910619408
 20
192.8685105843171
 30
0.0
 40
10.5
  0
LINE
  5
BAC2
330
18
100
AcDbEntity
  8
DRAW2
100
AcDbLine
 10
1079.621910619407
 20
276.3685105843161
 30
0.0
 11
1113.121923785363
 21
276.3685105843163
 31
0.0
  0
LINE
  5
BAC3
330
18
100
AcDbEntity
  8
DRAW2
100
AcDbLine
 10
1152.621910619408
 20
141.3685105843163
 30
0.0
 11
1079.621910619407
 21
141.3685105843164
 31
0.0
  0
LINE
  5
BAC4
330
18
100
AcDbEntity
  8
DRAW2
100
AcDbLine
 10
1062.621910619408
 20
314.1185105843165
 30
0.0
 11
1169.621910619408
 21
314.1185105843165
 31
0.0
  0
LINE
  5
BAC5
330
18
100
AcDbEntity
  8
DRAW2
100
AcDbLine
 10
1062.621910619408
 20
348.6185105843166
 30
0.0
 11
1169.621910619408
 21
348.6185105843166
 31
0.0
  0
LINE
  5
BAC6
330
18
100
AcDbEntity
  8
DRAW2
100
AcDbLine
 10
1062.621910619408
 20
103.6185105843164
 30
0.0
 11
1169.621910619408
 21
103.6185105843163
 31
0.0
  0
LINE
  5
BAC7
330
18
100
AcDbEntity
  8
DRAW2
100
AcDbLine
 10
1062.621910619408
 20
69.11851058431648
 30
0.0
 11
1169.621910619408
 21
69.11851058431648
 31
0.0
  0
LINE
  5
BAC8
330
18
100
AcDbEntity
  8
DRAW2
100
AcDbLine
 10
1079.621910619407
 20
287.0069493476221
 30
0.0
 11
1152.621910619408
 21
287.0069493476221
 31
0.0
  0
LINE
  5
BAC9
330
18
100
AcDbEntity
  8
DRAW2
100
AcDbLine
 10
1053.121910619408
 20
297.0069493476226
 30
0.0
 11
1179.121910619408
 21
297.0069493476226
 31
0.0
  0
LINE
  5
BACC
330
18
100
AcDbEntity
  8
DRAW2
100
AcDbLine
 10
1053.121910619408
 20
120.7300718210103
 30
0.0
 11
1179.121910619408
 21
120.7300718210103
 31
0.0
  0
LINE
  5
BACD
330
18
100
AcDbEntity
  8
DRAW2
100
AcDbLine
 10
1079.621910619407
 20
130.7300718210108
 30
0.0
 11
1152.621910619408
 21
130.7300718210108
 31
0.0
  0
LINE
  5
BAD1
330
18
100
AcDbEntity
  8
DRAW2
100
AcDbLine
 10
1054.621910619407
 20
267.8862270957407
 30
0.0
 11
1054.621910619407
 21
211.368510584317
 31
0.0
  0
LINE
  5
BAD2
330
18
100
AcDbEntity
  8
DRAW2
100
AcDbLine
 10
1077.621910619407
 20
211.368510584317
 30
0.0
 11
1077.621910619407
 21
267.8862270957407
 31
0.0
  0
LINE
  5
BAD3
330
18
100
AcDbEntity
  8
DRAW2
100
AcDbLine
 10
1053.621910619407
 20
293.868510584317
 30
0.0
 11
1053.621910619407
 21
208.868510584317
 31
0.0
  0
LINE
  5
BAD4
330
18
100
AcDbEntity
  8
DRAW2
100
AcDbLine
 10
1079.621910619407
 20
208.868510584317
 30
0.0
 11
1079.621910619407
 21
292.868510584317
 31
0.0
  0
LINE
  5
BAD5
330
18
100
AcDbEntity
  8
DRAW2
100
AcDbLine
 10
997.6219106194081
 20
109.8685105843164
 30
0.0
 11
997.6219106194081
 21
307.8685105843165
 31
0.0
  0
LINE
  5
BAD6
330
18
100
AcDbEntity
  8
DRAW2
100
AcDbLine
 10
992.621910619408
 20
307.8685105843165
 30
0.0
 11
992.621910619408
 21
109.8685105843164
 31
0.0
  0
LINE
  5
BAD7
330
18
100
AcDbEntity
  8
DRAW2
100
AcDbLine
 10
1053.121910619408
 20
308.8685105843164
 30
0.0
 11
1053.121910619408
 21
208.8685105843163
 31
0.0
  0
LINE
  5
BAD8
330
18
100
AcDbEntity
  8
DRAW2
100
AcDbLine
 10
997.6219106194081
 20
308.8685105843164
 30
0.0
 11
997.6219106194081
 21
108.8685105843164
 31
0.0
  0
LINE
  5
BAD9
330
18
100
AcDbEntity
  8
DRAW2
100
AcDbLine
 10
1053.621910619407
 20
123.868510584317
 30
0.0
 11
1053.621910619407
 21
208.868510584317
 31
0.0
  0
LINE
  5
BADA
330
18
100
AcDbEntity
  8
DRAW2
100
AcDbLine
 10
1079.621910619407
 20
208.868510584317
 30
0.0
 11
1079.621910619407
 21
124.868510584317
 31
0.0
  0
LINE
  5
BADB
330
18
100
AcDbEntity
  8
DRAW2
100
AcDbLine
 10
1054.621910619407
 20
206.368510584317
 30
0.0
 11
1054.621910619407
 21
149.8507940728903
 31
0.0
  0
LINE
  5
BADC
330
18
100
AcDbEntity
  8
DRAW2
100
AcDbLine
 10
1077.621910619407
 20
149.8507940728903
 30
0.0
 11
1077.621910619407
 21
206.368510584317
 31
0.0
  0
LINE
  5
BADD
330
18
100
AcDbEntity
  8
DRAW2
100
AcDbLine
 10
1053.121910619408
 20
108.8685105843164
 30
0.0
 11
1053.121910619408
 21
208.8685105843163
 31
0.0
  0
LINE
  5
BADE
330
18
100
AcDbEntity
  8
DRAW2
100
AcDbLine
 10
1015.121895619408
 20
83.86845058431708
 30
0.0
 11
1036.121925619408
 21
83.86845058431708
 31
0.0
  0
LINE
  5
BADF
330
18
100
AcDbEntity
  8
DRAW2
100
AcDbLine
 10
1017.121895619408
 20
85.86848058431712
 30
0.0
 11
1034.121925619408
 21
85.86848058431712
 31
0.0
  0
LINE
  5
BAE0
102
{ACAD_REACTORS
330
BE6A
102
}
330
18
100
AcDbEntity
  8
DRAW2
100
AcDbLine
 10
1007.621910619408
 20
58.86851058431648
 30
0.0
 11
1043.621910619408
 21
58.86851058431648
 31
0.0
  0
LINE
  5
BAE1
330
18
100
AcDbEntity
  8
DRAW2
100
AcDbLine
 10
997.6219106194081
 20
63.86851058431648
 30
0.0
 11
1062.621910619408
 21
63.86851058431648
 31
0.0
  0
LINE
  5
BAE2
330
18
100
AcDbEntity
  8
DRAW2
100
AcDbLine
 10
1062.621910619408
 20
58.86851058431648
 30
0.0
 11
997.6219106194081
 21
58.86851058431648
 31
0.0
  0
LINE
  5
BAE3
330
18
100
AcDbEntity
  8
DRAW2
100
AcDbLine
 10
997.6219106194076
 20
108.8685105843164
 30
0.0
 11
1062.621910619408
 21
108.8685105843164
 31
0.0
  0
LINE
  5
BAE4
330
18
100
AcDbEntity
  8
DRAW2
100
AcDbLine
 10
997.6219106194076
 20
108.8685105843164
 30
0.0
 11
997.6219106194081
 21
63.86851058431648
 31
0.0
  0
LINE
  5
BAE5
330
18
100
AcDbEntity
  8
DRAW2
100
AcDbLine
 10
997.6219106194081
 20
58.86851058431648
 30
0.0
 11
997.6219106194081
 21
63.86851058431648
 31
0.0
  0
LINE
  5
BAE6
330
18
100
AcDbEntity
  8
DRAW2
100
AcDbLine
 10
1015.121895619408
 20
63.86848058431713
 30
0.0
 11
1015.121895619408
 21
83.86851058431716
 31
0.0
  0
LINE
  5
BAE7
330
18
100
AcDbEntity
  8
DRAW2
100
AcDbLine
 10
1002.621910619408
 20
58.86851058431648
 30
0.0
 11
1002.621910619408
 21
63.86851058431648
 31
0.0
  0
LINE
  5
BAE8
102
{ACAD_REACTORS
330
BE6A
102
}
330
18
100
AcDbEntity
  8
DRAW2
100
AcDbLine
 10
1007.621910619408
 20
58.86851058431648
 30
0.0
 11
1007.621910619408
 21
56.32679112287269
 31
0.0
  0
LINE
  5
BAE9
330
18
100
AcDbEntity
  8
DRAW2
100
AcDbLine
 10
1015.121865619408
 20
83.86842058431716
 30
0.0
 11
1017.121865619408
 21
85.86842058431717
 31
0.0
  0
LINE
  5
BAEA
330
18
100
AcDbEntity
  8
DRAW2
100
AcDbLine
 10
965.6219106194081
 20
114.7300718210103
 30
0.0
 11
965.6219106194081
 21
136.7300718210103
 31
0.0
  0
LINE
  5
BAEB
330
18
100
AcDbEntity
  8
DRAW2
100
AcDbLine
 10
967.621910619408
 20
112.7300718210103
 30
0.0
 11
967.621910619408
 21
138.7300718210103
 31
0.0
  0
LINE
  5
BAEC
330
18
100
AcDbEntity
  8
DRAW2
100
AcDbLine
 10
992.621910619408
 20
112.7300718210103
 30
0.0
 11
967.621910619408
 21
112.7300718210103
 31
0.0
  0
LINE
  5
BAED
330
18
100
AcDbEntity
  8
DRAW2
100
AcDbLine
 10
965.6219106194081
 20
114.7300718210103
 30
0.0
 11
967.621910619408
 21
112.7300718210103
 31
0.0
  0
LINE
  5
BAEE
330
18
100
AcDbEntity
  8
DRAW2
100
AcDbLine
 10
992.621910619408
 20
109.8685105843164
 30
0.0
 11
997.6219106194081
 21
109.8685105843164
 31
0.0
  0
LINE
  5
BAEF
330
18
100
AcDbEntity
  8
DRAW2
100
AcDbLine
 10
967.621910619408
 20
138.7300718210103
 30
0.0
 11
992.621910619408
 21
138.7300718210103
 31
0.0
  0
LINE
  5
BAF0
330
18
100
AcDbEntity
  8
DRAW2
100
AcDbLine
 10
965.6219106194081
 20
136.7300718210103
 30
0.0
 11
967.621910619408
 21
138.7300718210103
 31
0.0
  0
LINE
  5
BAF1
330
18
100
AcDbEntity
  8
DRAW2
100
AcDbLine
 10
1062.621910619408
 20
108.8685105843165
 30
0.0
 11
1062.621910619408
 21
63.86851058431648
 31
0.0
  0
LINE
  5
BAF2
330
18
100
AcDbEntity
  8
DRAW2
100
AcDbLine
 10
1036.121925619408
 20
63.86848058431713
 30
0.0
 11
1036.121925619408
 21
83.86851058431716
 31
0.0
  0
LINE
  5
BAF3
102
{ACAD_REACTORS
330
BE6A
102
}
330
18
100
AcDbEntity
  8
DRAW2
100
AcDbLine
 10
1043.621910619408
 20
58.86851058431648
 30
0.0
 11
1043.621910619408
 21
56.32679112287269
 31
0.0
  0
LINE
  5
BAF4
330
18
100
AcDbEntity
  8
DRAW2
100
AcDbLine
 10
1057.621910619408
 20
63.86851058431648
 30
0.0
 11
1057.621910619408
 21
58.86851058431648
 31
0.0
  0
LINE
  5
BAF5
330
18
100
AcDbEntity
  8
DRAW2
100
AcDbLine
 10
1062.621910619408
 20
63.86851058431648
 30
0.0
 11
1062.621910619408
 21
58.86851058431648
 31
0.0
  0
LINE
  5
BAF6
330
18
100
AcDbEntity
  8
DRAW2
100
AcDbLine
 10
1034.121805619408
 20
85.86848058431712
 30
0.0
 11
1036.121805619408
 21
83.86848058431713
 31
0.0
  0
LINE
  5
BAF7
330
18
100
AcDbEntity
  8
DRAW2
100
AcDbLine
 10
1079.621910619407
 20
149.8507940728903
 30
0.0
 11
1053.621910619407
 21
149.8507940728903
 31
0.0
  0
LINE
  5
BAF8
330
18
100
AcDbEntity
  8
DRAW2
100
AcDbLine
 10
1079.621910619407
 20
146.3152601669576
 30
0.0
 11
1053.621910619407
 21
146.3152601669576
 31
0.0
  0
LINE
  5
BAF9
330
18
100
AcDbEntity
  8
DRAW2
100
AcDbLine
 10
1077.621910619407
 20
122.868510584317
 30
0.0
 11
1054.621910619407
 21
122.868510584317
 31
0.0
  0
LINE
  5
BAFA
330
18
100
AcDbEntity
  8
DRAW2
100
AcDbLine
 10
1054.621910619407
 20
146.3152601669576
 30
0.0
 11
1054.621910619407
 21
122.868510584317
 31
0.0
  0
LINE
  5
BAFB
330
18
100
AcDbEntity
  8
DRAW2
100
AcDbLine
 10
1053.621910619407
 20
123.868510584317
 30
0.0
 11
1054.621910619407
 21
122.868510584317
 31
0.0
  0
LINE
  5
BAFC
330
18
100
AcDbEntity
  8
DRAW2
100
AcDbLine
 10
1077.621910619407
 20
122.868510584317
 30
0.0
 11
1077.621910619407
 21
146.3152601669576
 31
0.0
  0
LINE
  5
BAFD
330
18
100
AcDbEntity
  8
DRAW2
100
AcDbLine
 10
1079.621910619407
 20
124.868510584317
 30
0.0
 11
1077.621910619407
 21
122.868510584317
 31
0.0
  0
LINE
  5
BAFE
330
18
100
AcDbEntity
  8
DRAW2
100
AcDbLine
 10
967.621910619408
 20
195.8685105843164
 30
0.0
 11
967.621910619408
 21
221.8685105843164
 31
0.0
  0
LINE
  5
BAFF
330
18
100
AcDbEntity
  8
DRAW2
100
AcDbLine
 10
965.6219106194081
 20
197.8685105843164
 30
0.0
 11
965.6219106194081
 21
219.8685105843164
 31
0.0
  0
LINE
  5
BB00
330
18
100
AcDbEntity
  8
DRAW2
100
AcDbLine
 10
992.621910619408
 20
195.8685105843164
 30
0.0
 11
967.621910619408
 21
195.8685105843164
 31
0.0
  0
LINE
  5
BB01
330
18
100
AcDbEntity
  8
DRAW2
100
AcDbLine
 10
965.6219106194081
 20
197.8685105843164
 30
0.0
 11
967.621910619408
 21
195.8685105843164
 31
0.0
  0
LINE
  5
BB02
330
18
100
AcDbEntity
  8
DRAW2
100
AcDbLine
 10
967.621910619408
 20
221.8685105843164
 30
0.0
 11
992.621910619408
 21
221.8685105843164
 31
0.0
  0
LINE
  5
BB03
330
18
100
AcDbEntity
  8
DRAW2
100
AcDbLine
 10
965.6219106194081
 20
219.8685105843164
 30
0.0
 11
967.621910619408
 21
221.8685105843164
 31
0.0
  0
LINE
  5
BB08
330
18
100
AcDbEntity
  8
DRAW2
100
AcDbLine
 10
1053.621910619407
 20
206.368510584317
 30
0.0
 11
1079.621910619407
 21
206.368510584317
 31
0.0
  0
LINE
  5
BB0A
330
18
100
AcDbEntity
  8
DRAW2
100
AcDbLine
 10
1087.413706686908
 20
190.8685105843176
 30
0.0
 11
1083.814146555364
 21
190.8685105843176
 31
0.0
  0
LINE
  5
BB0B
330
18
100
AcDbEntity
  8
DRAW2
100
AcDbLine
 10
1087.413706686908
 20
194.8685105843176
 30
0.0
 11
1083.814146555364
 21
194.8685105843176
 31
0.0
  0
CIRCLE
  5
BB0C
330
18
100
AcDbEntity
  8
DRAW2
100
AcDbCircle
 10
1094.121910619408
 20
192.8685105843171
 30
0.0
 40
2.5
  0
LINE
  5
BB0D
330
18
100
AcDbEntity
  8
DRAW2
100
AcDbLine
 10
1053.621910619407
 20
211.368510584317
 30
0.0
 11
1079.621910619407
 21
211.368510584317
 31
0.0
  0
LINE
  5
BB0E
330
18
100
AcDbEntity
  8
DRAW2
100
AcDbLine
 10
1094.56935173679
 20
231.8422311426882
 30
0.0
 11
1094.56935173679
 21
234.3422311426881
 31
0.0
  0
LINE
  5
BB10
330
18
100
AcDbEntity
  8
DRAW2
100
AcDbLine
 10
1087.121910620048
 20
241.6185105843171
 30
0.0
 11
1087.121910620048
 21
239.3447690537777
 31
0.0
  0
LINE
  5
BB11
330
18
100
AcDbEntity
  8
DRAW2
100
AcDbLine
 10
1033.621910619408
 20
375.8685105843166
 30
0.0
 11
1033.621910619408
 21
358.8685105843166
 31
0.0
  0
LINE
  5
BB12
330
18
100
AcDbEntity
  8
DRAW2
100
AcDbLine
 10
1017.621910619408
 20
358.8685105843166
 30
0.0
 11
1017.621910619408
 21
375.8685105843166
 31
0.0
  0
LINE
  5
BB13
330
18
100
AcDbEntity
  8
DRAW2
100
AcDbLine
 10
997.6219106194081
 20
353.8685105843164
 30
0.0
 11
1062.621910619408
 21
353.8685105843164
 31
0.0
  0
LINE
  5
BB14
330
18
100
AcDbEntity
  8
DRAW2
100
AcDbLine
 10
1062.621910619408
 20
358.8685105843164
 30
0.0
 11
997.6219106194081
 21
358.8685105843164
 31
0.0
  0
LINE
  5
BB15
330
18
100
AcDbEntity
  8
DRAW2
100
AcDbLine
 10
997.6219106194081
 20
308.8685105843164
 30
0.0
 11
1062.621910619408
 21
308.8685105843164
 31
0.0
  0
LINE
  5
BB16
330
18
100
AcDbEntity
  8
DRAW2
100
AcDbLine
 10
1033.621910619408
 20
358.8685105843166
 30
0.0
 11
1017.621910619408
 21
358.8685105843166
 31
0.0
  0
LINE
  5
BB17
330
18
100
AcDbEntity
  8
DRAW2
100
AcDbLine
 10
997.6219106194076
 20
308.8685105843164
 30
0.0
 11
997.6219106194081
 21
353.8685105843164
 31
0.0
  0
LINE
  5
BB18
330
18
100
AcDbEntity
  8
DRAW2
100
AcDbLine
 10
967.621910619408
 20
305.0069493476225
 30
0.0
 11
967.621910619408
 21
279.0069493476226
 31
0.0
  0
LINE
  5
BB19
330
18
100
AcDbEntity
  8
DRAW2
100
AcDbLine
 10
965.6219106194081
 20
303.0069493476226
 30
0.0
 11
965.6219106194081
 21
281.0069493476225
 31
0.0
  0
LINE
  5
BB1A
330
18
100
AcDbEntity
  8
DRAW2
100
AcDbLine
 10
967.621910619408
 20
279.0069493476226
 30
0.0
 11
992.621910619408
 21
279.0069493476226
 31
0.0
  0
LINE
  5
BB1B
330
18
100
AcDbEntity
  8
DRAW2
100
AcDbLine
 10
965.6219106194081
 20
281.0069493476225
 30
0.0
 11
967.621910619408
 21
279.0069493476226
 31
0.0
  0
LINE
  5
BB1C
330
18
100
AcDbEntity
  8
DRAW2
100
AcDbLine
 10
992.621910619408
 20
305.0069493476225
 30
0.0
 11
967.621910619408
 21
305.0069493476225
 31
0.0
  0
LINE
  5
BB1D
330
18
100
AcDbEntity
  8
DRAW2
100
AcDbLine
 10
965.6219106194081
 20
303.0069493476226
 30
0.0
 11
967.621910619408
 21
305.0069493476225
 31
0.0
  0
LINE
  5
BB1E
330
18
100
AcDbEntity
  8
DRAW2
100
AcDbLine
 10
997.6219106194081
 20
307.8685105843165
 30
0.0
 11
992.621910619408
 21
307.8685105843165
 31
0.0
  0
LINE
  5
BB1F
330
18
100
AcDbEntity
  8
DRAW2
100
AcDbLine
 10
997.6219106194081
 20
358.8685105843164
 30
0.0
 11
997.6219106194081
 21
353.8685105843164
 31
0.0
  0
LINE
  5
BB23
330
18
100
AcDbEntity
  8
DRAW2
100
AcDbLine
 10
1062.621910619408
 20
308.8685105843163
 30
0.0
 11
1062.621910619408
 21
353.8685105843164
 31
0.0
  0
LINE
  5
BB24
330
18
100
AcDbEntity
  8
DRAW2
100
AcDbLine
 10
1053.621910619407
 20
271.4217610016753
 30
0.0
 11
1079.621910619407
 21
271.4217610016753
 31
0.0
  0
LINE
  5
BB25
330
18
100
AcDbEntity
  8
DRAW2
100
AcDbLine
 10
1053.621910619407
 20
267.8862270957425
 30
0.0
 11
1079.621910619407
 21
267.8862270957425
 31
0.0
  0
LINE
  5
BB26
330
18
100
AcDbEntity
  8
DRAW2
100
AcDbLine
 10
1077.621910619407
 20
294.8685105843159
 30
0.0
 11
1054.621910619407
 21
294.8685105843159
 31
0.0
  0
LINE
  5
BB27
330
18
100
AcDbEntity
  8
DRAW2
100
AcDbLine
 10
1054.621910619407
 20
271.4217610016753
 30
0.0
 11
1054.621910619407
 21
294.8685105843159
 31
0.0
  0
LINE
  5
BB28
330
18
100
AcDbEntity
  8
DRAW2
100
AcDbLine
 10
1053.621910619407
 20
293.8685105843159
 30
0.0
 11
1054.621910619407
 21
294.8685105843159
 31
0.0
  0
LINE
  5
BB29
330
18
100
AcDbEntity
  8
DRAW2
100
AcDbLine
 10
1077.621910619407
 20
271.4217610016753
 30
0.0
 11
1077.621910619407
 21
294.8685105843159
 31
0.0
  0
LINE
  5
BB2A
330
18
100
AcDbEntity
  8
DRAW2
100
AcDbLine
 10
1079.621910619407
 20
292.8685105843159
 30
0.0
 11
1077.621910619407
 21
294.8685105843159
 31
0.0
  0
LINE
  5
BB2B
330
18
100
AcDbEntity
  8
DRAW2
100
AcDbLine
 10
1062.621910619408
 20
353.8685105843164
 30
0.0
 11
1062.621910619408
 21
358.8685105843164
 31
0.0
  0
LINE
  5
BB2C
330
18
100
AcDbEntity
  8
DRAW2
100
AcDbLine
 10
1033.621910619408
 20
375.8685105843166
 30
0.0
 11
1017.621910619408
 21
375.8685105843166
 31
0.0
  0
LINE
  5
BB2D
330
18
100
AcDbEntity
  8
DRAW2
100
AcDbLine
 10
1019.621910619408
 20
377.8685105843166
 30
0.0
 11
1031.621910619408
 21
377.8685105843166
 31
0.0
  0
LINE
  5
BB2E
330
18
100
AcDbEntity
  8
DRAW2
100
AcDbLine
 10
1019.621910619408
 20
377.8685105843166
 30
0.0
 11
1017.621910619408
 21
375.8685105843166
 31
0.0
  0
LINE
  5
BB2F
330
18
100
AcDbEntity
  8
DRAW2
100
AcDbLine
 10
1031.621910619408
 20
377.8685105843166
 30
0.0
 11
1033.621910619408
 21
375.8685105843166
 31
0.0
  0
LINE
  5
BB30
330
18
100
AcDbEntity
  8
DRAW2
100
AcDbLine
 10
1122.105143512258
 20
260.7779634761066
 30
0.0
 11
1122.105143512258
 21
254.8889907303724
 31
0.0
  0
LINE
  5
BB31
330
18
100
AcDbEntity
  8
DRAW2
100
AcDbLine
 10
1110.138677728033
 20
254.8889907303724
 30
0.0
 11
1110.138677728033
 21
260.7779634761066
 31
0.0
  0
LINE
  5
BB32
330
18
100
AcDbEntity
  8
DRAW2
100
AcDbLine
 10
1121.871910620146
 20
259.5834771032396
 30
0.0
 11
1121.871910620146
 21
258.3334771032395
 31
0.0
  0
LINE
  5
BB33
330
18
100
AcDbEntity
  8
DRAW2
100
AcDbLine
 10
1110.371910620146
 20
258.3334771032395
 30
0.0
 11
1110.371910620146
 21
259.5834771032396
 31
0.0
  0
LINE
  5
BB34
330
18
100
AcDbEntity
  8
DRAW2
100
AcDbLine
 10
1177.621910619408
 20
267.8862270957407
 30
0.0
 11
1177.621910619408
 21
211.368510584317
 31
0.0
  0
LINE
  5
BB35
330
18
100
AcDbEntity
  8
DRAW2
100
AcDbLine
 10
1154.621910619408
 20
267.8862270957407
 30
0.0
 11
1154.621910619408
 21
211.368510584317
 31
0.0
  0
LINE
  5
BB36
330
18
100
AcDbEntity
  8
DRAW2
100
AcDbLine
 10
1178.621910619408
 20
293.868510584317
 30
0.0
 11
1178.621910619408
 21
208.868510584317
 31
0.0
  0
LINE
  5
BB37
330
18
100
AcDbEntity
  8
DRAW2
100
AcDbLine
 10
1152.621910619408
 20
208.868510584317
 30
0.0
 11
1152.621910619408
 21
292.868510584317
 31
0.0
  0
LINE
  5
BB38
330
18
100
AcDbEntity
  8
DRAW2
100
AcDbLine
 10
1234.621910619408
 20
109.8685105843164
 30
0.0
 11
1234.621910619408
 21
307.8685105843165
 31
0.0
  0
LINE
  5
BB39
330
18
100
AcDbEntity
  8
DRAW2
100
AcDbLine
 10
1239.621910619408
 20
307.8685105843165
 30
0.0
 11
1239.621910619408
 21
109.8685105843164
 31
0.0
  0
LINE
  5
BB3A
330
18
100
AcDbEntity
  8
DRAW2
100
AcDbLine
 10
1179.121910619408
 20
308.8685105843164
 30
0.0
 11
1179.121910619408
 21
208.8685105843163
 31
0.0
  0
LINE
  5
BB3B
330
18
100
AcDbEntity
  8
DRAW2
100
AcDbLine
 10
1234.621910619408
 20
308.8685105843164
 30
0.0
 11
1234.621910619408
 21
108.8685105843164
 31
0.0
  0
LINE
  5
BB3D
102
{ACAD_REACTORS
330
BE6B
102
}
330
18
100
AcDbEntity
  8
DRAW2
100
AcDbLine
 10
1234.621910619408
 20
63.86851058431648
 30
0.0
 11
1169.621910619408
 21
63.86851058431648
 31
0.0
  0
LINE
  5
BB3E
102
{ACAD_REACTORS
330
BE6B
102
}
330
18
100
AcDbEntity
  8
DRAW2
100
AcDbLine
 10
1234.621910619408
 20
108.8685105843165
 30
0.0
 11
1169.621910619408
 21
108.8685105843165
 31
0.0
  0
LINE
  5
BB3F
330
18
100
AcDbEntity
  8
DRAW2
100
AcDbLine
 10
1234.621910619408
 20
63.86851058431648
 30
0.0
 11
1169.621910619408
 21
63.86851058431648
 31
0.0
  0
LINE
  5
BB40
330
18
100
AcDbEntity
  8
DRAW2
100
AcDbLine
 10
1169.621910619408
 20
58.86851058431648
 30
0.0
 11
1234.621910619408
 21
58.86851058431648
 31
0.0
  0
LINE
  5
BB41
330
18
100
AcDbEntity
  8
DRAW2
100
AcDbLine
 10
1178.621910619408
 20
123.868510584317
 30
0.0
 11
1178.621910619408
 21
208.868510584317
 31
0.0
  0
LINE
  5
BB42
330
18
100
AcDbEntity
  8
DRAW2
100
AcDbLine
 10
1152.621910619408
 20
208.868510584317
 30
0.0
 11
1152.621910619408
 21
124.868510584317
 31
0.0
  0
LINE
  5
BB43
330
18
100
AcDbEntity
  8
DRAW2
100
AcDbLine
 10
1177.621910619408
 20
206.368510584317
 30
0.0
 11
1177.621910619408
 21
149.8507940728903
 31
0.0
  0
LINE
  5
BB44
330
18
100
AcDbEntity
  8
DRAW2
100
AcDbLine
 10
1154.621910619408
 20
206.368510584317
 30
0.0
 11
1154.621910619408
 21
149.8507940728903
 31
0.0
  0
LINE
  5
BB47
330
18
100
AcDbEntity
  8
DRAW2
100
AcDbLine
 10
1179.121910619408
 20
108.8685105843164
 30
0.0
 11
1179.121910619408
 21
208.8685105843163
 31
0.0
  0
LINE
  5
BB48
330
18
100
AcDbEntity
  8
DRAW2
100
AcDbLine
 10
1154.621910619408
 20
122.868510584317
 30
0.0
 11
1177.621910619408
 21
122.868510584317
 31
0.0
  0
LINE
  5
BB49
330
18
100
AcDbEntity
  8
DRAW2
100
AcDbLine
 10
1178.621910619408
 20
149.8507940728903
 30
0.0
 11
1152.621910619408
 21
149.8507940728903
 31
0.0
  0
LINE
  5
BB4A
330
18
100
AcDbEntity
  8
DRAW2
100
AcDbLine
 10
1178.621910619408
 20
146.3152601669576
 30
0.0
 11
1152.621910619408
 21
146.3152601669576
 31
0.0
  0
LINE
  5
BB4C
330
18
100
AcDbEntity
  8
DRAW2
100
AcDbLine
 10
1154.621910619408
 20
146.3152601669576
 30
0.0
 11
1154.621910619408
 21
122.868510584317
 31
0.0
  0
LINE
  5
BB4D
330
18
100
AcDbEntity
  8
DRAW2
100
AcDbLine
 10
1152.621910619408
 20
124.868510584317
 30
0.0
 11
1154.621910619408
 21
122.868510584317
 31
0.0
  0
LINE
  5
BB4E
102
{ACAD_REACTORS
330
BE6B
102
}
330
18
100
AcDbEntity
  8
DRAW2
100
AcDbLine
 10
1169.621910619408
 20
108.8685105843165
 30
0.0
 11
1169.621910619408
 21
63.86851058431648
 31
0.0
  0
LINE
  5
BB4F
102
{ACAD_REACTORS
330
BE69
102
}
330
18
100
AcDbEntity
  8
DRAW2
100
AcDbLine
 10
1188.621910619408
 20
58.86851058431648
 30
0.0
 11
1224.621910619408
 21
58.86851058431648
 31
0.0
  0
LINE
  5
BB50
330
18
100
AcDbEntity
  8
DRAW2
100
AcDbLine
 10
1174.621910619408
 20
63.86851058431648
 30
0.0
 11
1174.621910619408
 21
58.86851058431648
 31
0.0
  0
LINE
  5
BB51
330
18
100
AcDbEntity
  8
DRAW2
100
AcDbLine
 10
1169.621910619408
 20
63.86851058431648
 30
0.0
 11
1169.621910619408
 21
58.86851058431648
 31
0.0
  0
LINE
  5
BB52
102
{ACAD_REACTORS
330
BE69
102
}
330
18
100
AcDbEntity
  8
DRAW2
100
AcDbLine
 10
1188.621910619408
 20
58.86851058431648
 30
0.0
 11
1188.621910619408
 21
56.32679112287269
 31
0.0
  0
LINE
  5
BB53
330
18
100
AcDbEntity
  8
DRAW2
100
AcDbLine
 10
1217.121925619408
 20
63.86848058431713
 30
0.0
 11
1217.121925619408
 21
83.86851058431716
 31
0.0
  0
LINE
  5
BB54
330
18
100
AcDbEntity
  8
DRAW2
100
AcDbLine
 10
1196.121895619408
 20
63.86848058431713
 30
0.0
 11
1196.121895619408
 21
83.86851058431716
 31
0.0
  0
LINE
  5
BB55
102
{ACAD_REACTORS
330
BE69
102
}
330
18
100
AcDbEntity
  8
DRAW2
100
AcDbLine
 10
1224.621910619408
 20
58.86851058431648
 30
0.0
 11
1224.621910619408
 21
56.32679112287269
 31
0.0
  0
LINE
  5
BB56
330
18
100
AcDbEntity
  8
DRAW2
100
AcDbLine
 10
1198.121895619408
 20
85.86848058431712
 30
0.0
 11
1215.121925619408
 21
85.86848058431712
 31
0.0
  0
LINE
  5
BB57
330
18
100
AcDbEntity
  8
DRAW2
100
AcDbLine
 10
1196.121895619408
 20
83.86845058431708
 30
0.0
 11
1217.121925619408
 21
83.86845058431708
 31
0.0
  0
LINE
  5
BB58
330
18
100
AcDbEntity
  8
DRAW2
100
AcDbLine
 10
1196.121865619408
 20
83.86842058431716
 30
0.0
 11
1198.121865619408
 21
85.86842058431717
 31
0.0
  0
LINE
  5
BB59
330
18
100
AcDbEntity
  8
DRAW2
100
AcDbLine
 10
1215.121805619408
 20
85.86848058431712
 30
0.0
 11
1217.121805619408
 21
83.86848058431713
 31
0.0
  0
LINE
  5
BB5A
330
18
100
AcDbEntity
  8
DRAW2
100
AcDbLine
 10
1177.621910619408
 20
146.3152601669576
 30
0.0
 11
1177.621910619408
 21
122.868510584317
 31
0.0
  0
LINE
  5
BB5B
330
18
100
AcDbEntity
  8
DRAW2
100
AcDbLine
 10
1178.621910619408
 20
123.868510584317
 30
0.0
 11
1177.621910619408
 21
122.868510584317
 31
0.0
  0
LINE
  5
BB5C
330
18
100
AcDbEntity
  8
DRAW2
100
AcDbLine
 10
1152.621910619408
 20
211.368510584317
 30
0.0
 11
1178.621910619408
 21
211.368510584317
 31
0.0
  0
LINE
  5
BB5D
330
18
100
AcDbEntity
  8
DRAW2
100
AcDbLine
 10
1152.621910619408
 20
206.368510584317
 30
0.0
 11
1178.621910619408
 21
206.368510584317
 31
0.0
  0
LINE
  5
BB5F
330
18
100
AcDbEntity
  8
DRAW2
100
AcDbLine
 10
1131.413706686908
 20
194.8685105843176
 30
0.0
 11
1127.814146555363
 21
194.8685105843176
 31
0.0
  0
LINE
  5
BB60
330
18
100
AcDbEntity
  8
DRAW2
100
AcDbLine
 10
1131.413706686908
 20
190.8685105843176
 30
0.0
 11
1127.814146555363
 21
190.8685105843176
 31
0.0
  0
LINE
  5
BB62
330
18
100
AcDbEntity
  8
DRAW2
100
AcDbLine
 10
1121.222931133841
 20
160.4316960730385
 30
0.0
 11
1131.020890104974
 21
160.4316960730385
 31
0.0
  0
LINE
  5
BB63
330
18
100
AcDbEntity
  8
DRAW2
100
AcDbLine
 10
1121.222931133841
 20
161.8459096354116
 30
0.0
 11
1131.020890104974
 21
161.8459096354116
 31
0.0
  0
CIRCLE
  5
BB64
330
18
100
AcDbEntity
  8
DRAW2
100
AcDbCircle
 10
1138.121910619408
 20
192.8685105843171
 30
0.0
 40
10.5
  0
CIRCLE
  5
BB65
330
18
100
AcDbEntity
  8
DRAW2
100
AcDbCircle
 10
1138.121910619408
 20
192.8685105843171
 30
0.0
 40
11.0
  0
LINE
  5
BB67
330
18
100
AcDbEntity
  8
DRAW2
100
AcDbLine
 10
1101.121910619408
 20
162.135691927352
 30
0.0
 11
1101.121910619408
 21
161.1388028542249
 31
0.0
  0
LINE
  5
BB68
330
18
100
AcDbEntity
  8
DRAW2
100
AcDbLine
 10
1111.121910619408
 20
162.135691927352
 30
0.0
 11
1111.121910619408
 21
161.1388028542249
 31
0.0
  0
LINE
  5
BB69
330
18
100
AcDbEntity
  8
DRAW2
100
AcDbLine
 10
1111.020890104974
 20
161.8459096354116
 30
0.0
 11
1101.222931133841
 21
161.8459096354116
 31
0.0
  0
LINE
  5
BB6A
330
18
100
AcDbEntity
  8
DRAW2
100
AcDbLine
 10
1111.020890104974
 20
160.4316960730385
 30
0.0
 11
1101.222931133841
 21
160.4316960730385
 31
0.0
  0
LINE
  5
BB6B
330
18
100
AcDbEntity
  8
DRAW2
100
AcDbLine
 10
1121.121910619408
 20
162.135691927352
 30
0.0
 11
1121.121910619408
 21
161.1388028542249
 31
0.0
  0
LINE
  5
BB6C
330
18
100
AcDbEntity
  8
DRAW2
100
AcDbLine
 10
1100.830114551907
 20
194.8685105843176
 30
0.0
 11
1104.429674683452
 21
194.8685105843176
 31
0.0
  0
LINE
  5
BB6D
330
18
100
AcDbEntity
  8
DRAW2
100
AcDbLine
 10
1100.830114551907
 20
190.8685105843176
 30
0.0
 11
1104.429674683452
 21
190.8685105843176
 31
0.0
  0
LINE
  5
BB6F
330
18
100
AcDbEntity
  8
DRAW2
100
AcDbLine
 10
1131.121910619408
 20
162.135691927352
 30
0.0
 11
1131.121910619408
 21
161.1388028542249
 31
0.0
  0
LINE
  5
BB70
330
18
100
AcDbEntity
  8
DRAW2
100
AcDbLine
 10
1144.830114551907
 20
194.8685105843176
 30
0.0
 11
1148.429674683452
 21
194.8685105843176
 31
0.0
  0
LINE
  5
BB71
330
18
100
AcDbEntity
  8
DRAW2
100
AcDbLine
 10
1144.830114551907
 20
190.8685105843176
 30
0.0
 11
1148.429674683452
 21
190.8685105843176
 31
0.0
  0
CIRCLE
  5
BB72
330
18
100
AcDbEntity
  8
DRAW2
100
AcDbCircle
 10
1138.121910619408
 20
192.8685105843171
 30
0.0
 40
7.0
  0
CIRCLE
  5
BB73
330
18
100
AcDbEntity
  8
DRAW3
100
AcDbCircle
 10
1138.121910619408
 20
192.8685105843171
 30
0.0
 40
6.578500006249994
  0
CIRCLE
  5
BB74
330
18
100
AcDbEntity
  8
DRAW2
100
AcDbCircle
 10
1138.121910619408
 20
192.8685105843171
 30
0.0
 40
5.694887103024191
  0
CIRCLE
  5
BB75
330
18
100
AcDbEntity
  8
DRAW2
100
AcDbCircle
 10
1138.121910619408
 20
192.8685105843171
 30
0.0
 40
2.5
  0
LINE
  5
BB76
330
18
100
AcDbEntity
  8
DRAW2
100
AcDbLine
 10
1099.569351736789
 20
231.8422311426882
 30
0.0
 11
1099.569351736789
 21
234.3422311426881
 31
0.0
  0
LINE
  5
BB77
330
18
100
AcDbEntity
  8
DRAW2
100
AcDbLine
 10
1099.569351736789
 20
231.8422311426882
 30
0.0
 11
1097.069351736789
 21
230.5922311426882
 31
0.0
  0
LINE
  5
BB78
330
18
100
AcDbEntity
  8
DRAW2
100
AcDbLine
 10
1119.438535410501
 20
245.1335105843171
 30
0.0
 11
1112.805285829791
 21
245.1335105843171
 31
0.0
  0
LINE
  5
BB79
330
18
100
AcDbEntity
  8
DRAW2
100
AcDbLine
 10
1119.438535410501
 20
248.1335105843171
 30
0.0
 11
1112.805285829791
 21
248.1335105843171
 31
0.0
  0
LINE
  5
BB7A
330
18
100
AcDbEntity
  8
DRAW2
100
AcDbLine
 10
1110.138677728033
 20
252.0316078983527
 30
0.0
 11
1116.121910620146
 21
249.1895660164851
 31
0.0
  0
LINE
  5
BB7B
330
18
100
AcDbEntity
  8
DRAW2
100
AcDbLine
 10
1110.138677728033
 20
254.8889907303724
 30
0.0
 11
1116.121910620146
 21
252.0469488485049
 31
0.0
  0
LINE
  5
BB7C
330
18
100
AcDbEntity
  8
DRAW2
100
AcDbLine
 10
1111.121910620145
 20
249.5913562799704
 30
0.0
 11
1111.121910620145
 21
246.5913562799704
 31
0.0
  0
LINE
  5
BB7D
330
18
100
AcDbEntity
  8
DRAW2
100
AcDbLine
 10
1111.121910620145
 20
246.5913562799704
 30
0.0
 11
1112.805285829791
 21
245.1335105843172
 31
0.0
  0
LINE
  5
BB7E
330
18
100
AcDbEntity
  8
DRAW2
100
AcDbLine
 10
1111.121910620145
 20
249.5913562799704
 30
0.0
 11
1112.805285829791
 21
248.1335105843172
 31
0.0
  0
LINE
  5
BB7F
330
18
100
AcDbEntity
  8
DRAW2
100
AcDbLine
 10
1112.805285829791
 20
245.1335105843171
 30
0.0
 11
1112.805285829791
 21
248.1335105843171
 31
0.0
  0
LINE
  5
BB80
330
18
100
AcDbEntity
  8
DRAW2
100
AcDbLine
 10
1111.121910620145
 20
251.5645712461947
 30
0.0
 11
1111.121910620145
 21
249.5913562799705
 31
0.0
  0
LINE
  5
BB81
330
18
100
AcDbEntity
  8
DRAW2
100
AcDbLine
 10
1110.138677728033
 20
254.8889907303724
 30
0.0
 11
1110.138677728033
 21
252.0316078983527
 31
0.0
  0
LINE
  5
BB82
330
18
100
AcDbEntity
  8
DRAW2
100
AcDbLine
 10
1097.069351736789
 20
235.5922311426882
 30
0.0
 11
1099.569351736789
 21
234.3422311426881
 31
0.0
  0
LINE
  5
BB83
330
18
100
AcDbEntity
  8
DRAW2
100
AcDbLine
 10
1121.121910620146
 20
249.5913562799705
 30
0.0
 11
1121.121910620146
 21
246.5913562799704
 31
0.0
  0
LINE
  5
BB84
330
18
100
AcDbEntity
  8
DRAW2
100
AcDbLine
 10
1119.438535410501
 20
245.1335105843172
 30
0.0
 11
1121.121910620146
 21
246.5913562799704
 31
0.0
  0
LINE
  5
BB85
330
18
100
AcDbEntity
  8
DRAW2
100
AcDbLine
 10
1119.438535410501
 20
248.1335105843172
 30
0.0
 11
1121.121910620146
 21
249.5913562799704
 31
0.0
  0
LINE
  5
BB86
330
18
100
AcDbEntity
  8
DRAW2
100
AcDbLine
 10
1119.438535410501
 20
248.1335105843171
 30
0.0
 11
1119.438535410501
 21
245.1335105843171
 31
0.0
  0
LINE
  5
BB87
330
18
100
AcDbEntity
  8
DRAW2
100
AcDbLine
 10
1121.121910620146
 20
251.5645712461947
 30
0.0
 11
1121.121910620146
 21
249.5913562799705
 31
0.0
  0
LINE
  5
BB88
330
18
100
AcDbEntity
  8
DRAW2
100
AcDbLine
 10
1122.105143512258
 20
254.8889907303724
 30
0.0
 11
1122.105143512258
 21
252.0316078983527
 31
0.0
  0
LINE
  5
BB89
330
18
100
AcDbEntity
  8
DRAW2
100
AcDbLine
 10
1116.121910620146
 20
252.0469488485049
 30
0.0
 11
1116.121910620146
 21
249.1895660164851
 31
0.0
  0
LINE
  5
BB8A
330
18
100
AcDbEntity
  8
DRAW2
100
AcDbLine
 10
1116.121910620146
 20
249.1895660164851
 30
0.0
 11
1122.105143512258
 21
252.0316078983527
 31
0.0
  0
LINE
  5
BB8B
330
18
100
AcDbEntity
  8
DRAW2
100
AcDbLine
 10
1116.121910620146
 20
252.0469488485049
 30
0.0
 11
1122.105143512258
 21
254.8889907303724
 31
0.0
  0
LINE
  5
BB8C
330
18
100
AcDbEntity
  8
DRAW2
100
AcDbLine
 10
1137.674469503305
 20
231.8422311426882
 30
0.0
 11
1137.674469503305
 21
234.3422311426881
 31
0.0
  0
LINE
  5
BB8D
330
18
100
AcDbEntity
  8
DRAW2
100
AcDbLine
 10
1132.674469503305
 20
231.8422311426882
 30
0.0
 11
1132.674469503305
 21
234.3422311426881
 31
0.0
  0
LINE
  5
BB8E
330
18
100
AcDbEntity
  8
DRAW2
100
AcDbLine
 10
1135.174469503305
 20
230.5922311426882
 30
0.0
 11
1137.674469503305
 21
231.8422311426882
 31
0.0
  0
LINE
  5
BB8F
330
18
100
AcDbEntity
  8
DRAW2
100
AcDbLine
 10
1132.674469503305
 20
231.8422311426882
 30
0.0
 11
1135.174469503305
 21
230.5922311426882
 31
0.0
  0
LINE
  5
BB90
330
18
100
AcDbEntity
  8
DRAW2
100
AcDbLine
 10
1137.674469503305
 20
234.3422311426881
 30
0.0
 11
1135.174469503305
 21
235.5922311426882
 31
0.0
  0
LINE
  5
BB91
330
18
100
AcDbEntity
  8
DRAW2
100
AcDbLine
 10
1135.174469503305
 20
235.5922311426882
 30
0.0
 11
1132.674469503305
 21
234.3422311426881
 31
0.0
  0
LINE
  5
BB92
330
18
100
AcDbEntity
  8
DRAW2
100
AcDbLine
 10
1145.121910620048
 20
239.3447690537777
 30
0.0
 11
1145.121910620048
 21
241.6185105843171
 31
0.0
  0
LINE
  5
BB93
102
{ACAD_REACTORS
330
BE6B
102
}
330
18
100
AcDbEntity
  8
DRAW2
100
AcDbLine
 10
1301.621910619409
 20
136.3685105843165
 30
0.0
 11
1286.621910619409
 21
136.3685105843166
 31
0.0
  0
ARC
  5
BB95
102
{ACAD_REACTORS
330
BE6B
102
}
330
18
100
AcDbEntity
  8
DRAW2
100
AcDbCircle
 10
1236.621910619408
 20
108.8685105843165
 30
0.0
 40
2.0
100
AcDbArc
 50
180.0
 51
270.0
  0
LINE
  5
BB96
102
{ACAD_REACTORS
330
BE6B
102
}
330
18
100
AcDbEntity
  8
DRAW2
100
AcDbLine
 10
1234.621910619408
 20
108.8685105843165
 30
0.0
 11
1234.621910619408
 21
63.86851058431648
 31
0.0
  0
LINE
  5
BB97
102
{ACAD_REACTORS
330
BE6B
102
}
330
18
100
AcDbEntity
  8
DRAW2
100
AcDbLine
 10
1282.621910619408
 20
65.86851058431648
 30
0.0
 11
1236.621910619408
 21
65.86851058431648
 31
0.0
  0
LINE
  5
BB98
330
18
100
AcDbEntity
  8
DRAW2
100
AcDbLine
 10
1229.621910619408
 20
58.86851058431648
 30
0.0
 11
1229.621910619408
 21
63.86851058431648
 31
0.0
  0
ARC
  5
BB99
102
{ACAD_REACTORS
330
BE6B
102
}
330
18
100
AcDbEntity
  8
DRAW2
100
AcDbCircle
 10
1236.621910619408
 20
63.86851058431648
 30
0.0
 40
2.0
100
AcDbArc
 50
90.0
 51
180.0
  0
LINE
  5
BB9A
330
18
100
AcDbEntity
  8
DRAW2
100
AcDbLine
 10
1234.621910619408
 20
58.86851058431648
 30
0.0
 11
1234.621910619408
 21
63.86851058431648
 31
0.0
  0
LINE
  5
BB9B
102
{ACAD_REACTORS
330
BE6B
102
}
330
18
100
AcDbEntity
  8
DRAW2
100
AcDbLine
 10
1284.621910619408
 20
86.36851058431654
 30
0.0
 11
1282.621910619408
 21
86.36851058431664
 31
0.0
  0
LINE
  5
BB9C
102
{ACAD_REACTORS
330
BE6B
102
}
330
18
100
AcDbEntity
  8
DRAW2
100
AcDbLine
 10
1282.621910619408
 20
106.8685105843165
 30
0.0
 11
1236.621910619408
 21
106.8685105843165
 31
0.0
  0
LINE
  5
BB9D
330
18
100
AcDbEntity
  8
DRAW2
100
AcDbLine
 10
1239.621910619408
 20
112.7300718210103
 30
0.0
 11
1264.621910619408
 21
112.7300718210103
 31
0.0
  0
LINE
  5
BB9E
330
18
100
AcDbEntity
  8
DRAW2
100
AcDbLine
 10
1264.621910619408
 20
138.7300718210103
 30
0.0
 11
1239.621910619408
 21
138.7300718210103
 31
0.0
  0
LINE
  5
BB9F
330
18
100
AcDbEntity
  8
DRAW2
100
AcDbLine
 10
1239.621910619408
 20
109.8685105843164
 30
0.0
 11
1234.621910619408
 21
109.8685105843164
 31
0.0
  0
LINE
  5
BBA0
330
18
100
AcDbEntity
  8
DRAW2
100
AcDbLine
 10
1264.621910619408
 20
112.7300718210103
 30
0.0
 11
1264.621910619408
 21
138.7300718210103
 31
0.0
  0
LINE
  5
BBA1
330
18
100
AcDbEntity
  8
DRAW2
100
AcDbLine
 10
1266.621910619408
 20
114.7300718210103
 30
0.0
 11
1266.621910619408
 21
136.7300718210103
 31
0.0
  0
LINE
  5
BBA2
330
18
100
AcDbEntity
  8
DRAW2
100
AcDbLine
 10
1266.621910619408
 20
114.7300718210103
 30
0.0
 11
1264.621910619408
 21
112.7300718210103
 31
0.0
  0
LINE
  5
BBA3
330
18
100
AcDbEntity
  8
DRAW2
100
AcDbLine
 10
1266.621910619408
 20
136.7300718210103
 30
0.0
 11
1264.621910619408
 21
138.7300718210103
 31
0.0
  0
LINE
  5
BBA4
102
{ACAD_REACTORS
330
BE6B
102
}
330
18
100
AcDbEntity
  8
DRAW2
100
AcDbLine
 10
1286.621910619408
 20
135.3685105843165
 30
0.0
 11
1282.621910619408
 21
135.3685105843165
 31
0.0
  0
LINE
  5
BBA5
330
18
100
AcDbEntity
  8
DRAW2
100
AcDbLine
 10
1266.621910619408
 20
197.8685105843164
 30
0.0
 11
1266.621910619408
 21
219.8685105843164
 31
0.0
  0
LINE
  5
BBA6
330
18
100
AcDbEntity
  8
DRAW2
100
AcDbLine
 10
1264.621910619408
 20
195.8685105843164
 30
0.0
 11
1264.621910619408
 21
221.8685105843164
 31
0.0
  0
LINE
  5
BBA7
330
18
100
AcDbEntity
  8
DRAW2
100
AcDbLine
 10
1239.621910619408
 20
195.8685105843164
 30
0.0
 11
1264.621910619408
 21
195.8685105843164
 31
0.0
  0
LINE
  5
BBA8
330
18
100
AcDbEntity
  8
DRAW2
100
AcDbLine
 10
1266.621910619408
 20
197.8685105843164
 30
0.0
 11
1264.621910619408
 21
195.8685105843164
 31
0.0
  0
LINE
  5
BBA9
330
18
100
AcDbEntity
  8
DRAW2
100
AcDbLine
 10
1264.621910619408
 20
221.8685105843164
 30
0.0
 11
1239.621910619408
 21
221.8685105843164
 31
0.0
  0
LINE
  5
BBAD
330
18
100
AcDbEntity
  8
DRAW2
100
AcDbLine
 10
1266.621910619408
 20
219.8685105843164
 30
0.0
 11
1264.621910619408
 21
221.8685105843164
 31
0.0
  0
LINE
  5
BBAE
102
{ACAD_REACTORS
330
BE6B
102
}
330
18
100
AcDbEntity
  8
DRAW2
100
AcDbLine
 10
1234.621910619408
 20
308.8685105843164
 30
0.0
 11
1169.621910619408
 21
308.8685105843164
 31
0.0
  0
LINE
  5
BBAF
102
{ACAD_REACTORS
330
BE6B
102
}
330
18
100
AcDbEntity
  8
DRAW2
100
AcDbLine
 10
1234.621910619408
 20
353.8685105843164
 30
0.0
 11
1169.621910619408
 21
353.8685105843164
 31
0.0
  0
LINE
  5
BBB0
330
18
100
AcDbEntity
  8
DRAW2
100
AcDbLine
 10
1234.621910619408
 20
353.8685105843164
 30
0.0
 11
1169.621910619408
 21
353.8685105843164
 31
0.0
  0
LINE
  5
BBB1
330
18
100
AcDbEntity
  8
DRAW2
100
AcDbLine
 10
1169.621910619408
 20
358.8685105843164
 30
0.0
 11
1234.621910619408
 21
358.8685105843164
 31
0.0
  0
LINE
  5
BBB2
330
18
100
AcDbEntity
  8
DRAW2
100
AcDbLine
 10
1214.621910619408
 20
375.8685105843164
 30
0.0
 11
1214.621910619408
 21
358.8685105843164
 31
0.0
  0
LINE
  5
BBB3
330
18
100
AcDbEntity
  8
DRAW2
100
AcDbLine
 10
1198.621910619408
 20
358.8685105843164
 30
0.0
 11
1198.621910619408
 21
375.8685105843164
 31
0.0
  0
LINE
  5
BBB4
330
18
100
AcDbEntity
  8
DRAW2
100
AcDbLine
 10
1152.621910619408
 20
271.4217610016753
 30
0.0
 11
1178.621910619408
 21
271.4217610016753
 31
0.0
  0
LINE
  5
BBB5
330
18
100
AcDbEntity
  8
DRAW2
100
AcDbLine
 10
1152.621910619408
 20
267.8862270957425
 30
0.0
 11
1178.621910619408
 21
267.8862270957425
 31
0.0
  0
LINE
  5
BBB6
330
18
100
AcDbEntity
  8
DRAW2
100
AcDbLine
 10
1154.621910619408
 20
294.8685105843159
 30
0.0
 11
1177.621910619408
 21
294.8685105843159
 31
0.0
  0
LINE
  5
BBB7
330
18
100
AcDbEntity
  8
DRAW2
100
AcDbLine
 10
1119.121923785362
 20
276.3685105843163
 30
0.0
 11
1152.621910619408
 21
276.3685105843165
 31
0.0
  0
LINE
  5
BBB8
330
18
100
AcDbEntity
  8
DRAW2
100
AcDbLine
 10
1113.121910620146
 20
259.8334771032396
 30
0.0
 11
1113.121910620146
 21
284.7323822770874
 31
0.0
  0
LINE
  5
BBB9
330
18
100
AcDbEntity
  8
DRAW2
100
AcDbLine
 10
1110.138677728033
 20
260.7779634761066
 30
0.0
 11
1110.621756093943
 21
261.0354069021354
 31
0.0
  0
LINE
  5
BBBA
330
18
100
AcDbEntity
  8
DRAW2
100
AcDbLine
 10
1119.121910620145
 20
259.8334771032396
 30
0.0
 11
1119.121910620145
 21
284.4536916990488
 31
0.0
  0
LINE
  5
BBBB
330
18
100
AcDbEntity
  8
DRAW2
100
AcDbLine
 10
1121.622065146348
 20
261.0354069021356
 30
0.0
 11
1122.105143512258
 21
260.7779634761066
 31
0.0
  0
LINE
  5
BBBC
330
18
100
AcDbEntity
  8
DRAW2
100
AcDbLine
 10
1154.621910619408
 20
294.8685105843159
 30
0.0
 11
1154.621910619408
 21
271.4217610016753
 31
0.0
  0
LINE
  5
BBBD
330
18
100
AcDbEntity
  8
DRAW2
100
AcDbLine
 10
1152.621910619408
 20
292.8685105843159
 30
0.0
 11
1154.621910619408
 21
294.8685105843159
 31
0.0
  0
LINE
  5
BBBF
102
{ACAD_REACTORS
330
BE6B
102
}
330
18
100
AcDbEntity
  8
DRAW2
100
AcDbLine
 10
1169.621910619408
 20
353.8685105843164
 30
0.0
 11
1169.621910619408
 21
308.8685105843164
 31
0.0
  0
LINE
  5
BBC0
330
18
100
AcDbEntity
  8
DRAW2
100
AcDbLine
 10
1177.621910619408
 20
271.4217610016753
 30
0.0
 11
1177.621910619408
 21
294.8685105843159
 31
0.0
  0
LINE
  5
BBC1
330
18
100
AcDbEntity
  8
DRAW2
100
AcDbLine
 10
1178.621910619408
 20
293.8685105843159
 30
0.0
 11
1177.621910619408
 21
294.8685105843159
 31
0.0
  0
LINE
  5
BBC2
330
18
100
AcDbEntity
  8
DRAW2
100
AcDbLine
 10
1169.621910619408
 20
353.8685105843164
 30
0.0
 11
1169.621910619408
 21
358.8685105843164
 31
0.0
  0
LINE
  5
BBC6
330
18
100
AcDbEntity
  8
DRAW2
100
AcDbLine
 10
1198.621910619408
 20
375.8685105843164
 30
0.0
 11
1214.621910619408
 21
375.8685105843164
 31
0.0
  0
LINE
  5
BBC7
330
18
100
AcDbEntity
  8
DRAW2
100
AcDbLine
 10
1200.621910619408
 20
377.8685105843164
 30
0.0
 11
1212.621910619408
 21
377.8685105843164
 31
0.0
  0
LINE
  5
BBC8
330
18
100
AcDbEntity
  8
DRAW2
100
AcDbLine
 10
1200.621910619408
 20
377.8685105843164
 30
0.0
 11
1198.621910619408
 21
375.8685105843164
 31
0.0
  0
LINE
  5
BBC9
330
18
100
AcDbEntity
  8
DRAW2
100
AcDbLine
 10
1212.621910619408
 20
377.8685105843164
 30
0.0
 11
1214.621910619408
 21
375.8685105843164
 31
0.0
  0
LINE
  5
BBCA
102
{ACAD_REACTORS
330
BE6B
102
}
330
18
100
AcDbEntity
  8
DRAW2
100
AcDbLine
 10
1284.621910619408
 20
282.3685105843165
 30
0.0
 11
1284.621910619408
 21
380.3685105843165
 31
0.0
  0
LINE
  5
BBCB
102
{ACAD_REACTORS
330
BE6B
102
}
330
18
100
AcDbEntity
  8
DRAW2
100
AcDbLine
 10
1282.621910619408
 20
380.3685105843165
 30
0.0
 11
1282.621910619408
 21
282.3685105843165
 31
0.0
  0
LINE
  5
BBCC
102
{ACAD_REACTORS
330
BE6B
102
}
330
18
100
AcDbEntity
  8
DRAW2
100
AcDbLine
 10
1301.621910619409
 20
381.3685105843164
 30
0.0
 11
1301.621910619408
 21
281.3685105843165
 31
0.0
  0
LINE
  5
BBCD
102
{ACAD_REACTORS
330
BE6B
102
}
330
18
100
AcDbEntity
  8
DRAW2
100
AcDbLine
 10
1286.621910619409
 20
381.3685105843167
 30
0.0
 11
1286.621910619407
 21
281.3685105843165
 31
0.0
  0
LINE
  5
BBCE
102
{ACAD_REACTORS
330
BE6B
102
}
330
18
100
AcDbEntity
  8
DRAW2
100
AcDbLine
 10
1301.621910619408
 20
281.3685105843165
 30
0.0
 11
1286.621910619407
 21
281.3685105843165
 31
0.0
  0
ARC
  5
BBD0
102
{ACAD_REACTORS
330
BE6B
102
}
330
18
100
AcDbEntity
  8
DRAW2
100
AcDbCircle
 10
1236.621910619408
 20
308.8685105843164
 30
0.0
 40
2.0
100
AcDbArc
 50
90.0
 51
180.0
  0
LINE
  5
BBD1
102
{ACAD_REACTORS
330
BE6B
102
}
330
18
100
AcDbEntity
  8
DRAW2
100
AcDbLine
 10
1234.621910619408
 20
353.8685105843164
 30
0.0
 11
1234.621910619408
 21
308.8685105843164
 31
0.0
  0
LINE
  5
BBD2
330
18
100
AcDbEntity
  8
DRAW2
100
AcDbLine
 10
1264.621910619408
 20
279.0069493476226
 30
0.0
 11
1239.621910619408
 21
279.0069493476226
 31
0.0
  0
LINE
  5
BBD3
330
18
100
AcDbEntity
  8
DRAW2
100
AcDbLine
 10
1239.621910619408
 20
305.0069493476225
 30
0.0
 11
1264.621910619408
 21
305.0069493476225
 31
0.0
  0
LINE
  5
BBD4
330
18
100
AcDbEntity
  8
DRAW2
100
AcDbLine
 10
1234.621910619408
 20
307.8685105843165
 30
0.0
 11
1239.621910619408
 21
307.8685105843165
 31
0.0
  0
LINE
  5
BBD5
330
18
100
AcDbEntity
  8
DRAW2
100
AcDbLine
 10
1264.621910619408
 20
279.0069493476226
 30
0.0
 11
1264.621910619408
 21
305.0069493476225
 31
0.0
  0
LINE
  5
BBD6
330
18
100
AcDbEntity
  8
DRAW2
100
AcDbLine
 10
1266.621910619408
 20
303.0069493476226
 30
0.0
 11
1266.621910619408
 21
281.0069493476225
 31
0.0
  0
LINE
  5
BBD7
330
18
100
AcDbEntity
  8
DRAW2
100
AcDbLine
 10
1266.621910619408
 20
281.0069493476225
 30
0.0
 11
1264.621910619408
 21
279.0069493476226
 31
0.0
  0
LINE
  5
BBD8
102
{ACAD_REACTORS
330
BE6B
102
}
330
18
100
AcDbEntity
  8
DRAW2
100
AcDbLine
 10
1286.621910619408
 20
282.3685105843165
 30
0.0
 11
1282.621910619408
 21
282.3685105843165
 31
0.0
  0
LINE
  5
BBD9
330
18
100
AcDbEntity
  8
DRAW2
100
AcDbLine
 10
1266.621910619408
 20
303.0069493476226
 30
0.0
 11
1264.621910619408
 21
305.0069493476225
 31
0.0
  0
LINE
  5
BBDA
102
{ACAD_REACTORS
330
BE6B
102
}
330
18
100
AcDbEntity
  8
DRAW2
100
AcDbLine
 10
1282.621910619408
 20
351.8685105843164
 30
0.0
 11
1236.621910619408
 21
351.8685105843164
 31
0.0
  0
LINE
  5
BBDB
102
{ACAD_REACTORS
330
BE6B
102
}
330
18
100
AcDbEntity
  8
DRAW2
100
AcDbLine
 10
1282.621910619408
 20
310.8685105843164
 30
0.0
 11
1236.621910619408
 21
310.8685105843164
 31
0.0
  0
ARC
  5
BBDC
102
{ACAD_REACTORS
330
BE6B
102
}
330
18
100
AcDbEntity
  8
DRAW2
100
AcDbCircle
 10
1236.621910619408
 20
353.8685105843164
 30
0.0
 40
2.0
100
AcDbArc
 50
180.0
 51
270.0
  0
LINE
  5
BBDD
330
18
100
AcDbEntity
  8
DRAW2
100
AcDbLine
 10
1234.621910619408
 20
358.8685105843164
 30
0.0
 11
1234.621910619408
 21
353.8685105843164
 31
0.0
  0
LINE
  5
BBDE
102
{ACAD_REACTORS
330
BE6B
102
}
330
18
100
AcDbEntity
  8
DRAW2
100
AcDbLine
 10
1284.621910619408
 20
331.3685105843164
 30
0.0
 11
1282.621910619408
 21
331.3685105843167
 31
0.0
  0
LINE
  5
BBDF
102
{ACAD_REACTORS
330
BE6B
102
}
330
18
100
AcDbEntity
  8
DRAW2
100
AcDbLine
 10
1301.621910619409
 20
381.3685105843164
 30
0.0
 11
1286.621910619409
 21
381.3685105843167
 31
0.0
  0
LINE
  5
BBE1
102
{ACAD_REACTORS
330
BE6B
102
}
330
18
100
AcDbEntity
  8
DRAW2
100
AcDbLine
 10
1286.621910619408
 20
380.3685105843165
 30
0.0
 11
1282.621910619408
 21
380.3685105843165
 31
0.0
  0
LINE
  5
BBE2
330
18
100
AcDbEntity
  8
DRAW2
100
AcDbLine
 10
1104.621910619407
 20
505.0367385301158
 30
0.0
 11
1083.621910619408
 21
505.0367385301158
 31
0.0
  0
LINE
  5
BBE3
330
18
100
AcDbEntity
  8
DRAW2
100
AcDbLine
 10
1094.56935173615
 20
527.3483357381792
 30
0.0
 11
1097.06935173615
 21
526.6266479016922
 31
0.0
  0
LINE
  5
BBE4
330
18
100
AcDbEntity
  8
DRAW2
100
AcDbLine
 10
1094.56935173615
 20
528.7917114111532
 30
0.0
 11
1097.06935173615
 21
529.5133992476403
 31
0.0
  0
LINE
  5
BBE6
330
18
100
AcDbEntity
  8
DRAW2
100
AcDbLine
 10
1062.621910619408
 20
609.2767383301159
 30
0.0
 11
1169.621910619408
 21
609.2767383301159
 31
0.0
  0
LINE
  5
BBE7
330
18
100
AcDbEntity
  8
DRAW2
100
AcDbLine
 10
1062.621910619408
 20
574.776738330116
 30
0.0
 11
1169.621910619408
 21
574.776738330116
 31
0.0
  0
LINE
  5
BBE8
330
18
100
AcDbEntity
  8
DRAW2
100
AcDbLine
 10
1079.621910619408
 20
659.5267383301159
 30
0.0
 11
1152.621910619408
 21
659.5267383301159
 31
0.0
  0
LINE
  5
BBE9
330
18
100
AcDbEntity
  8
DRAW2
100
AcDbLine
 10
1053.121910619408
 20
540.0267383301154
 30
0.0
 11
1179.121910619408
 21
540.0267383301154
 31
0.0
  0
LINE
  5
BBEA
330
18
100
AcDbEntity
  8
DRAW2
100
AcDbLine
 10
1062.621910619408
 20
550.0267383301158
 30
0.0
 11
1169.621910619408
 21
550.0267383301158
 31
0.0
  0
LINE
  5
BBEC
330
18
100
AcDbEntity
  8
DRAW2
100
AcDbLine
 10
1053.121910619408
 20
691.0267383301158
 30
0.0
 11
1179.121910619408
 21
691.026738330116
 31
0.0
  0
LINE
  5
BBED
330
18
100
AcDbEntity
  8
DRAW2
100
AcDbLine
 10
1053.121910619408
 20
681.0267383301154
 30
0.0
 11
1179.121910619408
 21
681.0267383301154
 31
0.0
  0
LINE
  5
BBEF
330
18
100
AcDbEntity
  8
DRAW2
100
AcDbLine
 10
992.6219106194084
 20
701.0267383301159
 30
0.0
 11
992.6219106194084
 21
483.0267383301158
 31
0.0
  0
LINE
  5
BBF0
330
18
100
AcDbEntity
  8
DRAW2
100
AcDbLine
 10
997.6219106194085
 20
701.0267383301159
 30
0.0
 11
997.6219106194085
 21
483.0267383301158
 31
0.0
  0
LINE
  5
BBF1
330
18
100
AcDbEntity
  8
DRAW2
100
AcDbLine
 10
1054.621910619408
 20
678.0267383301159
 30
0.0
 11
1054.621910619408
 21
654.5799887474731
 31
0.0
  0
LINE
  5
BBF2
330
18
100
AcDbEntity
  8
DRAW2
100
AcDbLine
 10
1053.621910619408
 20
677.026738330116
 30
0.0
 11
1053.621910619408
 21
639.0267383301159
 31
0.0
  0
LINE
  5
BBF3
330
18
100
AcDbEntity
  8
DRAW2
100
AcDbLine
 10
1077.621910619408
 20
654.5799887474731
 30
0.0
 11
1077.621910619408
 21
678.0267383301159
 31
0.0
  0
LINE
  5
BBF4
330
18
100
AcDbEntity
  8
DRAW2
100
AcDbLine
 10
1079.621910619408
 20
609.2767383301159
 30
0.0
 11
1079.621910619408
 21
676.026738330116
 31
0.0
  0
LINE
  5
BBF6
330
18
100
AcDbEntity
  8
DRAW2
100
AcDbLine
 10
997.6219106194085
 20
701.0267383301157
 30
0.0
 11
997.6219106194085
 21
483.026738330116
 31
0.0
  0
LINE
  5
BBF7
330
18
100
AcDbEntity
  8
DRAW2
100
AcDbLine
 10
1053.121910619408
 20
701.0267383301157
 30
0.0
 11
1053.121910619408
 21
639.0267383301157
 31
0.0
  0
LINE
  5
BBFA
330
18
100
AcDbEntity
  8
DRAW2
100
AcDbLine
 10
1062.621910619408
 20
633.0267383301158
 30
0.0
 11
1062.621910619408
 21
551.0267383301159
 31
0.0
  0
LINE
  5
BBFB
330
18
100
AcDbEntity
  8
DRAW2
100
AcDbLine
 10
997.6219106194085
 20
633.0267383301158
 30
0.0
 11
997.6219106194085
 21
551.0267383301159
 31
0.0
  0
LINE
  5
BBFC
330
18
100
AcDbEntity
  8
DRAW2
100
AcDbLine
 10
1062.621910619408
 20
639.0267383301159
 30
0.0
 11
1062.621910619408
 21
545.0267383301159
 31
0.0
  0
LINE
  5
BBFD
330
18
100
AcDbEntity
  8
DRAW2
100
AcDbLine
 10
997.6219106194085
 20
639.0267383301159
 30
0.0
 11
997.6219106194085
 21
545.0267383301159
 31
0.0
  0
CIRCLE
  5
BBFE
330
18
100
AcDbEntity
  8
DRAW2
100
AcDbCircle
 10
1025.621910619408
 20
562.0267383301158
 30
0.0
 40
8.0
  0
CIRCLE
  5
BBFF
330
18
100
AcDbEntity
  8
DRAW2
100
AcDbCircle
 10
1025.621910619408
 20
562.0267383301158
 30
0.0
 40
6.0
  0
LINE
  5
BC00
330
18
100
AcDbEntity
  8
DRAW2
100
AcDbLine
 10
1079.621910619408
 20
574.776738330116
 30
0.0
 11
1079.621910619408
 21
550.0267383301158
 31
0.0
  0
LINE
  5
BC01
330
18
100
AcDbEntity
  8
DRAW2
100
AcDbLine
 10
1077.621910619408
 20
550.0267383301158
 30
0.0
 11
1077.621910619408
 21
574.776738330116
 31
0.0
  0
LINE
  5
BC03
330
18
100
AcDbEntity
  8
DRAW2
100
AcDbLine
 10
1062.621910619408
 20
551.0267383301159
 30
0.0
 11
997.6219106194085
 21
551.0267383301159
 31
0.0
  0
LINE
  5
BC04
330
18
100
AcDbEntity
  8
DRAW2
100
AcDbLine
 10
1062.621910619408
 20
550.7623469011855
 30
0.0
 11
997.6219106194085
 21
550.7623469011855
 31
0.0
  0
LINE
  5
BC05
330
18
100
AcDbEntity
  8
DRAW2
100
AcDbLine
 10
1062.621910619408
 20
545.0267383301159
 30
0.0
 11
997.6219106194085
 21
545.0267383301159
 31
0.0
  0
LINE
  5
BC06
330
18
100
AcDbEntity
  8
DRAW2
100
AcDbLine
 10
1053.121910619408
 20
483.0267383301158
 30
0.0
 11
997.6219106194085
 21
483.026738330116
 31
0.0
  0
LINE
  5
BC07
330
18
100
AcDbEntity
  8
DRAW2
100
AcDbLine
 10
992.6219106194084
 20
483.0267383301158
 30
0.0
 11
997.6219106194085
 21
483.0267383301158
 31
0.0
  0
LINE
  5
BC08
330
18
100
AcDbEntity
  8
DRAW2
100
AcDbLine
 10
965.6219106194084
 20
534.0267383301159
 30
0.0
 11
965.6219106194084
 21
556.0267383301159
 31
0.0
  0
LINE
  5
BC09
330
18
100
AcDbEntity
  8
DRAW2
100
AcDbLine
 10
967.6219106194084
 20
532.0267383301159
 30
0.0
 11
967.6219106194084
 21
558.0267383301158
 31
0.0
  0
LINE
  5
BC0A
330
18
100
AcDbEntity
  8
DRAW2
100
AcDbLine
 10
992.6219106194084
 20
532.0267383301159
 30
0.0
 11
967.6219106194084
 21
532.0267383301159
 31
0.0
  0
LINE
  5
BC0B
330
18
100
AcDbEntity
  8
DRAW2
100
AcDbLine
 10
965.6219106194084
 20
534.0267383301159
 30
0.0
 11
967.6219106194084
 21
532.0267383301159
 31
0.0
  0
LINE
  5
BC0C
330
18
100
AcDbEntity
  8
DRAW2
100
AcDbLine
 10
967.6219106194084
 20
558.0267383301158
 30
0.0
 11
992.6219106194084
 21
558.0267383301158
 31
0.0
  0
LINE
  5
BC0D
330
18
100
AcDbEntity
  8
DRAW2
100
AcDbLine
 10
965.6219106194084
 20
556.0267383301159
 30
0.0
 11
967.6219106194084
 21
558.0267383301158
 31
0.0
  0
LINE
  5
BC0E
330
18
100
AcDbEntity
  8
DRAW2
100
AcDbLine
 10
992.6219106194084
 20
546.4197213261504
 30
0.0
 11
997.6219106194085
 21
546.4197213261504
 31
0.0
  0
LINE
  5
BC0F
330
18
100
AcDbEntity
  8
DRAW2
100
AcDbLine
 10
1083.621910619408
 20
524.5267383301158
 30
0.0
 11
1083.621910619408
 21
505.0367385301158
 31
0.0
  0
LINE
  5
BC10
330
18
100
AcDbEntity
  8
DRAW2
100
AcDbLine
 10
1077.621910619408
 20
506.026738330116
 30
0.0
 11
1077.621910619408
 21
529.4734879127566
 31
0.0
  0
LINE
  5
BC11
330
18
100
AcDbEntity
  8
DRAW2
100
AcDbLine
 10
1079.621910619408
 20
540.0267383301154
 30
0.0
 11
1079.621910619408
 21
508.026738330116
 31
0.0
  0
LINE
  5
BC12
330
18
100
AcDbEntity
  8
DRAW2
100
AcDbLine
 10
1054.621910619408
 20
529.4734879127566
 30
0.0
 11
1054.621910619408
 21
506.026738330116
 31
0.0
  0
LINE
  5
BC13
330
18
100
AcDbEntity
  8
DRAW2
100
AcDbLine
 10
1053.621910619408
 20
507.026738330116
 30
0.0
 11
1053.621910619408
 21
540.0267383301154
 31
0.0
  0
LINE
  5
BC14
330
18
100
AcDbEntity
  8
DRAW2
100
AcDbLine
 10
1053.121910619408
 20
545.0267383301159
 30
0.0
 11
1053.121910619408
 21
483.0267383301158
 31
0.0
  0
LINE
  5
BC15
330
18
100
AcDbEntity
  8
DRAW2
100
AcDbLine
 10
1077.621910619408
 20
506.026738330116
 30
0.0
 11
1054.621910619408
 21
506.026738330116
 31
0.0
  0
LINE
  5
BC16
330
18
100
AcDbEntity
  8
DRAW2
100
AcDbLine
 10
1053.621910619408
 20
507.026738330116
 30
0.0
 11
1054.621910619408
 21
506.026738330116
 31
0.0
  0
LINE
  5
BC17
330
18
100
AcDbEntity
  8
DRAW2
100
AcDbLine
 10
1053.121910619408
 20
502.5267383301159
 30
0.0
 11
1056.621910619408
 21
506.026738330116
 31
0.0
  0
LINE
  5
BC18
330
18
100
AcDbEntity
  8
DRAW2
100
AcDbLine
 10
1079.621910619408
 20
508.026738330116
 30
0.0
 11
1077.621910619408
 21
506.026738330116
 31
0.0
  0
LINE
  5
BC19
330
18
100
AcDbEntity
  8
DRAW2
100
AcDbLine
 10
1079.621910619408
 20
529.4734879127566
 30
0.0
 11
1053.621910619408
 21
529.4734879127566
 31
0.0
  0
LINE
  5
BC1A
330
18
100
AcDbEntity
  8
DRAW2
100
AcDbLine
 10
1079.621910619408
 20
533.0090218186893
 30
0.0
 11
1053.621910619408
 21
533.0090218186893
 31
0.0
  0
LINE
  5
BC1B
330
18
100
AcDbEntity
  8
DRAW2
100
AcDbLine
 10
1054.621910619408
 20
540.0267383301154
 30
0.0
 11
1054.621910619408
 21
533.0090218186893
 31
0.0
  0
LINE
  5
BC1C
330
18
100
AcDbEntity
  8
DRAW2
100
AcDbLine
 10
1053.121910619408
 20
513.5267383301157
 30
0.0
 11
1053.621910619408
 21
513.5267383301159
 31
0.0
  0
LINE
  5
BC1D
330
18
100
AcDbEntity
  8
DRAW2
100
AcDbLine
 10
1087.121910619408
 20
535.3020743822348
 30
0.0
 11
1087.121910619408
 21
539.2400212509112
 31
0.0
  0
LINE
  5
BC1E
330
18
100
AcDbEntity
  8
DRAW2
100
AcDbLine
 10
1077.621910619408
 20
533.0090218186893
 30
0.0
 11
1077.621910619408
 21
540.0267383301154
 31
0.0
  0
LINE
  5
BC1F
330
18
100
AcDbEntity
  8
DRAW2
100
AcDbLine
 10
1096.075066280639
 20
524.5267383301158
 30
0.0
 11
1079.621910619408
 21
524.5267383301158
 31
0.0
  0
LINE
  5
BC20
330
18
100
AcDbEntity
  8
DRAW2
100
AcDbLine
 10
1094.56935173615
 20
527.3483357381792
 30
0.0
 11
1094.56935173615
 21
528.7917114111532
 31
0.0
  0
LINE
  5
BC22
330
18
100
AcDbEntity
  8
DRAW2
100
AcDbLine
 10
1062.621910619408
 20
633.0267383301158
 30
0.0
 11
997.6219106194085
 21
633.0267383301158
 31
0.0
  0
LINE
  5
BC23
330
18
100
AcDbEntity
  8
DRAW2
100
AcDbLine
 10
997.6219106194085
 20
633.2911297590465
 30
0.0
 11
1062.621910619408
 21
633.2911297590465
 31
0.0
  0
LINE
  5
BC24
330
18
100
AcDbEntity
  8
DRAW2
100
AcDbLine
 10
997.6219106194085
 20
639.0267383301159
 30
0.0
 11
1062.621910619408
 21
639.0267383301159
 31
0.0
  0
CIRCLE
  5
BC25
330
18
100
AcDbEntity
  8
DRAW2
100
AcDbCircle
 10
1025.621910619408
 20
622.0267383301159
 30
0.0
 40
6.0
  0
CIRCLE
  5
BC26
330
18
100
AcDbEntity
  8
DRAW2
100
AcDbCircle
 10
1025.621910619408
 20
622.0267383301159
 30
0.0
 40
8.0
  0
LINE
  5
BC27
330
18
100
AcDbEntity
  8
DRAW2
100
AcDbLine
 10
992.6219106194084
 20
637.6337553340813
 30
0.0
 11
997.6219106194085
 21
637.6337553340813
 31
0.0
  0
LINE
  5
BC28
330
18
100
AcDbEntity
  8
DRAW2
100
AcDbLine
 10
1077.621910619408
 20
609.2767383301159
 30
0.0
 11
1077.621910619408
 21
651.0444548415397
 31
0.0
  0
LINE
  5
BC29
330
18
100
AcDbEntity
  8
DRAW2
100
AcDbLine
 10
1079.621910619408
 20
651.0444548415397
 30
0.0
 11
1053.621910619408
 21
651.0444548415397
 31
0.0
  0
LINE
  5
BC2A
330
18
100
AcDbEntity
  8
DRAW2
100
AcDbLine
 10
1079.621910619408
 20
654.5799887474731
 30
0.0
 11
1053.621910619408
 21
654.5799887474731
 31
0.0
  0
LINE
  5
BC2B
330
18
100
AcDbEntity
  8
DRAW2
100
AcDbLine
 10
1054.621910619408
 20
651.0444548415397
 30
0.0
 11
1054.621910619408
 21
639.0267383301159
 31
0.0
  0
LINE
  5
BC2D
330
18
100
AcDbEntity
  8
DRAW2
100
AcDbLine
 10
1053.121910619408
 20
701.0267383301157
 30
0.0
 11
997.6219106194085
 21
701.0267383301157
 31
0.0
  0
LINE
  5
BC2E
330
18
100
AcDbEntity
  8
DRAW2
100
AcDbLine
 10
965.6219106194084
 20
675.0267383301158
 30
0.0
 11
965.6219106194084
 21
697.0267383301159
 31
0.0
  0
LINE
  5
BC2F
330
18
100
AcDbEntity
  8
DRAW2
100
AcDbLine
 10
967.6219106194084
 20
673.0267383301159
 30
0.0
 11
967.6219106194084
 21
699.0267383301159
 31
0.0
  0
LINE
  5
BC30
330
18
100
AcDbEntity
  8
DRAW2
100
AcDbLine
 10
992.6219106194084
 20
673.0267383301159
 30
0.0
 11
967.6219106194084
 21
673.0267383301159
 31
0.0
  0
LINE
  5
BC31
330
18
100
AcDbEntity
  8
DRAW2
100
AcDbLine
 10
965.6219106194084
 20
675.0267383301158
 30
0.0
 11
967.6219106194084
 21
673.0267383301159
 31
0.0
  0
LINE
  5
BC32
330
18
100
AcDbEntity
  8
DRAW2
100
AcDbLine
 10
967.6219106194084
 20
699.0267383301159
 30
0.0
 11
992.6219106194084
 21
699.0267383301159
 31
0.0
  0
LINE
  5
BC33
330
18
100
AcDbEntity
  8
DRAW2
100
AcDbLine
 10
965.6219106194084
 20
697.0267383301159
 30
0.0
 11
967.6219106194084
 21
699.0267383301159
 31
0.0
  0
LINE
  5
BC34
330
18
100
AcDbEntity
  8
DRAW2
100
AcDbLine
 10
997.6219106194085
 20
701.0267383301159
 30
0.0
 11
992.6219106194084
 21
701.0267383301159
 31
0.0
  0
LINE
  5
BC35
330
18
100
AcDbEntity
  8
DRAW2
100
AcDbLine
 10
1077.621910619408
 20
678.0267383301159
 30
0.0
 11
1054.621910619408
 21
678.0267383301159
 31
0.0
  0
LINE
  5
BC36
330
18
100
AcDbEntity
  8
DRAW2
100
AcDbLine
 10
1053.621910619408
 20
677.026738330116
 30
0.0
 11
1054.621910619408
 21
678.0267383301159
 31
0.0
  0
LINE
  5
BC37
330
18
100
AcDbEntity
  8
DRAW2
100
AcDbLine
 10
1053.121910619408
 20
670.5267383301158
 30
0.0
 11
1053.621910619408
 21
670.5267383301158
 31
0.0
  0
LINE
  5
BC38
330
18
100
AcDbEntity
  8
DRAW2
100
AcDbLine
 10
1056.621910619408
 20
678.0267383301159
 30
0.0
 11
1053.621910619408
 21
681.0267383301153
 31
0.0
  0
LINE
  5
BC39
330
18
100
AcDbEntity
  8
DRAW2
100
AcDbLine
 10
1079.621910619408
 20
676.026738330116
 30
0.0
 11
1077.621910619408
 21
678.0267383301159
 31
0.0
  0
LINE
  5
BC3B
330
18
100
AcDbEntity
  8
DRAW2
100
AcDbLine
 10
1234.621910619408
 20
701.0267383301159
 30
0.0
 11
1234.621910619408
 21
483.0267383301158
 31
0.0
  0
LINE
  5
BC3C
330
18
100
AcDbEntity
  8
DRAW2
100
AcDbLine
 10
1239.621910619408
 20
701.0267383301159
 30
0.0
 11
1239.621910619408
 21
612.526738330116
 31
0.0
  0
LINE
  5
BC3D
330
18
100
AcDbEntity
  8
DRAW2
100
AcDbLine
 10
1154.621910619408
 20
654.5799887474731
 30
0.0
 11
1154.621910619408
 21
678.0267383301159
 31
0.0
  0
LINE
  5
BC3E
330
18
100
AcDbEntity
  8
DRAW2
100
AcDbLine
 10
1177.621910619409
 20
678.0267383301159
 30
0.0
 11
1177.621910619409
 21
654.5799887474731
 31
0.0
  0
LINE
  5
BC3F
330
18
100
AcDbEntity
  8
DRAW2
100
AcDbLine
 10
1152.621910619408
 20
609.2767383301159
 30
0.0
 11
1152.621910619408
 21
676.026738330116
 31
0.0
  0
LINE
  5
BC40
330
18
100
AcDbEntity
  8
DRAW2
100
AcDbLine
 10
1178.621910619408
 20
677.026738330116
 30
0.0
 11
1178.621910619408
 21
639.0267383301159
 31
0.0
  0
LINE
  5
BC41
330
18
100
AcDbEntity
  8
DRAW2
100
AcDbLine
 10
1234.621910619408
 20
701.0267383301157
 30
0.0
 11
1234.621910619408
 21
614.5267383301159
 31
0.0
  0
LINE
  5
BC42
330
18
100
AcDbEntity
  8
DRAW2
100
AcDbLine
 10
1179.121910619408
 20
701.0267383301157
 30
0.0
 11
1179.121910619408
 21
639.0267383301157
 31
0.0
  0
LINE
  5
BC43
330
18
100
AcDbEntity
  8
DRAW2
100
AcDbLine
 10
1169.621910619408
 20
551.0267383301159
 30
0.0
 11
1234.621910619408
 21
551.0267383301159
 31
0.0
  0
LINE
  5
BC44
330
18
100
AcDbEntity
  8
DRAW2
100
AcDbLine
 10
1169.621910619408
 20
633.0267383301158
 30
0.0
 11
1234.621910619408
 21
633.0267383301158
 31
0.0
  0
LINE
  5
BC45
330
18
100
AcDbEntity
  8
DRAW2
100
AcDbLine
 10
1234.621910619408
 20
639.0267383301159
 30
0.0
 11
1169.621910619408
 21
639.0267383301159
 31
0.0
  0
LINE
  5
BC46
330
18
100
AcDbEntity
  8
DRAW2
100
AcDbLine
 10
1234.621910619408
 20
633.2911297590465
 30
0.0
 11
1169.621910619408
 21
633.2911297590465
 31
0.0
  0
LINE
  5
BC47
330
18
100
AcDbEntity
  8
DRAW2
100
AcDbLine
 10
1169.621910619408
 20
545.0267383301159
 30
0.0
 11
1234.621910619408
 21
545.0267383301159
 31
0.0
  0
LINE
  5
BC48
330
18
100
AcDbEntity
  8
DRAW2
100
AcDbLine
 10
1169.621910619408
 20
550.7623469011855
 30
0.0
 11
1234.621910619408
 21
550.7623469011855
 31
0.0
  0
LINE
  5
BC49
330
18
100
AcDbEntity
  8
DRAW2
100
AcDbLine
 10
1179.121910619408
 20
483.0267383301158
 30
0.0
 11
1234.621910619408
 21
483.026738330116
 31
0.0
  0
LINE
  5
BC4A
330
18
100
AcDbEntity
  8
DRAW2
100
AcDbLine
 10
1169.621910619408
 20
633.0267383301158
 30
0.0
 11
1169.621910619408
 21
551.0267383301159
 31
0.0
  0
LINE
  5
BC4B
330
18
100
AcDbEntity
  8
DRAW2
100
AcDbLine
 10
1169.621910619408
 20
639.0267383301159
 30
0.0
 11
1169.621910619408
 21
545.0267383301159
 31
0.0
  0
CIRCLE
  5
BC4C
330
18
100
AcDbEntity
  8
DRAW2
100
AcDbCircle
 10
1206.621910619408
 20
562.0267383301158
 30
0.0
 40
8.0
  0
CIRCLE
  5
BC4D
330
18
100
AcDbEntity
  8
DRAW2
100
AcDbCircle
 10
1206.621910619408
 20
562.0267383301158
 30
0.0
 40
6.0
  0
LINE
  5
BC4E
330
18
100
AcDbEntity
  8
DRAW2
100
AcDbLine
 10
1152.621910619408
 20
574.776738330116
 30
0.0
 11
1152.621910619408
 21
550.0267383301158
 31
0.0
  0
LINE
  5
BC50
330
18
100
AcDbEntity
  8
DRAW2
100
AcDbLine
 10
1154.621910619408
 20
550.0267383301158
 30
0.0
 11
1154.621910619408
 21
574.776738330116
 31
0.0
  0
LINE
  5
BC51
330
18
100
AcDbEntity
  8
DRAW2
100
AcDbLine
 10
1154.621910619408
 20
506.026738330116
 30
0.0
 11
1177.621910619409
 21
506.026738330116
 31
0.0
  0
LINE
  5
BC52
330
18
100
AcDbEntity
  8
DRAW2
100
AcDbLine
 10
1152.621910619408
 20
533.0090218186893
 30
0.0
 11
1178.621910619408
 21
533.0090218186893
 31
0.0
  0
LINE
  5
BC53
330
18
100
AcDbEntity
  8
DRAW2
100
AcDbLine
 10
1152.621910619408
 20
529.4734879127566
 30
0.0
 11
1178.621910619408
 21
529.4734879127566
 31
0.0
  0
LINE
  5
BC54
330
18
100
AcDbEntity
  8
DRAW2
100
AcDbLine
 10
1148.621910619408
 20
505.0367385301158
 30
0.0
 11
1148.621910619408
 21
524.5267383301158
 31
0.0
  0
LINE
  5
BC55
330
18
100
AcDbEntity
  8
DRAW2
100
AcDbLine
 10
1127.621910619408
 20
521.3557900743596
 30
0.0
 11
1127.621910619408
 21
505.0367385301158
 31
0.0
  0
LINE
  5
BC56
330
18
100
AcDbEntity
  8
DRAW2
100
AcDbLine
 10
1104.621910619407
 20
505.0367385301158
 30
0.0
 11
1104.621910619407
 21
521.3557900743597
 31
0.0
  0
LINE
  5
BC57
330
18
100
AcDbEntity
  8
DRAW2
100
AcDbLine
 10
1119.121910619408
 20
513.752826913296
 30
0.0
 11
1119.121910619408
 21
493.8377509701939
 31
0.0
  0
LINE
  5
BC58
330
18
100
AcDbEntity
  8
DRAW2
100
AcDbLine
 10
1113.121910619408
 20
513.752826913296
 30
0.0
 11
1113.121910619408
 21
494.1164415482325
 31
0.0
  0
LINE
  5
BC59
330
18
100
AcDbEntity
  8
DRAW2
100
AcDbLine
 10
1154.621910619408
 20
506.026738330116
 30
0.0
 11
1154.621910619408
 21
529.4734879127566
 31
0.0
  0
LINE
  5
BC5A
330
18
100
AcDbEntity
  8
DRAW2
100
AcDbLine
 10
1152.621910619408
 20
540.0267383301154
 30
0.0
 11
1152.621910619408
 21
508.026738330116
 31
0.0
  0
LINE
  5
BC5B
330
18
100
AcDbEntity
  8
DRAW2
100
AcDbLine
 10
1148.621910619408
 20
505.0367385301158
 30
0.0
 11
1127.621910619408
 21
505.0367385301158
 31
0.0
  0
LINE
  5
BC5C
330
18
100
AcDbEntity
  8
DRAW2
100
AcDbLine
 10
1152.621910619408
 20
508.026738330116
 30
0.0
 11
1154.621910619408
 21
506.026738330116
 31
0.0
  0
LINE
  5
BC5D
330
18
100
AcDbEntity
  8
DRAW2
100
AcDbLine
 10
1112.805285829053
 20
534.2139157936306
 30
0.0
 11
1119.438535409764
 21
534.2139157936306
 31
0.0
  0
LINE
  5
BC5E
330
18
100
AcDbEntity
  8
DRAW2
100
AcDbLine
 10
1112.805285829053
 20
529.0177633709239
 30
0.0
 11
1119.438535409764
 21
529.0177633709239
 31
0.0
  0
LINE
  5
BC5F
330
18
100
AcDbEntity
  8
DRAW2
100
AcDbLine
 10
1110.138677727295
 20
523.8660607701671
 30
0.0
 11
1116.121910619408
 21
525.3068286380385
 31
0.0
  0
LINE
  5
BC60
330
18
100
AcDbEntity
  8
DRAW2
100
AcDbLine
 10
1110.138677727295
 20
518.9169285284338
 30
0.0
 11
1116.121910619408
 21
520.3576963963053
 31
0.0
  0
LINE
  5
BC61
330
18
100
AcDbEntity
  8
DRAW2
100
AcDbLine
 10
1111.257910619408
 20
536.0700235746662
 30
0.0
 11
1111.179525063067
 21
533.4010354106375
 31
0.0
  0
LINE
  5
BC62
330
18
100
AcDbEntity
  8
DRAW2
100
AcDbLine
 10
1112.805285829053
 20
534.2139157936306
 30
0.0
 11
1112.805285829053
 21
529.0177633709239
 31
0.0
  0
LINE
  5
BC63
330
18
100
AcDbEntity
  8
DRAW2
100
AcDbLine
 10
1111.121910619408
 20
533.3722281888082
 30
0.0
 11
1111.121910619408
 21
528.1760757661015
 31
0.0
  0
LINE
  5
BC64
330
18
100
AcDbEntity
  8
DRAW2
100
AcDbLine
 10
1111.121910619408
 20
533.3722281888082
 30
0.0
 11
1112.805285829053
 21
534.2139157936306
 31
0.0
  0
LINE
  5
BC65
330
18
100
AcDbEntity
  8
DRAW2
100
AcDbLine
 10
1111.121910619408
 20
524.859450975746
 30
0.0
 11
1111.262749780317
 21
524.7890313952916
 31
0.0
  0
LINE
  5
BC66
330
18
100
AcDbEntity
  8
DRAW2
100
AcDbLine
 10
1111.121910619408
 20
528.1760757661015
 30
0.0
 11
1112.805285829053
 21
529.0177633709239
 31
0.0
  0
LINE
  5
BC67
330
18
100
AcDbEntity
  8
DRAW2
100
AcDbLine
 10
1111.121910619408
 20
524.859450975746
 30
0.0
 11
1111.121910619408
 21
528.1760757661015
 31
0.0
  0
LINE
  5
BC68
330
18
100
AcDbEntity
  8
DRAW2
100
AcDbLine
 10
1111.921910619408
 20
526.5177633709238
 30
0.0
 11
1111.921910619408
 21
525.55631237432
 31
0.0
  0
LINE
  5
BC69
330
18
100
AcDbEntity
  8
DRAW2
100
AcDbLine
 10
1111.121910619408
 20
524.1998463776949
 30
0.0
 11
1111.121910619408
 21
524.102824135915
 31
0.0
  0
LINE
  5
BC6A
330
18
100
AcDbEntity
  8
DRAW2
100
AcDbLine
 10
1110.138677727295
 20
518.9169285284338
 30
0.0
 11
1110.138677727295
 21
523.8660607701671
 31
0.0
  0
LINE
  5
BC6B
330
18
100
AcDbEntity
  8
DRAW2
100
AcDbLine
 10
1110.138677727295
 20
515.5169285284337
 30
0.0
 11
1110.371910619408
 21
515.4373671576727
 31
0.0
  0
LINE
  5
BC6C
330
18
100
AcDbEntity
  8
DRAW2
100
AcDbLine
 10
1110.138677727295
 20
518.9169285284338
 30
0.0
 11
1110.138677727295
 21
515.5169285284337
 31
0.0
  0
LINE
  5
BC6D
330
18
100
AcDbEntity
  8
DRAW2
100
AcDbLine
 10
1110.371910619408
 20
516.3509031246491
 30
0.0
 11
1110.371910619408
 21
514.1858396151881
 31
0.0
  0
LINE
  5
BC6E
330
18
100
AcDbEntity
  8
DRAW2
100
AcDbLine
 10
1097.06935173615
 20
526.6266479016922
 30
0.0
 11
1099.56935173615
 21
527.3483357381792
 31
0.0
  0
LINE
  5
BC6F
330
18
100
AcDbEntity
  8
DRAW2
100
AcDbLine
 10
1097.06935173615
 20
529.5133992476403
 30
0.0
 11
1099.56935173615
 21
528.7917114111532
 31
0.0
  0
LINE
  5
BC70
330
18
100
AcDbEntity
  8
DRAW2
100
AcDbLine
 10
1099.56935173615
 20
528.7917114111532
 30
0.0
 11
1099.56935173615
 21
527.3483357381792
 31
0.0
  0
LINE
  5
BC71
330
18
100
AcDbEntity
  8
DRAW2
100
AcDbLine
 10
1120.985910619408
 20
536.0700235746662
 30
0.0
 11
1121.064296175749
 21
533.4010354106374
 31
0.0
  0
LINE
  5
BC72
330
18
100
AcDbEntity
  8
DRAW2
100
AcDbLine
 10
1121.121910619408
 20
533.3722281888082
 30
0.0
 11
1121.121910619408
 21
528.1760757661015
 31
0.0
  0
LINE
  5
BC73
330
18
100
AcDbEntity
  8
DRAW2
100
AcDbLine
 10
1119.438535409764
 20
534.2139157936306
 30
0.0
 11
1119.438535409764
 21
529.0177633709239
 31
0.0
  0
LINE
  5
BC74
330
18
100
AcDbEntity
  8
DRAW2
100
AcDbLine
 10
1119.438535409764
 20
534.2139157936306
 30
0.0
 11
1121.121910619408
 21
533.3722281888082
 31
0.0
  0
LINE
  5
BC75
330
18
100
AcDbEntity
  8
DRAW2
100
AcDbLine
 10
1121.121910619408
 20
524.859450975746
 30
0.0
 11
1120.981071458499
 21
524.7890313952917
 31
0.0
  0
LINE
  5
BC76
330
18
100
AcDbEntity
  8
DRAW2
100
AcDbLine
 10
1119.438535409764
 20
529.0177633709239
 30
0.0
 11
1121.121910619408
 21
528.1760757661015
 31
0.0
  0
LINE
  5
BC77
330
18
100
AcDbEntity
  8
DRAW2
100
AcDbLine
 10
1121.121910619408
 20
524.8594509757461
 30
0.0
 11
1121.121910619408
 21
528.1760757661016
 31
0.0
  0
LINE
  5
BC78
330
18
100
AcDbEntity
  8
DRAW2
100
AcDbLine
 10
1120.321910619408
 20
525.55631237432
 30
0.0
 11
1120.321910619408
 21
526.5177633709238
 31
0.0
  0
LINE
  5
BC79
330
18
100
AcDbEntity
  8
DRAW2
100
AcDbLine
 10
1121.121910619408
 20
524.1028241359149
 30
0.0
 11
1121.121910619408
 21
524.1998463776949
 31
0.0
  0
LINE
  5
BC7A
330
18
100
AcDbEntity
  8
DRAW2
100
AcDbLine
 10
1116.121910619408
 20
525.3068286380385
 30
0.0
 11
1116.121910619408
 21
520.3576963963053
 31
0.0
  0
LINE
  5
BC7B
330
18
100
AcDbEntity
  8
DRAW2
100
AcDbLine
 10
1122.105143511521
 20
518.9169285284338
 30
0.0
 11
1122.105143511521
 21
523.8660607701671
 31
0.0
  0
LINE
  5
BC7C
330
18
100
AcDbEntity
  8
DRAW2
100
AcDbLine
 10
1116.121910619408
 20
525.3068286380385
 30
0.0
 11
1122.105143511521
 21
523.8660607701671
 31
0.0
  0
LINE
  5
BC7D
330
18
100
AcDbEntity
  8
DRAW2
100
AcDbLine
 10
1121.871910619408
 20
515.4373671576729
 30
0.0
 11
1122.105143511521
 21
515.5169285284337
 31
0.0
  0
LINE
  5
BC7E
330
18
100
AcDbEntity
  8
DRAW2
100
AcDbLine
 10
1116.121910619408
 20
520.3576963963053
 30
0.0
 11
1122.105143511521
 21
518.9169285284338
 31
0.0
  0
LINE
  5
BC7F
330
18
100
AcDbEntity
  8
DRAW2
100
AcDbLine
 10
1122.105143511521
 20
515.5169285284337
 30
0.0
 11
1122.105143511521
 21
518.9169285284338
 31
0.0
  0
LINE
  5
BC80
330
18
100
AcDbEntity
  8
DRAW2
100
AcDbLine
 10
1121.871910619408
 20
514.1858396151881
 30
0.0
 11
1121.871910619408
 21
516.3509031246491
 31
0.0
  0
LINE
  5
BC81
330
18
100
AcDbEntity
  8
DRAW2
100
AcDbLine
 10
1145.121910619408
 20
539.2400212509112
 30
0.0
 11
1145.121910619408
 21
535.3020743822348
 31
0.0
  0
LINE
  5
BC82
330
18
100
AcDbEntity
  8
DRAW2
100
AcDbLine
 10
1154.621910619408
 20
533.0090218186893
 30
0.0
 11
1154.621910619408
 21
540.0267383301154
 31
0.0
  0
LINE
  5
BC83
330
18
100
AcDbEntity
  8
DRAW2
100
AcDbLine
 10
1152.621910619408
 20
524.5267383301158
 30
0.0
 11
1136.168754958177
 21
524.5267383301158
 31
0.0
  0
LINE
  5
BC84
330
18
100
AcDbEntity
  8
DRAW2
100
AcDbLine
 10
1135.174469502665
 20
529.5133992476403
 30
0.0
 11
1132.674469502665
 21
528.7917114111532
 31
0.0
  0
LINE
  5
BC85
330
18
100
AcDbEntity
  8
DRAW2
100
AcDbLine
 10
1137.674469502665
 20
528.7917114111532
 30
0.0
 11
1135.174469502665
 21
529.5133992476403
 31
0.0
  0
LINE
  5
BC86
330
18
100
AcDbEntity
  8
DRAW2
100
AcDbLine
 10
1135.174469502665
 20
526.6266479016922
 30
0.0
 11
1132.674469502665
 21
527.3483357381792
 31
0.0
  0
LINE
  5
BC87
330
18
100
AcDbEntity
  8
DRAW2
100
AcDbLine
 10
1137.674469502665
 20
527.3483357381792
 30
0.0
 11
1135.174469502665
 21
526.6266479016922
 31
0.0
  0
LINE
  5
BC88
330
18
100
AcDbEntity
  8
DRAW2
100
AcDbLine
 10
1132.674469502665
 20
528.7917114111532
 30
0.0
 11
1132.674469502665
 21
527.3483357381792
 31
0.0
  0
LINE
  5
BC89
330
18
100
AcDbEntity
  8
DRAW2
100
AcDbLine
 10
1137.674469502665
 20
527.3483357381792
 30
0.0
 11
1137.674469502665
 21
528.7917114111532
 31
0.0
  0
LINE
  5
BC8A
330
18
100
AcDbEntity
  8
DRAW2
100
AcDbLine
 10
1177.621910619409
 20
529.4734879127566
 30
0.0
 11
1177.621910619409
 21
506.026738330116
 31
0.0
  0
LINE
  5
BC8B
330
18
100
AcDbEntity
  8
DRAW2
100
AcDbLine
 10
1178.621910619408
 20
507.026738330116
 30
0.0
 11
1178.621910619408
 21
540.0267383301154
 31
0.0
  0
LINE
  5
BC8C
330
18
100
AcDbEntity
  8
DRAW2
100
AcDbLine
 10
1179.121910619408
 20
545.0267383301159
 30
0.0
 11
1179.121910619408
 21
483.0267383301158
 31
0.0
  0
LINE
  5
BC8D
330
18
100
AcDbEntity
  8
DRAW2
100
AcDbLine
 10
1179.121910619408
 20
502.5267383301159
 30
0.0
 11
1175.621910619408
 21
506.026738330116
 31
0.0
  0
LINE
  5
BC8E
330
18
100
AcDbEntity
  8
DRAW2
100
AcDbLine
 10
1178.621910619408
 20
507.026738330116
 30
0.0
 11
1177.621910619409
 21
506.026738330116
 31
0.0
  0
LINE
  5
BC90
330
18
100
AcDbEntity
  8
DRAW2
100
AcDbLine
 10
1177.621910619409
 20
540.0267383301154
 30
0.0
 11
1177.621910619409
 21
533.0090218186893
 31
0.0
  0
LINE
  5
BC91
330
18
100
AcDbEntity
  8
DRAW2
100
AcDbLine
 10
1179.121910619408
 20
513.5267383301157
 30
0.0
 11
1178.621910619408
 21
513.5267383301159
 31
0.0
  0
LINE
  5
BC92
330
18
100
AcDbEntity
  8
DRAW2
100
AcDbLine
 10
1152.621910619408
 20
654.5799887474731
 30
0.0
 11
1178.621910619408
 21
654.5799887474731
 31
0.0
  0
LINE
  5
BC93
330
18
100
AcDbEntity
  8
DRAW2
100
AcDbLine
 10
1152.621910619408
 20
651.0444548415397
 30
0.0
 11
1178.621910619408
 21
651.0444548415397
 31
0.0
  0
LINE
  5
BC94
330
18
100
AcDbEntity
  8
DRAW2
100
AcDbLine
 10
1154.621910619408
 20
609.2767383301159
 30
0.0
 11
1154.621910619408
 21
651.0444548415397
 31
0.0
  0
CIRCLE
  5
BC95
330
18
100
AcDbEntity
  8
DRAW2
100
AcDbCircle
 10
1206.621910619408
 20
622.0267383301159
 30
0.0
 40
8.0
  0
LINE
  5
BC97
330
18
100
AcDbEntity
  8
DRAW2
100
AcDbLine
 10
1177.621910619409
 20
651.0444548415397
 30
0.0
 11
1177.621910619409
 21
639.0267383301159
 31
0.0
  0
CIRCLE
  5
BC98
330
18
100
AcDbEntity
  8
DRAW2
100
AcDbCircle
 10
1206.621910619408
 20
622.0267383301159
 30
0.0
 40
6.0
  0
LINE
  5
BC99
330
18
100
AcDbEntity
  8
DRAW2
100
AcDbLine
 10
1234.621910619408
 20
633.0267383301158
 30
0.0
 11
1234.621910619408
 21
551.0267383301159
 31
0.0
  0
LINE
  5
BC9A
330
18
100
AcDbEntity
  8
DRAW2
100
AcDbLine
 10
1234.621910619408
 20
639.0267383301159
 30
0.0
 11
1234.621910619408
 21
545.0267383301159
 31
0.0
  0
LINE
  5
BC9B
330
18
100
AcDbEntity
  8
DRAW2
100
AcDbLine
 10
1301.621910619409
 20
642.0267383301158
 30
0.0
 11
1301.621910619408
 21
542.0267383301158
 31
0.0
  0
LINE
  5
BC9C
330
18
100
AcDbEntity
  8
DRAW2
100
AcDbLine
 10
1286.621910619409
 20
642.026738330116
 30
0.0
 11
1286.621910619408
 21
542.0267383301158
 31
0.0
  0
LINE
  5
BC9D
330
18
100
AcDbEntity
  8
DRAW2
100
AcDbLine
 10
1282.621910619409
 20
641.0267383301158
 30
0.0
 11
1282.621910619409
 21
543.0267383301159
 31
0.0
  0
LINE
  5
BC9E
330
18
100
AcDbEntity
  8
DRAW2
100
AcDbLine
 10
1284.621910619408
 20
543.0267383301159
 30
0.0
 11
1284.621910619408
 21
641.0267383301158
 31
0.0
  0
LINE
  5
BC9F
330
18
100
AcDbEntity
  8
DRAW2
100
AcDbLine
 10
1239.621910619408
 20
571.5267383301159
 30
0.0
 11
1239.621910619408
 21
483.0267383301158
 31
0.0
  0
LINE
  5
BCA0
330
18
100
AcDbEntity
  8
DRAW2
100
AcDbLine
 10
1234.621910619408
 20
569.5267383301159
 30
0.0
 11
1234.621910619408
 21
483.026738330116
 31
0.0
  0
LINE
  5
BCA1
330
18
100
AcDbEntity
  8
DRAW2
100
AcDbLine
 10
1301.621910619408
 20
542.0267383301158
 30
0.0
 11
1286.621910619408
 21
542.0267383301158
 31
0.0
  0
LINE
  5
BCA3
330
18
100
AcDbEntity
  8
DRAW2
100
AcDbLine
 10
1239.621910619408
 20
483.0267383301158
 30
0.0
 11
1234.621910619408
 21
483.0267383301158
 31
0.0
  0
LINE
  5
BCA4
330
18
100
AcDbEntity
  8
DRAW2
100
AcDbLine
 10
1264.621910619408
 20
558.0267383301158
 30
0.0
 11
1239.621910619408
 21
558.0267383301158
 31
0.0
  0
LINE
  5
BCA6
330
18
100
AcDbEntity
  8
DRAW2
100
AcDbLine
 10
1239.621910619408
 20
532.0267383301159
 30
0.0
 11
1264.621910619408
 21
532.0267383301159
 31
0.0
  0
LINE
  5
BCA7
330
18
100
AcDbEntity
  8
DRAW2
100
AcDbLine
 10
1239.621910619408
 20
546.4197213261504
 30
0.0
 11
1234.621910619408
 21
546.4197213261504
 31
0.0
  0
LINE
  5
BCA8
330
18
100
AcDbEntity
  8
DRAW2
100
AcDbLine
 10
1266.621910619408
 20
534.0267383301159
 30
0.0
 11
1266.621910619408
 21
556.0267383301159
 31
0.0
  0
LINE
  5
BCA9
330
18
100
AcDbEntity
  8
DRAW2
100
AcDbLine
 10
1264.621910619408
 20
532.0267383301159
 30
0.0
 11
1264.621910619408
 21
558.0267383301158
 31
0.0
  0
LINE
  5
BCAA
330
18
100
AcDbEntity
  8
DRAW2
100
AcDbLine
 10
1266.621910619408
 20
534.0267383301159
 30
0.0
 11
1264.621910619408
 21
532.0267383301159
 31
0.0
  0
LINE
  5
BCAB
330
18
100
AcDbEntity
  8
DRAW2
100
AcDbLine
 10
1266.621910619408
 20
556.0267383301159
 30
0.0
 11
1264.621910619408
 21
558.0267383301158
 31
0.0
  0
LINE
  5
BCAC
330
18
100
AcDbEntity
  8
DRAW2
100
AcDbLine
 10
1286.621910619408
 20
543.0267383301159
 30
0.0
 11
1282.621910619409
 21
543.0267383301159
 31
0.0
  0
LINE
  5
BCAE
330
18
100
AcDbEntity
  8
DRAW2
100
AcDbLine
 10
1301.621910619409
 20
642.0267383301158
 30
0.0
 11
1286.621910619409
 21
642.026738330116
 31
0.0
  0
LINE
  5
BCAF
330
18
100
AcDbEntity
  8
DRAW2
100
AcDbLine
 10
1282.621910619409
 20
612.5267383301158
 30
0.0
 11
1236.621910619408
 21
612.5267383301158
 31
0.0
  0
LINE
  5
BCB0
330
18
100
AcDbEntity
  8
DRAW2
100
AcDbLine
 10
1282.621910619409
 20
571.5267383301159
 30
0.0
 11
1236.621910619408
 21
571.5267383301159
 31
0.0
  0
ARC
  5
BCB1
330
18
100
AcDbEntity
  8
DRAW2
100
AcDbCircle
 10
1236.621910619408
 20
569.5267383301159
 30
0.0
 40
2.0
100
AcDbArc
 50
90.0
 51
180.0
  0
ARC
  5
BCB2
330
18
100
AcDbEntity
  8
DRAW2
100
AcDbCircle
 10
1236.621910619408
 20
614.5267383301159
 30
0.0
 40
2.0
100
AcDbArc
 50
180.0
 51
270.0
  0
LINE
  5
BCB3
330
18
100
AcDbEntity
  8
DRAW2
100
AcDbLine
 10
1284.621910619408
 20
592.0267383301158
 30
0.0
 11
1282.621910619409
 21
592.026738330116
 31
0.0
  0
LINE
  5
BCB4
330
18
100
AcDbEntity
  8
DRAW2
100
AcDbLine
 10
1239.621910619408
 20
637.6337553340813
 30
0.0
 11
1234.621910619408
 21
637.6337553340813
 31
0.0
  0
LINE
  5
BCB5
330
18
100
AcDbEntity
  8
DRAW2
100
AcDbLine
 10
1286.621910619408
 20
641.0267383301158
 30
0.0
 11
1282.621910619409
 21
641.0267383301158
 31
0.0
  0
LINE
  5
BCB6
330
18
100
AcDbEntity
  8
DRAW2
100
AcDbLine
 10
1179.121910619408
 20
701.0267383301157
 30
0.0
 11
1234.621910619408
 21
701.0267383301157
 31
0.0
  0
LINE
  5
BCB7
330
18
100
AcDbEntity
  8
DRAW2
100
AcDbLine
 10
1154.621910619408
 20
678.0267383301159
 30
0.0
 11
1177.621910619409
 21
678.0267383301159
 31
0.0
  0
LINE
  5
BCB8
330
18
100
AcDbEntity
  8
DRAW2
100
AcDbLine
 10
1152.621910619408
 20
676.026738330116
 30
0.0
 11
1154.621910619408
 21
678.0267383301159
 31
0.0
  0
LINE
  5
BCB9
330
18
100
AcDbEntity
  8
DRAW2
100
AcDbLine
 10
1179.121910619408
 20
670.5267383301158
 30
0.0
 11
1178.621910619408
 21
670.5267383301158
 31
0.0
  0
LINE
  5
BCBA
330
18
100
AcDbEntity
  8
DRAW2
100
AcDbLine
 10
1178.621910619408
 20
677.026738330116
 30
0.0
 11
1177.621910619409
 21
678.0267383301159
 31
0.0
  0
LINE
  5
BCBB
330
18
100
AcDbEntity
  8
DRAW2
100
AcDbLine
 10
1175.621910619408
 20
678.0267383301159
 30
0.0
 11
1178.621910619408
 21
681.0267383301153
 31
0.0
  0
LINE
  5
BCBD
330
18
100
AcDbEntity
  8
DRAW2
100
AcDbLine
 10
1239.621910619408
 20
673.0267383301159
 30
0.0
 11
1264.621910619408
 21
673.0267383301159
 31
0.0
  0
LINE
  5
BCBE
330
18
100
AcDbEntity
  8
DRAW2
100
AcDbLine
 10
1264.621910619408
 20
699.0267383301159
 30
0.0
 11
1239.621910619408
 21
699.0267383301159
 31
0.0
  0
LINE
  5
BCBF
330
18
100
AcDbEntity
  8
DRAW2
100
AcDbLine
 10
1234.621910619408
 20
701.0267383301159
 30
0.0
 11
1239.621910619408
 21
701.0267383301159
 31
0.0
  0
LINE
  5
BCC0
330
18
100
AcDbEntity
  8
DRAW2
100
AcDbLine
 10
1264.621910619408
 20
673.0267383301159
 30
0.0
 11
1264.621910619408
 21
699.0267383301159
 31
0.0
  0
LINE
  5
BCC1
330
18
100
AcDbEntity
  8
DRAW2
100
AcDbLine
 10
1266.621910619408
 20
675.0267383301158
 30
0.0
 11
1266.621910619408
 21
697.0267383301159
 31
0.0
  0
LINE
  5
BCC2
330
18
100
AcDbEntity
  8
DRAW2
100
AcDbLine
 10
1266.621910619408
 20
675.0267383301158
 30
0.0
 11
1264.621910619408
 21
673.0267383301159
 31
0.0
  0
LINE
  5
BCC3
330
18
100
AcDbEntity
  8
DRAW2
100
AcDbLine
 10
1266.621910619408
 20
697.0267383301159
 30
0.0
 11
1264.621910619408
 21
699.0267383301159
 31
0.0
  0
LINE
  5
BCC4
102
{ACAD_REACTORS
330
BE6C
102
}
330
18
100
AcDbEntity
  8
DRAW2
100
AcDbLine
 10
1644.271910719408
 20
53.86442005179538
 30
0.0
 11
1644.271910719408
 21
58.86851058431694
 31
0.0
  0
CIRCLE
  5
BCC5
102
{ACAD_REACTORS
330
BE6C
102
}
330
18
100
AcDbEntity
  8
DRAW2
100
AcDbCircle
 10
1639.755406424912
 20
59.8520062898217
 30
0.0
 40
7.499999999999997
  0
LINE
  5
BCC8
102
{ACAD_REACTORS
330
BE6C
102
}
330
18
100
AcDbEntity
  8
DRAW2
100
AcDbLine
 10
1688.271910719408
 20
58.86851058431716
 30
0.0
 11
1688.271910719408
 21
53.86442005179538
 31
0.0
  0
CIRCLE
  5
BCC9
102
{ACAD_REACTORS
330
BE6C
102
}
330
18
100
AcDbEntity
  8
DRAW2
100
AcDbCircle
 10
1692.788415013904
 20
59.8520062898217
 30
0.0
 40
7.499999999999997
  0
CIRCLE
  5
BCCC
102
{ACAD_REACTORS
330
BE6C
102
}
330
18
100
AcDbEntity
  8
DRAW2
100
AcDbCircle
 10
1666.271910719408
 20
86.36851058431721
 30
0.0
 40
50.0
  0
ARC
  5
BCCD
102
{ACAD_REACTORS
330
BE68
102
}
330
18
100
AcDbEntity
  8
DRAW2
100
AcDbCircle
 10
1654.271910719408
 20
56.32679112287338
 30
0.0
 40
100.0
100
AcDbArc
 50
351.4692343900513
 51
0.0
  0
ARC
  5
BCCE
102
{ACAD_REACTORS
330
BE68
102
}
330
18
100
AcDbEntity
  8
DRAW2
100
AcDbCircle
 10
1818.271910719408
 20
56.32679112287338
 30
0.0
 40
100.0
100
AcDbArc
 50
180.0
 51
188.5307656099486
  0
ARC
  5
BCCF
102
{ACAD_REACTORS
330
BE67
102
}
330
18
100
AcDbEntity
  8
DRAW2
100
AcDbCircle
 10
1678.271910719408
 20
56.32679112287338
 30
0.0
 40
100.0
100
AcDbArc
 50
180.0
 51
188.5307656099486
  0
ARC
  5
BCD0
102
{ACAD_REACTORS
330
BE67
102
}
330
18
100
AcDbEntity
  8
DRAW2
100
AcDbCircle
 10
1514.271910719408
 20
56.32679112287338
 30
0.0
 40
100.0
100
AcDbArc
 50
351.4692343900513
 51
0.0
  0
LINE
  5
BCD7
102
{ACAD_REACTORS
330
BE67
102
}
330
18
100
AcDbEntity
  8
DRAW2
100
AcDbLine
 10
1580.271910719408
 20
48.86851058431716
 30
0.0
 11
1612.271910719408
 21
48.86851058431716
 31
0.0
  0
LINE
  5
BCD8
102
{ACAD_REACTORS
330
BE67
102
}
330
18
100
AcDbEntity
  8
DRAW2
100
AcDbLine
 10
1582.994285561024
 20
28.86851058431716
 30
0.0
 11
1609.549535877792
 21
28.86851058431716
 31
0.0
  0
LINE
  5
BCD9
102
{ACAD_REACTORS
330
BE67
102
}
330
18
100
AcDbEntity
  8
DRAW2
100
AcDbLine
 10
1579.378275432578
 20
41.49274582984889
 30
0.0
 11
1581.016412855287
 21
30.57182967845665
 31
0.0
  0
ARC
  5
BCDA
102
{ACAD_REACTORS
330
BE67
102
}
330
18
100
AcDbEntity
  8
DRAW2
100
AcDbCircle
 10
1582.994285561024
 20
30.86851058431716
 30
0.0
 40
2.0
100
AcDbArc
 50
188.5307656099486
 51
270.0
  0
LINE
  5
BCDB
102
{ACAD_REACTORS
330
BE67
102
}
330
18
100
AcDbEntity
  8
DRAW2
100
AcDbLine
 10
1613.165546006238
 20
41.49274582984889
 30
0.0
 11
1611.527408583529
 21
30.57182967845665
 31
0.0
  0
ARC
  5
BCDC
102
{ACAD_REACTORS
330
BE67
102
}
330
18
100
AcDbEntity
  8
DRAW2
100
AcDbCircle
 10
1609.549535877792
 20
30.86851058431716
 30
0.0
 40
2.0
100
AcDbArc
 50
270.0
 51
351.4692343900513
  0
LINE
  5
BCDD
102
{ACAD_REACTORS
330
BE6C
102
}
330
18
100
AcDbEntity
  8
DRAW2
100
AcDbLine
 10
1643.473884489052
 20
41.86851058431694
 30
0.0
 11
1628.271910719408
 21
41.86851058431694
 31
0.0
  0
LINE
  5
BCDE
102
{ACAD_REACTORS
330
BE6C
102
}
330
18
100
AcDbEntity
  8
DRAW2
100
AcDbLine
 10
1630.271910719408
 20
39.86851058431693
 30
0.0
 11
1642.271910719408
 21
39.86851058431693
 31
0.0
  0
LINE
  5
BCDF
102
{ACAD_REACTORS
330
BE6C
102
}
330
18
100
AcDbEntity
  8
DRAW2
100
AcDbLine
 10
1630.271910719408
 20
39.86851058431693
 30
0.0
 11
1628.271910719408
 21
41.86851058431694
 31
0.0
  0
LINE
  5
BCE0
102
{ACAD_REACTORS
330
BE6C
102
}
330
18
100
AcDbEntity
  8
DRAW2
100
AcDbLine
 10
1628.271910719408
 20
53.87235696577341
 30
0.0
 11
1628.271910719408
 21
41.86851058431694
 31
0.0
  0
LINE
  5
BCE1
102
{ACAD_REACTORS
330
BE6C
102
}
330
18
100
AcDbEntity
  8
DRAW2
100
AcDbLine
 10
1642.271910719408
 20
39.86851058431693
 30
0.0
 11
1644.004191524929
 21
41.60079138983724
 31
0.0
  0
LINE
  5
BCE2
102
{ACAD_REACTORS
330
BE68
102
}
330
18
100
AcDbEntity
  8
DRAW2
100
AcDbLine
 10
1719.378275432578
 20
41.49274582984889
 30
0.0
 11
1721.016412855287
 21
30.57182967845665
 31
0.0
  0
ARC
  5
BCE3
102
{ACAD_REACTORS
330
BE68
102
}
330
18
100
AcDbEntity
  8
DRAW2
100
AcDbCircle
 10
1722.994285561024
 20
30.86851058431716
 30
0.0
 40
2.0
100
AcDbArc
 50
188.5307656099486
 51
270.0
  0
LINE
  5
BCE4
102
{ACAD_REACTORS
330
BE68
102
}
330
18
100
AcDbEntity
  8
DRAW2
100
AcDbLine
 10
1720.271910719408
 20
48.86851058431716
 30
0.0
 11
1752.271910719408
 21
48.86851058431716
 31
0.0
  0
LINE
  5
BCE5
102
{ACAD_REACTORS
330
BE6C
102
}
330
18
100
AcDbEntity
  8
DRAW2
100
AcDbLine
 10
1702.271910719408
 20
39.86851058431716
 30
0.0
 11
1704.271910719408
 21
41.86851058431716
 31
0.0
  0
LINE
  5
BCE6
102
{ACAD_REACTORS
330
BE6C
102
}
330
18
100
AcDbEntity
  8
DRAW2
100
AcDbLine
 10
1704.271910719408
 20
41.86851058431716
 30
0.0
 11
1704.271910719408
 21
53.87235696577341
 31
0.0
  0
LINE
  5
BCE7
102
{ACAD_REACTORS
330
BE6C
102
}
330
18
100
AcDbEntity
  8
DRAW2
100
AcDbLine
 10
1690.271910719408
 20
39.86851058431716
 30
0.0
 11
1688.539629913888
 21
41.60079138983746
 31
0.0
  0
LINE
  5
BCE8
102
{ACAD_REACTORS
330
BE6C
102
}
330
18
100
AcDbEntity
  8
DRAW2
100
AcDbLine
 10
1704.271910719408
 20
41.86851058431716
 30
0.0
 11
1689.069936949763
 21
41.86851058431716
 31
0.0
  0
LINE
  5
BCE9
102
{ACAD_REACTORS
330
BE6C
102
}
330
18
100
AcDbEntity
  8
DRAW2
100
AcDbLine
 10
1690.271910719408
 20
39.86851058431716
 30
0.0
 11
1702.271910719408
 21
39.86851058431716
 31
0.0
  0
LINE
  5
BCEA
102
{ACAD_REACTORS
330
BE68
102
}
330
18
100
AcDbEntity
  8
DRAW2
100
AcDbLine
 10
1753.165546006238
 20
41.49274582984889
 30
0.0
 11
1751.527408583529
 21
30.57182967845665
 31
0.0
  0
LINE
  5
BCEB
102
{ACAD_REACTORS
330
BE68
102
}
330
18
100
AcDbEntity
  8
DRAW2
100
AcDbLine
 10
1722.994285561024
 20
28.86851058431716
 30
0.0
 11
1749.549535877792
 21
28.86851058431716
 31
0.0
  0
ARC
  5
BCEC
102
{ACAD_REACTORS
330
BE68
102
}
330
18
100
AcDbEntity
  8
DRAW2
100
AcDbCircle
 10
1749.549535877792
 20
30.86851058431716
 30
0.0
 40
2.0
100
AcDbArc
 50
270.0
 51
351.4692343900513
  0
SPLINE
  5
BCF0
330
18
100
AcDbEntity
  8
DRAW3
100
AcDbSpline
210
0.0
220
0.0
230
1.0
 70
     8
 71
     3
 72
    10
 73
     6
 74
     4
 42
0.0000000001
 43
0.0000000001
 44
0.0000000001
 40
0.0
 40
0.0
 40
0.0
 40
0.0
 40
0.7869075212542507
 40
1.726788435349844
 40
2.626116616137474
 40
2.626116616137474
 40
2.626116616137474
 40
2.626116616137474
 10
1421.13336655358
 20
253.9183563708836
 30
0.0
 10
1420.923640339934
 20
253.6743477831395
 30
0.0
 10
1420.463417517644
 20
253.1388957813961
 30
0.0
 10
1419.736411620672
 20
254.260737415274
 30
0.0
 10
1419.16350422968
 20
253.8164877920142
 30
0.0
 10
1418.883366553581
 20
253.5992606118022
 30
0.0
 11
1421.13336655358
 21
253.9183563708836
 31
0.0
 11
1420.500488128623
 21
253.4507151128334
 31
0.0
 11
1419.708537980973
 21
253.9568683468621
 31
0.0
 11
1418.883366553581
 21
253.5992606118022
 31
0.0
  0
SPLINE
  5
BCF1
330
18
100
AcDbEntity
  8
DRAW3
100
AcDbSpline
210
0.0
220
0.0
230
1.0
 70
     8
 71
     3
 72
    10
 73
     6
 74
     4
 42
0.0000000001
 43
0.0000000001
 44
0.0000000001
 40
0.0
 40
0.0
 40
0.0
 40
0.0
 40
0.7869075212542507
 40
1.726788435349844
 40
2.626116616137474
 40
2.626116616137474
 40
2.626116616137474
 40
2.626116616137474
 10
1421.13336655358
 20
251.9183563708836
 30
0.0
 10
1420.923640339934
 20
251.6743477831395
 30
0.0
 10
1420.463417517644
 20
251.1388957813961
 30
0.0
 10
1419.736411620672
 20
252.260737415274
 30
0.0
 10
1419.16350422968
 20
251.8164877920142
 30
0.0
 10
1418.883366553581
 20
251.5992606118022
 30
0.0
 11
1421.13336655358
 21
251.9183563708836
 31
0.0
 11
1420.500488128623
 21
251.4507151128334
 31
0.0
 11
1419.708537980973
 21
251.9568683468621
 31
0.0
 11
1418.883366553581
 21
251.5992606118022
 31
0.0
  0
SPLINE
  5
BCF2
330
18
100
AcDbEntity
  8
DRAW3
100
AcDbSpline
210
0.0
220
0.0
230
1.0
 70
     8
 71
     3
 72
    10
 73
     6
 74
     4
 42
0.0000000001
 43
0.0000000001
 44
0.0000000001
 40
0.0
 40
0.0
 40
0.0
 40
0.0
 40
0.3934537606269424
 40
0.8633942176749307
 40
1.202033207996425
 40
1.202033207996425
 40
1.202033207996425
 40
1.202033207996425
 10
1404.133366553572
 20
253.9183563708836
 30
0.0
 10
1404.029068598518
 20
253.7936000962001
 30
0.0
 10
1403.80019735539
 20
253.5198351536342
 30
0.0
 10
1403.457790390193
 20
254.0802683914719
 30
0.0
 10
1403.229130844713
 20
253.8536978798256
 30
0.0
 10
1403.133366553572
 20
253.7588084913429
 30
0.0
 11
1404.133366553572
 21
253.9183563708836
 31
0.0
 11
1403.816927341094
 21
253.6845357418585
 31
0.0
 11
1403.420952267268
 21
253.9376123588729
 31
0.0
 11
1403.133366553572
 21
253.7588084913429
 31
0.0
  0
SPLINE
  5
BCF3
330
18
100
AcDbEntity
  8
DRAW3
100
AcDbSpline
210
0.0
220
0.0
230
1.0
 70
     8
 71
     3
 72
    10
 73
     6
 74
     4
 42
0.0000000001
 43
0.0000000001
 44
0.0000000001
 40
0.0
 40
0.0
 40
0.0
 40
0.0
 40
0.3934537606273082
 40
0.8633942176749133
 40
1.429935674776396
 40
1.429935674776396
 40
1.429935674776396
 40
1.429935674776396
 10
1397.258366553573
 20
253.9183563708841
 30
0.0
 10
1397.153340722677
 20
253.7981716329996
 30
0.0
 10
1396.92287223012
 20
253.5344384624821
 30
0.0
 10
1396.530315167812
 20
254.1083669256351
 30
0.0
 10
1396.192833937983
 20
253.8823496375658
 30
0.0
 10
1396.008366553573
 20
253.7588084913434
 30
0.0
 11
1397.258366553573
 21
253.9183563708841
 31
0.0
 11
1396.941927341095
 21
253.684535741859
 31
0.0
 11
1396.54595226727
 21
253.9376123588733
 31
0.0
 11
1396.008366553573
 21
253.7588084913434
 31
0.0
  0
SPLINE
  5
BCF4
330
18
100
AcDbEntity
  8
DRAW3
100
AcDbSpline
210
0.0
220
0.0
230
1.0
 70
     8
 71
     3
 72
    10
 73
     6
 74
     4
 42
0.0000000001
 43
0.0000000001
 44
0.0000000001
 40
0.0
 40
0.0
 40
0.0
 40
0.0
 40
0.3934537606269424
 40
0.8633942176749307
 40
1.202033207996425
 40
1.202033207996425
 40
1.202033207996425
 40
1.202033207996425
 10
1404.133366553572
 20
251.9183563708836
 30
0.0
 10
1404.029068598518
 20
251.7936000962001
 30
0.0
 10
1403.80019735539
 20
251.5198351536342
 30
0.0
 10
1403.457790390193
 20
252.0802683914718
 30
0.0
 10
1403.229130844713
 20
251.8536978798256
 30
0.0
 10
1403.133366553572
 20
251.7588084913429
 30
0.0
 11
1404.133366553572
 21
251.9183563708836
 31
0.0
 11
1403.816927341094
 21
251.6845357418585
 31
0.0
 11
1403.420952267268
 21
251.9376123588729
 31
0.0
 11
1403.133366553572
 21
251.7588084913429
 31
0.0
  0
SPLINE
  5
BCF5
330
18
100
AcDbEntity
  8
DRAW3
100
AcDbSpline
210
0.0
220
0.0
230
1.0
 70
     8
 71
     3
 72
    10
 73
     6
 74
     4
 42
0.0000000001
 43
0.0000000001
 44
0.0000000001
 40
0.0
 40
0.0
 40
0.0
 40
0.0
 40
0.3934537606273082
 40
0.8633942176749133
 40
1.429935674776396
 40
1.429935674776396
 40
1.429935674776396
 40
1.429935674776396
 10
1397.258366553573
 20
251.9183563708841
 30
0.0
 10
1397.153340722677
 20
251.7981716329996
 30
0.0
 10
1396.92287223012
 20
251.534438462482
 30
0.0
 10
1396.530315167812
 20
252.108366925635
 30
0.0
 10
1396.192833937983
 20
251.8823496375659
 30
0.0
 10
1396.008366553573
 20
251.7588084913433
 30
0.0
 11
1397.258366553573
 21
251.9183563708841
 31
0.0
 11
1396.941927341095
 21
251.684535741859
 31
0.0
 11
1396.54595226727
 21
251.9376123588733
 31
0.0
 11
1396.008366553573
 21
251.7588084913433
 31
0.0
  0
SPLINE
  5
BCF6
330
18
100
AcDbEntity
  8
DRAW3
100
AcDbSpline
210
0.0
220
0.0
230
1.0
 70
     8
 71
     3
 72
    10
 73
     6
 74
     4
 42
0.0000000001
 43
0.0000000001
 44
0.0000000001
 40
0.0
 40
0.0
 40
0.0
 40
0.0
 40
1.972684243528373
 40
4.621558289201663
 40
6.679776794359192
 40
6.679776794359192
 40
6.679776794359192
 40
6.679776794359192
 10
1485.291576984335
 20
288.9532463957009
 30
0.0
 10
1485.75112177137
 20
288.3769743982266
 30
0.0
 10
1486.827732499494
 20
287.0268979044852
 30
0.0
 10
1484.547283940351
 20
284.844348167995
 30
0.0
 10
1485.761124864476
 20
283.528578502482
 30
0.0
 10
1486.291887713383
 20
282.9532463957009
 30
0.0
 11
1485.291576984335
 21
288.9532463957009
 31
0.0
 11
1486.186592381666
 21
287.1952843474173
 31
0.0
 11
1485.238927625897
 21
284.7217311904151
 31
0.0
 11
1486.291887713383
 21
282.9532463957009
 31
0.0
  0
SPLINE
  5
BCF7
330
18
100
AcDbEntity
  8
DRAW3
100
AcDbSpline
210
0.0
220
0.0
230
1.0
 70
     8
 71
     3
 72
    10
 73
     6
 74
     4
 42
0.0000000001
 43
0.0000000001
 44
0.0000000001
 40
0.0
 40
0.0
 40
0.0
 40
0.0
 40
1.972684243528373
 40
4.621558289201663
 40
6.679776794359192
 40
6.679776794359192
 40
6.679776794359192
 40
6.679776794359192
 10
1483.291576984335
 20
288.9532463957009
 30
0.0
 10
1483.75112177137
 20
288.3769743982266
 30
0.0
 10
1484.827732499494
 20
287.0268979044852
 30
0.0
 10
1482.547283940351
 20
284.844348167995
 30
0.0
 10
1483.761124864475
 20
283.528578502482
 30
0.0
 10
1484.291887713383
 20
282.9532463957009
 30
0.0
 11
1483.291576984335
 21
288.9532463957009
 31
0.0
 11
1484.186592381666
 21
287.1952843474173
 31
0.0
 11
1483.238927625897
 21
284.7217311904151
 31
0.0
 11
1484.291887713383
 21
282.9532463957009
 31
0.0
  0
SPLINE
  5
BCF8
330
18
100
AcDbEntity
  8
DRAW3
100
AcDbSpline
210
0.0
220
0.0
230
1.0
 70
     8
 71
     3
 72
    11
 73
     7
 74
     0
 42
0.0000000001
 43
0.0000000001
 40
11.98282428959619
 40
11.98282428959619
 40
11.98282428959619
 40
11.98282428959619
 40
27.46335552182211
 40
60.08930429639599
 40
90.8421969371761
 40
118.5574017863549
 40
118.5574017863549
 40
118.5574017863549
 40
118.5574017863549
 10
1598.772999984077
 20
209.2519809791514
 30
0.0
 10
1612.007005820765
 20
211.9573195785781
 30
0.0
 10
1629.271084603317
 20
202.8669342545146
 30
0.0
 10
1637.782825421846
 20
179.4366988493952
 30
0.0
 10
1672.838588105229
 20
171.6714141715056
 30
0.0
 10
1696.842287929236
 20
184.9586789960244
 30
0.0
 10
1721.967783452535
 20
170.734277138557
 30
0.0
  0
LINE
  5
BCF9
330
18
100
AcDbEntity
  8
DRAW2
100
AcDbLine
 10
1624.513677998183
 20
58.86851058431716
 30
0.0
 11
1576.271910719408
 21
58.86851058431716
 31
0.0
  0
CIRCLE
  5
BCFA
102
{ACAD_REACTORS
330
BE6C
102
}
330
18
100
AcDbEntity
  8
DRAW2
100
AcDbCircle
 10
1666.271910719408
 20
331.3685105843171
 30
0.0
 40
50.0
  0
LINE
  5
BCFB
330
18
100
AcDbEntity
  8
HIDDEN
100
AcDbLine
 10
1630.110589930718
 20
196.868510584317
 30
0.0
 11
1622.137936123192
 21
196.868510584317
 31
0.0
  0
LINE
  5
BCFC
330
18
100
AcDbEntity
  8
HIDDEN
100
AcDbLine
 10
1634.271910719408
 20
188.868510584317
 30
0.0
 11
1622.137936123192
 21
188.868510584317
 31
0.0
  0
LINE
  5
BCFD
330
18
100
AcDbEntity
  8
HIDDEN
100
AcDbLine
 10
1624.835453341876
 20
173.230328812515
 30
0.0
 11
1619.78388249708
 21
168.1787579677187
 31
0.0
  0
LINE
  5
BCFE
330
18
100
AcDbEntity
  8
HIDDEN
100
AcDbLine
 10
1619.623899587836
 20
168.8252303424182
 30
0.0
 11
1626.228630477509
 21
162.2204994527452
 31
0.0
  0
LINE
  5
BCFF
330
18
100
AcDbEntity
  8
HIDDEN
100
AcDbLine
 10
1619.858217097452
 20
156.2872548401564
 30
0.0
 11
1625.582158102809
 21
162.3804823619883
 31
0.0
  0
LINE
  5
BD00
330
18
100
AcDbEntity
  8
HIDDEN
100
AcDbLine
 10
1619.000408183524
 20
154.5259402365671
 30
0.0
 11
1626.228630477509
 21
162.2204994527452
 31
0.0
  0
LINE
  5
BD01
330
18
100
AcDbEntity
  8
HIDDEN
100
AcDbLine
 10
1617.560440822761
 20
166.8868296843168
 30
0.0
 11
1624.290229819408
 21
160.1570406876695
 31
0.0
  0
LINE
  5
BD02
330
18
100
AcDbEntity
  8
HIDDEN
100
AcDbLine
 10
1618.408604001846
 20
166.8868296843168
 30
0.0
 11
1624.290229819408
 21
161.0052038667547
 31
0.0
  0
ARC
  5
BD04
330
18
100
AcDbEntity
  8
DRAW2
100
AcDbCircle
 10
1618.271910719408
 20
292.0069493476231
 30
0.0
 40
13.00000000000004
100
AcDbArc
 50
58.75147910021492
 51
19.95425475708497
  0
CIRCLE
  5
BD05
330
18
100
AcDbEntity
  8
DRAW2
100
AcDbCircle
 10
1618.271910719408
 20
292.006949347623
 30
0.0
 40
10.99999999999997
  0
ARC
  5
BD08
330
18
100
AcDbEntity
  8
HIDDEN
100
AcDbCircle
 10
1666.271910719408
 20
208.8685105843171
 30
0.0
 40
67.5
100
AcDbArc
 50
179.6744984684723
 51
325.6010691465277
  0
ARC
  5
BD0E
330
18
100
AcDbEntity
  8
DRAW2
100
AcDbCircle
 10
1618.271910719408
 20
125.730071821011
 30
0.0
 40
13.00000000000004
100
AcDbArc
 50
340.0457452429155
 51
301.2485208997846
  0
CIRCLE
  5
BD0F
330
18
100
AcDbEntity
  8
DRAW2
100
AcDbCircle
 10
1618.271910719408
 20
125.7300718210112
 30
0.0
 40
10.99999999999997
  0
LINE
  5
BD11
330
18
100
AcDbEntity
  8
DRAW2
100
AcDbLine
 10
1404.133366553572
 20
253.9183563708836
 30
0.0
 11
1404.133366553572
 21
259.3282463957005
 31
0.0
  0
LINE
  5
BD13
330
18
100
AcDbEntity
  8
DRAW2
100
AcDbLine
 10
1403.133366553572
 20
253.7588084913429
 30
0.0
 11
1403.133366553572
 21
259.3282463957005
 31
0.0
  0
LINE
  5
BD14
330
18
100
AcDbEntity
  8
DRAW2
100
AcDbLine
 10
1397.258366553573
 20
253.9183563708841
 30
0.0
 11
1397.258366553573
 21
261.3282463957005
 31
0.0
  0
LINE
  5
BD15
330
18
100
AcDbEntity
  8
DRAW2
100
AcDbLine
 10
1396.008366553573
 20
253.7588084913434
 30
0.0
 11
1396.008366553573
 21
261.3282463957005
 31
0.0
  0
LINE
  5
BD17
330
18
100
AcDbEntity
  8
DRAW2
100
AcDbLine
 10
1421.13336655358
 20
253.9183563708836
 30
0.0
 11
1421.13336655358
 21
259.3282463957009
 31
0.0
  0
LINE
  5
BD18
330
18
100
AcDbEntity
  8
DRAW2
100
AcDbLine
 10
1420.13336655358
 20
253.6650536327035
 30
0.0
 11
1420.13336655358
 21
261.3282463956995
 31
0.0
  0
LINE
  5
BD19
330
18
100
AcDbEntity
  8
DRAW2
100
AcDbLine
 10
1418.883366553581
 20
253.5992606118022
 30
0.0
 11
1418.883366553581
 21
261.3282463957
 31
0.0
  0
ARC
  5
BD1C
330
18
100
AcDbEntity
  8
DRAW2
100
AcDbCircle
 10
1666.271910719408
 20
208.8685105843171
 30
0.0
 40
109.0
100
AcDbArc
 50
114.0473325993707
 51
245.9526674006292
  0
LINE
  5
BD24
330
18
100
AcDbEntity
  8
DRAW2
100
AcDbLine
 10
1421.033366553571
 20
203.102819942617
 30
0.0
 11
1426.233366553572
 21
203.102819942617
 31
0.0
  0
LINE
  5
BD25
330
18
100
AcDbEntity
  8
DRAW2
100
AcDbLine
 10
1421.033366553572
 20
199.102819942617
 30
0.0
 11
1426.233366553572
 21
199.102819942617
 31
0.0
  0
LINE
  5
BD26
330
18
100
AcDbEntity
  8
DRAW2
100
AcDbLine
 10
1426.233366553572
 20
199.102819942617
 30
0.0
 11
1424.833366553571
 21
196.6028199426171
 31
0.0
  0
LINE
  5
BD27
330
18
100
AcDbEntity
  8
DRAW2
100
AcDbLine
 10
1427.633366553572
 20
203.6028199426171
 30
0.0
 11
1420.883366553572
 21
203.6028199426166
 31
0.0
  0
LINE
  5
BD28
330
18
100
AcDbEntity
  8
DRAW2
100
AcDbLine
 10
1412.633366553572
 20
207.6028199426166
 30
0.0
 11
1427.633366553572
 21
207.6028199426171
 31
0.0
  0
LINE
  5
BD29
330
18
100
AcDbEntity
  8
DRAW2
100
AcDbLine
 10
1404.133366553572
 20
207.6028199426166
 30
0.0
 11
1404.133366553572
 21
251.9183563708834
 31
0.0
  0
LINE
  5
BD2A
330
18
100
AcDbEntity
  8
DRAW2
100
AcDbLine
 10
1403.133366553572
 20
207.6028199426166
 30
0.0
 11
1403.133366553572
 21
251.7588084913429
 31
0.0
  0
LINE
  5
BD2B
330
18
100
AcDbEntity
  8
DRAW2
100
AcDbLine
 10
1397.258366553571
 20
207.6028199426166
 30
0.0
 11
1397.258366553572
 21
251.9183563708818
 31
0.0
  0
LINE
  5
BD2D
330
18
100
AcDbEntity
  8
DRAW2
100
AcDbLine
 10
1396.008366553571
 20
207.6028199426166
 30
0.0
 11
1396.008366553572
 21
251.7588084913429
 31
0.0
  0
LINE
  5
BD30
330
18
100
AcDbEntity
  8
DRAW2
100
AcDbLine
 10
1417.258366553571
 20
208.6028199426162
 30
0.0
 11
1417.258366553571
 21
207.6028199426166
 31
0.0
  0
LINE
  5
BD31
330
18
100
AcDbEntity
  8
DRAW2
100
AcDbLine
 10
1416.008366553571
 20
208.6028199426162
 30
0.0
 11
1416.008366553571
 21
207.6028199426166
 31
0.0
  0
LINE
  5
BD33
330
18
100
AcDbEntity
  8
DRAW2
100
AcDbLine
 10
1424.133366553572
 20
208.6028199426166
 30
0.0
 11
1424.133366553572
 21
207.6028199426166
 31
0.0
  0
LINE
  5
BD34
330
18
100
AcDbEntity
  8
DRAW2
100
AcDbLine
 10
1423.133366553572
 20
208.6028199426166
 30
0.0
 11
1423.133366553572
 21
207.6028199426166
 31
0.0
  0
LINE
  5
BD36
330
18
100
AcDbEntity
  8
DRAW2
100
AcDbLine
 10
1395.433366553572
 20
186.602819942617
 30
0.0
 11
1397.833366553572
 21
186.6028199426175
 31
0.0
  0
LINE
  5
BD37
330
18
100
AcDbEntity
  8
DRAW2
100
AcDbLine
 10
1402.433366553571
 20
186.602819942617
 30
0.0
 11
1404.833366553572
 21
186.6028199426175
 31
0.0
  0
LINE
  5
BD38
330
18
100
AcDbEntity
  8
DRAW2
100
AcDbLine
 10
1407.633366553572
 20
203.6028199426171
 30
0.0
 11
1407.633366553572
 21
207.6028199426166
 31
0.0
  0
LINE
  5
BD39
330
18
100
AcDbEntity
  8
DRAW2
100
AcDbLine
 10
1401.033366553571
 20
203.102819942617
 30
0.0
 11
1406.233366553572
 21
203.102819942617
 31
0.0
  0
LINE
  5
BD3A
330
18
100
AcDbEntity
  8
DRAW2
100
AcDbLine
 10
1401.033366553572
 20
199.102819942617
 30
0.0
 11
1406.233366553572
 21
199.102819942617
 31
0.0
  0
LINE
  5
BD3B
330
18
100
AcDbEntity
  8
DRAW2
100
AcDbLine
 10
1407.633366553572
 20
203.6028199426171
 30
0.0
 11
1400.883366553572
 21
203.6028199426166
 31
0.0
  0
LINE
  5
BD3C
330
18
100
AcDbEntity
  8
DRAW2
100
AcDbLine
 10
1406.233366553572
 20
199.102819942617
 30
0.0
 11
1404.833366553572
 21
196.6028199426171
 31
0.0
  0
LINE
  5
BD3D
330
18
100
AcDbEntity
  8
DRAW2
100
AcDbLine
 10
1400.883366553572
 20
200.6028199426175
 30
0.0
 11
1400.883366553572
 21
203.6028199426166
 31
0.0
  0
LINE
  5
BD3E
330
18
100
AcDbEntity
  8
DRAW2
100
AcDbLine
 10
1399.383366553572
 20
200.6028199426175
 30
0.0
 11
1399.383366553572
 21
203.6028199426166
 31
0.0
  0
LINE
  5
BD3F
330
18
100
AcDbEntity
  8
DRAW2
100
AcDbLine
 10
1399.233366553572
 20
199.102819942617
 30
0.0
 11
1399.233366553572
 21
203.102819942617
 31
0.0
  0
LINE
  5
BD40
330
18
100
AcDbEntity
  8
DRAW2
100
AcDbLine
 10
1401.033366553572
 20
199.102819942617
 30
0.0
 11
1401.033366553571
 21
203.102819942617
 31
0.0
  0
LINE
  5
BD41
330
18
100
AcDbEntity
  8
DRAW2
100
AcDbLine
 10
1394.033366553572
 20
199.102819942617
 30
0.0
 11
1394.033366553571
 21
203.102819942617
 31
0.0
  0
LINE
  5
BD42
330
18
100
AcDbEntity
  8
DRAW2
100
AcDbLine
 10
1404.883366553572
 20
203.1028199426175
 30
0.0
 11
1404.883366553572
 21
203.6028199426166
 31
0.0
  0
LINE
  5
BD43
330
18
100
AcDbEntity
  8
DRAW2
100
AcDbLine
 10
1402.383366553572
 20
203.1028199426175
 30
0.0
 11
1402.383366553572
 21
203.6028199426166
 31
0.0
  0
LINE
  5
BD44
330
18
100
AcDbEntity
  8
DRAW2
100
AcDbLine
 10
1397.883366553572
 20
203.1028199426175
 30
0.0
 11
1397.883366553572
 21
203.6028199426166
 31
0.0
  0
LINE
  5
BD45
330
18
100
AcDbEntity
  8
DRAW2
100
AcDbLine
 10
1395.383366553572
 20
203.1028199426175
 30
0.0
 11
1395.383366553572
 21
203.6028199426166
 31
0.0
  0
LINE
  5
BD46
330
18
100
AcDbEntity
  8
DRAW2
100
AcDbLine
 10
1394.033366553571
 20
203.102819942617
 30
0.0
 11
1399.233366553572
 21
203.102819942617
 31
0.0
  0
LINE
  5
BD47
330
18
100
AcDbEntity
  8
DRAW2
100
AcDbLine
 10
1399.383366553572
 20
200.6028199426175
 30
0.0
 11
1400.883366553572
 21
200.6028199426175
 31
0.0
  0
LINE
  5
BD48
330
18
100
AcDbEntity
  8
DRAW2
100
AcDbLine
 10
1394.033366553572
 20
199.102819942617
 30
0.0
 11
1399.233366553572
 21
199.102819942617
 31
0.0
  0
LINE
  5
BD49
330
18
100
AcDbEntity
  8
DRAW2
100
AcDbLine
 10
1402.433366553571
 20
196.6028199426171
 30
0.0
 11
1404.833366553572
 21
196.6028199426171
 31
0.0
  0
LINE
  5
BD4A
330
18
100
AcDbEntity
  8
DRAW2
100
AcDbLine
 10
1395.433366553572
 20
196.6028199426171
 30
0.0
 11
1397.833366553572
 21
196.6028199426171
 31
0.0
  0
LINE
  5
BD4B
330
18
100
AcDbEntity
  8
DRAW2
100
AcDbLine
 10
1399.233366553572
 20
199.102819942617
 30
0.0
 11
1397.833366553572
 21
196.6028199426171
 31
0.0
  0
LINE
  5
BD4C
330
18
100
AcDbEntity
  8
DRAW2
100
AcDbLine
 10
1401.033366553572
 20
199.102819942617
 30
0.0
 11
1402.433366553571
 21
196.6028199426171
 31
0.0
  0
LINE
  5
BD4D
330
18
100
AcDbEntity
  8
DRAW2
100
AcDbLine
 10
1394.033366553572
 20
199.102819942617
 30
0.0
 11
1395.433366553572
 21
196.6028199426171
 31
0.0
  0
LINE
  5
BD4E
330
18
100
AcDbEntity
  8
DRAW2
100
AcDbLine
 10
1397.833366553572
 20
186.602819942617
 30
0.0
 11
1397.833366553572
 21
196.6028199426175
 31
0.0
  0
LINE
  5
BD4F
330
18
100
AcDbEntity
  8
DRAW2
100
AcDbLine
 10
1402.433366553571
 20
186.602819942617
 30
0.0
 11
1402.433366553571
 21
196.6028199426175
 31
0.0
  0
LINE
  5
BD50
330
18
100
AcDbEntity
  8
DRAW2
100
AcDbLine
 10
1404.833366553572
 20
186.602819942617
 30
0.0
 11
1404.833366553572
 21
196.6028199426175
 31
0.0
  0
LINE
  5
BD51
330
18
100
AcDbEntity
  8
DRAW2
100
AcDbLine
 10
1395.433366553572
 20
186.602819942617
 30
0.0
 11
1395.433366553572
 21
196.6028199426175
 31
0.0
  0
LINE
  5
BD52
330
18
100
AcDbEntity
  8
DRAW2
100
AcDbLine
 10
1406.233366553572
 20
199.102819942617
 30
0.0
 11
1406.233366553572
 21
203.102819942617
 31
0.0
  0
LINE
  5
BD53
330
18
100
AcDbEntity
  8
DRAW2
100
AcDbLine
 10
1392.633366553572
 20
203.6028199426171
 30
0.0
 11
1392.633366553572
 21
207.6028199426166
 31
0.0
  0
LINE
  5
BD54
330
18
100
AcDbEntity
  8
DRAW2
100
AcDbLine
 10
1392.633366553572
 20
203.6028199426171
 30
0.0
 11
1399.383366553572
 21
203.6028199426166
 31
0.0
  0
LINE
  5
BD55
330
18
100
AcDbEntity
  8
DRAW2
100
AcDbLine
 10
1392.633366553572
 20
207.6028199426166
 30
0.0
 11
1407.633366553572
 21
207.6028199426171
 31
0.0
  0
LINE
  5
BD56
330
18
100
AcDbEntity
  8
DRAW2
100
AcDbLine
 10
1422.433366553572
 20
186.602819942617
 30
0.0
 11
1424.833366553572
 21
186.6028199426175
 31
0.0
  0
LINE
  5
BD57
330
18
100
AcDbEntity
  8
DRAW2
100
AcDbLine
 10
1415.433366553571
 20
186.602819942617
 30
0.0
 11
1417.833366553572
 21
186.6028199426175
 31
0.0
  0
LINE
  5
BD58
330
18
100
AcDbEntity
  8
DRAW2
100
AcDbLine
 10
1421.033366553572
 20
199.102819942617
 30
0.0
 11
1422.433366553572
 21
196.6028199426171
 31
0.0
  0
LINE
  5
BD59
330
18
100
AcDbEntity
  8
DRAW2
100
AcDbLine
 10
1412.633366553572
 20
203.6028199426171
 30
0.0
 11
1412.633366553572
 21
207.6028199426166
 31
0.0
  0
LINE
  5
BD5A
330
18
100
AcDbEntity
  8
DRAW2
100
AcDbLine
 10
1414.033366553572
 20
199.102819942617
 30
0.0
 11
1414.033366553572
 21
203.102819942617
 31
0.0
  0
LINE
  5
BD5B
330
18
100
AcDbEntity
  8
DRAW2
100
AcDbLine
 10
1421.033366553572
 20
199.102819942617
 30
0.0
 11
1421.033366553571
 21
203.102819942617
 31
0.0
  0
LINE
  5
BD5C
330
18
100
AcDbEntity
  8
DRAW2
100
AcDbLine
 10
1419.233366553572
 20
199.102819942617
 30
0.0
 11
1419.233366553572
 21
203.102819942617
 31
0.0
  0
LINE
  5
BD5D
330
18
100
AcDbEntity
  8
DRAW2
100
AcDbLine
 10
1419.383366553572
 20
200.6028199426175
 30
0.0
 11
1419.383366553572
 21
203.6028199426166
 31
0.0
  0
LINE
  5
BD5E
330
18
100
AcDbEntity
  8
DRAW2
100
AcDbLine
 10
1420.883366553572
 20
200.6028199426175
 30
0.0
 11
1420.883366553572
 21
203.6028199426166
 31
0.0
  0
LINE
  5
BD5F
330
18
100
AcDbEntity
  8
DRAW2
100
AcDbLine
 10
1414.033366553572
 20
203.102819942617
 30
0.0
 11
1419.233366553572
 21
203.102819942617
 31
0.0
  0
LINE
  5
BD60
330
18
100
AcDbEntity
  8
DRAW2
100
AcDbLine
 10
1415.383366553572
 20
203.1028199426175
 30
0.0
 11
1415.383366553572
 21
203.6028199426166
 31
0.0
  0
LINE
  5
BD61
330
18
100
AcDbEntity
  8
DRAW2
100
AcDbLine
 10
1417.883366553572
 20
203.1028199426175
 30
0.0
 11
1417.883366553572
 21
203.6028199426166
 31
0.0
  0
LINE
  5
BD62
330
18
100
AcDbEntity
  8
DRAW2
100
AcDbLine
 10
1412.633366553572
 20
203.6028199426171
 30
0.0
 11
1419.383366553572
 21
203.6028199426166
 31
0.0
  0
LINE
  5
BD63
330
18
100
AcDbEntity
  8
DRAW2
100
AcDbLine
 10
1414.033366553572
 20
199.102819942617
 30
0.0
 11
1419.233366553572
 21
199.102819942617
 31
0.0
  0
LINE
  5
BD64
330
18
100
AcDbEntity
  8
DRAW2
100
AcDbLine
 10
1419.383366553572
 20
200.6028199426175
 30
0.0
 11
1420.883366553572
 21
200.6028199426175
 31
0.0
  0
LINE
  5
BD65
330
18
100
AcDbEntity
  8
DRAW2
100
AcDbLine
 10
1415.433366553571
 20
196.6028199426171
 30
0.0
 11
1417.833366553572
 21
196.6028199426171
 31
0.0
  0
LINE
  5
BD66
330
18
100
AcDbEntity
  8
DRAW2
100
AcDbLine
 10
1414.033366553572
 20
199.102819942617
 30
0.0
 11
1415.433366553571
 21
196.6028199426171
 31
0.0
  0
LINE
  5
BD67
330
18
100
AcDbEntity
  8
DRAW2
100
AcDbLine
 10
1419.233366553572
 20
199.102819942617
 30
0.0
 11
1417.833366553572
 21
196.6028199426171
 31
0.0
  0
LINE
  5
BD68
330
18
100
AcDbEntity
  8
DRAW2
100
AcDbLine
 10
1417.833366553572
 20
186.602819942617
 30
0.0
 11
1417.833366553572
 21
196.6028199426175
 31
0.0
  0
LINE
  5
BD69
330
18
100
AcDbEntity
  8
DRAW2
100
AcDbLine
 10
1415.433366553571
 20
186.602819942617
 30
0.0
 11
1415.433366553571
 21
196.6028199426175
 31
0.0
  0
LINE
  5
BD6A
330
18
100
AcDbEntity
  8
DRAW2
100
AcDbLine
 10
1424.883366553572
 20
203.1028199426175
 30
0.0
 11
1424.883366553572
 21
203.6028199426166
 31
0.0
  0
LINE
  5
BD6B
330
18
100
AcDbEntity
  8
DRAW2
100
AcDbLine
 10
1422.383366553572
 20
203.1028199426175
 30
0.0
 11
1422.383366553572
 21
203.6028199426166
 31
0.0
  0
LINE
  5
BD6C
330
18
100
AcDbEntity
  8
DRAW2
100
AcDbLine
 10
1422.433366553572
 20
196.6028199426171
 30
0.0
 11
1424.833366553572
 21
196.6028199426171
 31
0.0
  0
LINE
  5
BD6D
330
18
100
AcDbEntity
  8
DRAW2
100
AcDbLine
 10
1422.433366553572
 20
186.602819942617
 30
0.0
 11
1422.433366553572
 21
196.6028199426175
 31
0.0
  0
LINE
  5
BD6E
330
18
100
AcDbEntity
  8
DRAW2
100
AcDbLine
 10
1424.833366553572
 20
186.602819942617
 30
0.0
 11
1424.833366553572
 21
196.6028199426175
 31
0.0
  0
LINE
  5
BD6F
330
18
100
AcDbEntity
  8
DRAW2
100
AcDbLine
 10
1422.133366553581
 20
246.6615420518526
 30
0.0
 11
1422.133366553571
 21
226.6615420518526
 31
0.0
  0
LINE
  5
BD70
330
18
100
AcDbEntity
  8
DRAW2
100
AcDbLine
 10
1418.133366553579
 20
246.6615420518526
 30
0.0
 11
1418.133366553563
 21
226.6615420518526
 31
0.0
  0
LINE
  5
BD72
330
18
100
AcDbEntity
  8
DRAW2
100
AcDbLine
 10
1418.133366553563
 20
226.6615420518526
 30
0.0
 11
1422.133366553571
 21
226.6615420518526
 31
0.0
  0
ARC
  5
BD73
330
18
100
AcDbEntity
  8
DRAW2
100
AcDbCircle
 10
1445.133366553572
 20
225.6615420518485
 30
0.0
 40
25.0
100
AcDbArc
 50
180.0
 51
199.9484435888016
  0
ARC
  5
BD74
330
18
100
AcDbEntity
  8
DRAW2
100
AcDbCircle
 10
1445.133366553572
 20
225.6615420518485
 30
0.0
 40
24.0
100
AcDbArc
 50
180.0
 51
199.9484435888016
  0
LINE
  5
BD76
330
18
100
AcDbEntity
  8
DRAW2
100
AcDbLine
 10
1418.883366553567
 20
225.3131273904175
 30
0.0
 11
1418.883366553567
 21
226.6615420518526
 31
0.0
  0
LINE
  5
BD77
330
18
100
AcDbEntity
  8
DRAW2
100
AcDbLine
 10
1421.133366553567
 20
225.6615420518485
 30
0.0
 11
1421.133366553567
 21
226.6615420518526
 31
0.0
  0
LINE
  5
BD78
330
18
100
AcDbEntity
  8
DRAW2
100
AcDbLine
 10
1420.133366553572
 20
225.3131273904175
 30
0.0
 11
1420.133366553572
 21
226.6615420518526
 31
0.0
  0
ARC
  5
BD7B
330
18
100
AcDbEntity
  8
DRAW2
100
AcDbCircle
 10
1442.258366553571
 20
208.6028199426162
 30
0.0
 40
25.0
100
AcDbArc
 50
160.4757284897084
 51
180.0
  0
ARC
  5
BD7C
330
18
100
AcDbEntity
  8
DRAW2
100
AcDbCircle
 10
1442.258366553571
 20
208.6028199426162
 30
0.0
 40
26.25
100
AcDbArc
 50
160.4757284897084
 51
180.0
  0
ARC
  5
BD7E
330
18
100
AcDbEntity
  8
DRAW2
100
AcDbCircle
 10
1395.133366553572
 20
225.3131273904175
 30
0.0
 40
25.0
100
AcDbArc
 50
340.4757284897084
 51
0.0
  0
ARC
  5
BD7F
330
18
100
AcDbEntity
  8
DRAW2
100
AcDbCircle
 10
1395.133366553572
 20
225.3131273904175
 30
0.0
 40
23.75
100
AcDbArc
 50
340.4757284897084
 51
0.0
  0
ARC
  5
BD81
330
18
100
AcDbEntity
  8
DRAW2
100
AcDbCircle
 10
1398.133366553572
 20
208.6028199426166
 30
0.0
 40
25.0
100
AcDbArc
 50
0.0
 51
19.94844358880163
  0
ARC
  5
BD83
330
18
100
AcDbEntity
  8
DRAW2
100
AcDbCircle
 10
1398.133366553572
 20
208.6028199426166
 30
0.0
 40
26.0
100
AcDbArc
 50
0.0
 51
19.94844358880163
  0
LINE
  5
BD84
330
18
100
AcDbEntity
  8
DRAW2
100
AcDbLine
 10
1418.133366553579
 20
246.6615420518526
 30
0.0
 11
1422.133366553581
 21
246.6615420518526
 31
0.0
  0
TEXT
  5
BD85
330
18
100
AcDbEntity
  8
DRAW4
100
AcDbText
 10
1421.733366553573
 20
235.7351998402353
 30
0.0
 40
3.2
  1
A
 50
90.0
 51
10.0
  7
DIMFONT
 72
     1
 11
1420.133366553574
 21
237.1066284116639
 31
0.0
100
AcDbText
 73
     2
  0
LINE
  5
BD86
330
18
100
AcDbEntity
  8
DRAW2
100
AcDbLine
 10
1421.13336655358
 20
246.6615420518526
 30
0.0
 11
1421.13336655358
 21
251.9183563708834
 31
0.0
  0
LINE
  5
BD88
330
18
100
AcDbEntity
  8
DRAW2
100
AcDbLine
 10
1420.13336655358
 20
246.6615420518526
 30
0.0
 11
1420.13336655358
 21
251.6650536327035
 31
0.0
  0
LINE
  5
BD89
330
18
100
AcDbEntity
  8
DRAW2
100
AcDbLine
 10
1418.88336655358
 20
246.6615420518526
 30
0.0
 11
1418.88336655358
 21
251.5992606118016
 31
0.0
  0
LINE
  5
BD8B
330
18
100
AcDbEntity
  8
DRAW2
100
AcDbLine
 10
1427.633366553572
 20
203.6028199426171
 30
0.0
 11
1427.633366553572
 21
207.6028199426166
 31
0.0
  0
LINE
  5
BD8C
330
18
100
AcDbEntity
  8
DRAW2
100
AcDbLine
 10
1426.233366553572
 20
199.102819942617
 30
0.0
 11
1426.233366553572
 21
203.102819942617
 31
0.0
  0
LINE
  5
BD8D
330
18
100
AcDbEntity
  8
HIDDEN
100
AcDbLine
 10
1617.106776223508
 20
158.2891625260433
 30
0.0
 11
1614.985455879948
 21
156.1678421824836
 31
0.0
  0
LINE
  5
BD8E
330
18
100
AcDbEntity
  8
HIDDEN
100
AcDbLine
 10
1620.269046137321
 20
155.8764258002871
 30
0.0
 11
1613.279825935378
 21
162.8656460022303
 31
0.0
  0
LINE
  5
BD90
102
{ACAD_REACTORS
330
BE67
102
}
330
18
100
AcDbEntity
  8
DRAW2
100
AcDbLine
 10
1578.271910719408
 20
58.86851058431716
 30
0.0
 11
1614.271910719408
 21
58.86851058431716
 31
0.0
  0
LINE
  5
BD91
330
18
100
AcDbEntity
  8
DRAW2
100
AcDbLine
 10
1587.771910719408
 20
85.86848058431712
 30
0.0
 11
1604.771940719408
 21
85.86848058431712
 31
0.0
  0
LINE
  5
BD92
330
18
100
AcDbEntity
  8
DRAW2
100
AcDbLine
 10
1585.771910719408
 20
83.86845058431708
 30
0.0
 11
1606.771940719408
 21
83.86845058431708
 31
0.0
  0
LINE
  5
BD93
330
18
100
AcDbEntity
  8
DRAW2
100
AcDbLine
 10
1576.271910719408
 20
63.86851058431716
 30
0.0
 11
1621.620482970679
 21
63.86851058431716
 31
0.0
  0
LINE
  5
BD94
330
18
100
AcDbEntity
  8
DRAW2
100
AcDbLine
 10
1585.771910719408
 20
63.86848058431713
 30
0.0
 11
1585.771910719408
 21
83.86851058431716
 31
0.0
  0
LINE
  5
BD95
102
{ACAD_REACTORS
330
BE67
102
}
330
18
100
AcDbEntity
  8
DRAW2
100
AcDbLine
 10
1578.271910719408
 20
58.86851058431716
 30
0.0
 11
1578.271910719408
 21
56.32679112287338
 31
0.0
  0
LINE
  5
BD96
330
18
100
AcDbEntity
  8
DRAW2
100
AcDbLine
 10
1581.271910719408
 20
63.86851058431671
 30
0.0
 11
1581.271910719408
 21
58.86851058431671
 31
0.0
  0
LINE
  5
BD97
330
18
100
AcDbEntity
  8
DRAW2
100
AcDbLine
 10
1576.271910719408
 20
58.86851058431716
 30
0.0
 11
1576.271910719408
 21
63.86851058431716
 31
0.0
  0
LINE
  5
BD98
330
18
100
AcDbEntity
  8
DRAW2
100
AcDbLine
 10
1585.771880719408
 20
83.86842058431716
 30
0.0
 11
1587.771880719408
 21
85.86842058431717
 31
0.0
  0
LINE
  5
BD99
330
18
100
AcDbEntity
  8
DRAW2
100
AcDbLine
 10
1606.771940719408
 20
63.86848058431713
 30
0.0
 11
1606.771940719408
 21
83.86851058431716
 31
0.0
  0
LINE
  5
BD9A
102
{ACAD_REACTORS
330
BE67
102
}
330
18
100
AcDbEntity
  8
DRAW2
100
AcDbLine
 10
1614.271910719408
 20
58.86851058431716
 30
0.0
 11
1614.271910719408
 21
56.32679112287338
 31
0.0
  0
LINE
  5
BD9B
330
18
100
AcDbEntity
  8
DRAW2
100
AcDbLine
 10
1604.771820719408
 20
85.86848058431712
 30
0.0
 11
1606.771820719408
 21
83.86848058431713
 31
0.0
  0
LINE
  5
BD9C
330
18
100
AcDbEntity
  8
HIDDEN
100
AcDbLine
 10
1619.000408183525
 20
154.5259402365683
 30
0.0
 11
1617.813883004694
 21
153.3394150577374
 31
0.0
  0
LINE
  5
BD9D
330
18
100
AcDbEntity
  8
HIDDEN
100
AcDbLine
 10
1614.985455879948
 20
156.1678421824836
 30
0.0
 11
1617.813883004694
 21
153.3394150577374
 31
0.0
  0
LINE
  5
BD9E
330
18
100
AcDbEntity
  8
HIDDEN
100
AcDbLine
 10
1619.54025940194
 20
155.1006205658492
 30
0.0
 11
1619.858217097452
 21
156.2872548401566
 31
0.0
  0
LINE
  5
BDA0
330
18
100
AcDbEntity
  8
HIDDEN
100
AcDbLine
 10
1599.281910919408
 20
203.3685105843171
 30
0.0
 11
1579.281910919408
 21
203.3685105843171
 31
0.0
  0
LINE
  5
BDA1
330
18
100
AcDbEntity
  8
HIDDEN
100
AcDbLine
 10
1579.281910919408
 20
182.3685105843171
 30
0.0
 11
1599.281910919408
 21
182.3685105843171
 31
0.0
  0
LINE
  5
BDA2
330
18
100
AcDbEntity
  8
HIDDEN
100
AcDbLine
 10
1579.281910919408
 20
190.8685105843171
 30
0.0
 11
1579.281910919408
 21
182.3685105843171
 31
0.0
  0
LINE
  5
BDA3
330
18
100
AcDbEntity
  8
HIDDEN
100
AcDbLine
 10
1579.281910919408
 20
203.3685105843171
 30
0.0
 11
1579.281910919408
 21
194.8685105843172
 31
0.0
  0
LINE
  5
BDA5
330
18
100
AcDbEntity
  8
HIDDEN
100
AcDbLine
 10
1581.781910919408
 20
194.8685105843171
 30
0.0
 11
1579.281910919408
 21
194.8685105843171
 31
0.0
  0
LINE
  5
BDA6
330
18
100
AcDbEntity
  8
HIDDEN
100
AcDbLine
 10
1581.781910919408
 20
194.8685105843171
 30
0.0
 11
1581.781910919408
 21
190.8685105843171
 31
0.0
  0
LINE
  5
BDA7
330
18
100
AcDbEntity
  8
HIDDEN
100
AcDbLine
 10
1579.281910919408
 20
190.8685105843171
 30
0.0
 11
1581.781910919408
 21
190.8685105843171
 31
0.0
  0
LINE
  5
BDA8
330
18
100
AcDbEntity
  8
HIDDEN
100
AcDbLine
 10
1599.281910919408
 20
182.3685105843171
 30
0.0
 11
1599.281910919408
 21
203.3685105843171
 31
0.0
  0
LINE
  5
BDA9
330
18
100
AcDbEntity
  8
HIDDEN
100
AcDbLine
 10
1606.271910719408
 20
186.290010578067
 30
0.0
 11
1606.271910719408
 21
181.868510584317
 31
0.0
  0
LINE
  5
BDAA
330
18
100
AcDbEntity
  8
HIDDEN
100
AcDbLine
 10
1604.407138837505
 20
181.868510584317
 30
0.0
 11
1606.271910719408
 21
181.868510584317
 31
0.0
  0
LINE
  5
BDAB
330
18
100
AcDbEntity
  8
HIDDEN
100
AcDbLine
 10
1611.929340371658
 20
161.5970080484331
 30
0.0
 11
1619.623899587836
 21
168.8252303424182
 31
0.0
  0
LINE
  5
BDAC
330
18
100
AcDbEntity
  8
HIDDEN
100
AcDbLine
 10
1613.690654975248
 20
162.4548169623608
 30
0.0
 11
1619.78388249708
 21
168.1787579677187
 31
0.0
  0
LINE
  5
BDAD
330
18
100
AcDbEntity
  8
HIDDEN
100
AcDbLine
 10
1615.95099878471
 20
164.5781702379164
 30
0.0
 11
1621.981570373008
 21
158.5475986496188
 31
0.0
  0
LINE
  5
BDAE
330
18
100
AcDbEntity
  8
HIDDEN
100
AcDbLine
 10
1615.334539841044
 20
164.5781702379164
 30
0.0
 11
1615.95099878471
 21
164.5781702379164
 31
0.0
  0
LINE
  5
BDAF
330
18
100
AcDbEntity
  8
HIDDEN
100
AcDbLine
 10
1619.623899587836
 20
168.8252303424182
 30
0.0
 11
1620.725537992719
 21
169.1204134633576
 31
0.0
  0
LINE
  5
BDB0
330
18
100
AcDbEntity
  8
HIDDEN
100
AcDbLine
 10
1621.981570373008
 20
157.9311397059531
 30
0.0
 11
1621.981570373008
 21
158.5475986496188
 31
0.0
  0
LINE
  5
BDB1
330
18
100
AcDbEntity
  8
HIDDEN
100
AcDbLine
 10
1617.560440822761
 20
166.8868296843168
 30
0.0
 11
1618.408604001846
 21
166.8868296843168
 31
0.0
  0
LINE
  5
BDB3
330
18
100
AcDbEntity
  8
HIDDEN
100
AcDbLine
 10
1611.92934037166
 20
161.597008048434
 30
0.0
 11
1610.742815192828
 21
160.410482869603
 31
0.0
  0
LINE
  5
BDB4
330
18
100
AcDbEntity
  8
HIDDEN
100
AcDbLine
 10
1612.50402070094
 20
162.1368592668492
 30
0.0
 11
1613.690654975248
 21
162.4548169623609
 31
0.0
  0
LINE
  5
BDB5
330
18
100
AcDbEntity
  8
HIDDEN
100
AcDbLine
 10
1615.692562661134
 20
159.7033760884164
 30
0.0
 11
1613.571242317575
 21
157.5820557448567
 31
0.0
  0
LINE
  5
BDB6
330
18
100
AcDbEntity
  8
HIDDEN
100
AcDbLine
 10
1610.742815192828
 20
160.410482869603
 30
0.0
 11
1613.571242317575
 21
157.5820557448567
 31
0.0
  0
LINE
  5
BDB7
330
18
100
AcDbEntity
  8
HIDDEN
100
AcDbLine
 10
1615.692562661134
 20
159.7033760884164
 30
0.0
 11
1617.106776223508
 21
158.2891625260433
 31
0.0
  0
LINE
  5
BDB8
330
18
100
AcDbEntity
  8
HIDDEN
100
AcDbLine
 10
1599.281910919408
 20
186.071573084317
 30
0.0
 11
1611.398298016182
 21
186.4502101810914
 31
0.0
  0
LINE
  5
BDB9
330
18
100
AcDbEntity
  8
HIDDEN
100
AcDbLine
 10
1602.571910919408
 20
198.7066355843171
 30
0.0
 11
1612.281910919408
 21
198.4031980843171
 31
0.0
  0
LINE
  5
BDBA
330
18
100
AcDbEntity
  8
HIDDEN
100
AcDbLine
 10
1599.281910919408
 20
199.6654480843171
 30
0.0
 11
1611.398298016182
 21
199.286810987543
 31
0.0
  0
LINE
  5
BDBB
330
18
100
AcDbEntity
  8
HIDDEN
100
AcDbLine
 10
1602.571910919408
 20
187.030385584317
 30
0.0
 11
1612.281910919408
 21
187.3338230843171
 31
0.0
  0
LINE
  5
BDBC
330
18
100
AcDbEntity
  8
HIDDEN
100
AcDbLine
 10
1598.957350630227
 20
203.868510584317
 30
0.0
 11
1606.271910719408
 21
203.868510584317
 31
0.0
  0
LINE
  5
BDBD
330
18
100
AcDbEntity
  8
HIDDEN
100
AcDbLine
 10
1601.004433208272
 20
199.61161926279
 30
0.0
 11
1602.571910919408
 21
198.7066355843171
 31
0.0
  0
LINE
  5
BDBE
330
18
100
AcDbEntity
  8
HIDDEN
100
AcDbLine
 10
1602.571910919407
 20
199.5626355843171
 30
0.0
 11
1602.571910919408
 21
186.174385584317
 31
0.0
  0
LINE
  5
BDBF
330
18
100
AcDbEntity
  8
HIDDEN
100
AcDbLine
 10
1601.004433208272
 20
186.1254019058442
 30
0.0
 11
1602.430186128503
 21
186.9485607381372
 31
0.0
  0
LINE
  5
BDC0
330
18
100
AcDbEntity
  8
HIDDEN
100
AcDbLine
 10
1611.398298016182
 20
199.286810987543
 30
0.0
 11
1611.398298016182
 21
186.4502101810914
 31
0.0
  0
LINE
  5
BDC1
330
18
100
AcDbEntity
  8
HIDDEN
100
AcDbLine
 10
1612.281910919408
 20
187.3338230843171
 30
0.0
 11
1611.398298016182
 21
186.4502101810914
 31
0.0
  0
LINE
  5
BDC2
330
18
100
AcDbEntity
  8
HIDDEN
100
AcDbLine
 10
1612.281910919408
 20
187.3338230843171
 30
0.0
 11
1612.281910919408
 21
198.4031980843171
 31
0.0
  0
LINE
  5
BDC3
330
18
100
AcDbEntity
  8
HIDDEN
100
AcDbLine
 10
1612.281910919408
 20
198.4031980843171
 30
0.0
 11
1611.398298016182
 21
199.286810987543
 31
0.0
  0
LINE
  5
BDC5
330
18
100
AcDbEntity
  8
HIDDEN
100
AcDbLine
 10
1613.391910919408
 20
198.368510584317
 30
0.0
 11
1621.271910719408
 21
198.368510584317
 31
0.0
  0
LINE
  5
BDC6
330
18
100
AcDbEntity
  8
HIDDEN
100
AcDbLine
 10
1613.391910919409
 20
187.368510584317
 30
0.0
 11
1621.271910719408
 21
187.368510584317
 31
0.0
  0
LINE
  5
BDC7
330
18
100
AcDbEntity
  8
HIDDEN
100
AcDbLine
 10
1617.031137601473
 20
198.368510584317
 30
0.0
 11
1615.671910719408
 21
199.153260590567
 31
0.0
  0
LINE
  5
BDC8
330
18
100
AcDbEntity
  8
HIDDEN
100
AcDbLine
 10
1612.281910919408
 20
198.403198084317
 30
0.0
 11
1613.391910919408
 21
198.368510584317
 31
0.0
  0
LINE
  5
BDC9
330
18
100
AcDbEntity
  8
HIDDEN
100
AcDbLine
 10
1617.031137601473
 20
187.368510584317
 30
0.0
 11
1615.671910719408
 21
186.583760578067
 31
0.0
  0
LINE
  5
BDCA
330
18
100
AcDbEntity
  8
HIDDEN
100
AcDbLine
 10
1612.281910919408
 20
187.333823084317
 30
0.0
 11
1613.391910919409
 21
187.368510584317
 31
0.0
  0
LINE
  5
BDCB
330
18
100
AcDbEntity
  8
HIDDEN
100
AcDbLine
 10
1615.671910719408
 20
186.583760578067
 30
0.0
 11
1615.671910719408
 21
199.153260590567
 31
0.0
  0
LINE
  5
BDCC
330
18
100
AcDbEntity
  8
HIDDEN
100
AcDbLine
 10
1622.137936123192
 20
196.868510584317
 30
0.0
 11
1621.271910719408
 21
198.368510584317
 31
0.0
  0
LINE
  5
BDCD
330
18
100
AcDbEntity
  8
HIDDEN
100
AcDbLine
 10
1622.137936123192
 20
188.868510584317
 30
0.0
 11
1621.271910719408
 21
187.368510584317
 31
0.0
  0
LINE
  5
BDCE
330
18
100
AcDbEntity
  8
HIDDEN
100
AcDbLine
 10
1621.271910719408
 20
198.368510584317
 30
0.0
 11
1621.271910719408
 21
187.368510584317
 31
0.0
  0
LINE
  5
BDCF
330
18
100
AcDbEntity
  8
HIDDEN
100
AcDbLine
 10
1622.137936123192
 20
196.868510584317
 30
0.0
 11
1622.137936123192
 21
188.868510584317
 31
0.0
  0
LINE
  5
BDD0
330
18
100
AcDbEntity
  8
HIDDEN
100
AcDbLine
 10
1606.271910719408
 20
199.447010590567
 30
0.0
 11
1607.155523622634
 21
198.5633976873412
 31
0.0
  0
LINE
  5
BDD1
330
18
100
AcDbEntity
  8
HIDDEN
100
AcDbLine
 10
1606.271910719408
 20
203.868510584317
 30
0.0
 11
1606.271910719408
 21
199.447010590567
 31
0.0
  0
LINE
  5
BDD3
330
18
100
AcDbEntity
  8
HIDDEN
100
AcDbLine
 10
1606.271910719408
 20
186.290010578067
 30
0.0
 11
1607.155523622634
 21
187.1736234812929
 31
0.0
  0
LINE
  5
BDD4
330
18
100
AcDbEntity
  8
HIDDEN
100
AcDbLine
 10
1611.398298016182
 20
199.2868109875428
 30
0.0
 11
1615.671910719408
 21
199.153260590567
 31
0.0
  0
LINE
  5
BDD5
330
18
100
AcDbEntity
  8
HIDDEN
100
AcDbLine
 10
1611.398298016182
 20
186.4502101810913
 30
0.0
 11
1615.671910719408
 21
186.583760578067
 31
0.0
  0
LINE
  5
BDD6
330
18
100
AcDbEntity
  8
DRAW2
100
AcDbLine
 10
1486.291887713387
 20
282.9532463956977
 30
0.0
 11
1533.914908455838
 21
282.953246395702
 31
0.0
  0
LINE
  5
BDD7
330
18
100
AcDbEntity
  8
DRAW2
100
AcDbLine
 10
1485.291576984337
 20
288.9532463956986
 30
0.0
 11
1533.914908455835
 21
288.9532463957018
 31
0.0
  0
ARC
  5
BDD9
330
18
100
AcDbEntity
  8
DRAW2
100
AcDbCircle
 10
1446.133366553574
 20
259.3282463957014
 30
0.0
 40
25.0
100
AcDbArc
 50
90.0
 51
180.0
  0
ARC
  5
BDDA
330
18
100
AcDbEntity
  8
DRAW2
100
AcDbCircle
 10
1446.133366553574
 20
259.3282463957014
 30
0.0
 40
26.0
100
AcDbArc
 50
90.0
 51
180.0
  0
ARC
  5
BDDB
330
18
100
AcDbEntity
  8
DRAW2
100
AcDbCircle
 10
1445.133366553576
 20
261.3282463957
 30
0.0
 40
26.25
100
AcDbArc
 50
90.0
 51
180.0
  0
ARC
  5
BDDC
330
18
100
AcDbEntity
  8
DRAW2
100
AcDbCircle
 10
1445.133366553576
 20
261.3282463957
 30
0.0
 40
25.0
100
AcDbArc
 50
90.0
 51
180.0
  0
ARC
  5
BDDF
330
18
100
AcDbEntity
  8
DRAW2
100
AcDbCircle
 10
1429.133366553573
 20
259.3282463957009
 30
0.0
 40
25.0
100
AcDbArc
 50
90.0
 51
180.0
  0
ARC
  5
BDE0
330
18
100
AcDbEntity
  8
DRAW2
100
AcDbCircle
 10
1429.133366553573
 20
259.3282463957009
 30
0.0
 40
26.0
100
AcDbArc
 50
90.0
 51
180.0
  0
LINE
  5
BDE2
330
18
100
AcDbEntity
  8
DRAW2
100
AcDbLine
 10
1422.258366553572
 20
287.5782463957002
 30
0.0
 11
1453.505671488163
 21
287.5782463957007
 31
0.0
  0
LINE
  5
BDE4
330
18
100
AcDbEntity
  8
DRAW2
100
AcDbLine
 10
1422.258366553572
 20
286.3282463957002
 30
0.0
 11
1437.129461256786
 21
286.3282463957007
 31
0.0
  0
ARC
  5
BDE5
330
18
100
AcDbEntity
  8
DRAW2
100
AcDbCircle
 10
1422.258366553573
 20
261.3282463957005
 30
0.0
 40
26.25
100
AcDbArc
 50
90.0
 51
180.0
  0
ARC
  5
BDE6
330
18
100
AcDbEntity
  8
DRAW2
100
AcDbCircle
 10
1422.258366553573
 20
261.3282463957005
 30
0.0
 40
25.0
100
AcDbArc
 50
90.0
 51
180.0
  0
LINE
  5
BDE8
330
18
100
AcDbEntity
  8
DRAW2
100
AcDbLine
 10
1453.505671488163
 20
288.9532463957
 30
0.0
 11
1483.291576984335
 21
288.9532463957007
 31
0.0
  0
LINE
  5
BDE9
330
18
100
AcDbEntity
  8
DRAW2
100
AcDbLine
 10
1453.505671488162
 20
282.9532463957
 30
0.0
 11
1484.291887713383
 21
282.9532463957007
 31
0.0
  0
LINE
  5
BDEA
330
18
100
AcDbEntity
  8
DRAW2
100
AcDbLine
 10
1453.505671488163
 20
288.9532463957004
 30
0.0
 11
1453.505671488162
 21
282.9532463957004
 31
0.0
  0
LINE
  5
BDEB
330
18
100
AcDbEntity
  8
DRAW2
100
AcDbLine
 10
1435.335407582444
 20
284.3282463957007
 30
0.0
 11
1438.991938125028
 21
284.3282463957007
 31
0.0
  0
LINE
  5
BDEC
330
18
100
AcDbEntity
  8
DRAW2
100
AcDbLine
 10
1429.133366553572
 20
284.3282463957007
 30
0.0
 11
1432.481785624696
 21
284.3282463957007
 31
0.0
  0
LINE
  5
BDED
330
18
100
AcDbEntity
  8
DRAW2
100
AcDbLine
 10
1446.133366553574
 20
284.3282463957013
 30
0.0
 11
1453.505671488163
 21
284.3282463957013
 31
0.0
  0
LINE
  5
BDEF
330
18
100
AcDbEntity
  8
DRAW2
100
AcDbLine
 10
1438.133366553576
 20
285.3282463957002
 30
0.0
 11
1453.505671488163
 21
285.3282463957011
 31
0.0
  0
LINE
  5
BDF0
330
18
100
AcDbEntity
  8
DRAW2
100
AcDbLine
 10
1429.133366553571
 20
285.3282463956998
 30
0.0
 11
1434.500281394508
 21
285.3282463957002
 31
0.0
  0
LINE
  5
BDF1
330
18
100
AcDbEntity
  8
DRAW2
100
AcDbLine
 10
1445.133366553576
 20
286.3282463957
 30
0.0
 11
1453.505671488163
 21
286.3282463957
 31
0.0
  0
LINE
  5
BDF2
330
18
100
AcDbEntity
  8
DRAW2
100
AcDbLine
 10
1551.914908455836
 20
284.1301609319415
 30
0.0
 11
1576.129731012329
 21
270.1497266105726
 31
0.0
  0
LINE
  5
BDF3
330
18
100
AcDbEntity
  8
DRAW2
100
AcDbLine
 10
1548.914908455841
 20
278.9340085092345
 30
0.0
 11
1572.891033418972
 21
265.0913863076464
 31
0.0
  0
ARC
  5
BDF5
330
18
100
AcDbEntity
  8
DRAW2
100
AcDbCircle
 10
1533.914908455837
 20
252.9532463957012
 30
0.0
 40
36.0
100
AcDbArc
 50
59.99999999999997
 51
90.00000000000374
  0
ARC
  5
BDF6
330
18
100
AcDbEntity
  8
DRAW2
100
AcDbCircle
 10
1533.914908455841
 20
252.9532463957012
 30
0.0
 40
30.0
100
AcDbArc
 50
59.99999999999997
 51
90.00000000000509
  0
ARC
  5
BDF7
330
18
100
AcDbEntity
  8
DRAW2
100
AcDbCircle
 10
1666.271910719408
 20
208.8685105843171
 30
0.0
 40
109.0
100
AcDbArc
 50
294.0473325993706
 51
66.55338274495282
  0
LINE
  5
BDF8
330
18
100
AcDbEntity
  8
DRAW2
100
AcDbLine
 10
1710.923338468137
 20
63.86851058431716
 30
0.0
 11
1756.271910719408
 21
63.86851058431716
 31
0.0
  0
LINE
  5
BDF9
102
{ACAD_REACTORS
330
BE68
102
}
330
18
100
AcDbEntity
  8
DRAW2
100
AcDbLine
 10
1718.271910719408
 20
58.86851058431716
 30
0.0
 11
1754.271910719408
 21
58.86851058431716
 31
0.0
  0
CIRCLE
  5
BDFA
330
18
100
AcDbEntity
  8
DRAW2
100
AcDbCircle
 10
1762.271910719409
 20
208.8685105843171
 30
0.0
 40
13.00000000000004
  0
CIRCLE
  5
BDFB
330
18
100
AcDbEntity
  8
DRAW2
100
AcDbCircle
 10
1762.271910719408
 20
208.8685105843171
 30
0.0
 40
10.99999999999997
  0
LINE
  5
BDFC
330
18
100
AcDbEntity
  8
DRAW2
100
AcDbLine
 10
1756.271910719408
 20
58.86851058431716
 30
0.0
 11
1708.030143440633
 21
58.86851058431716
 31
0.0
  0
LINE
  5
BDFD
330
18
100
AcDbEntity
  8
HIDDEN
100
AcDbLine
 10
1677.333716531975
 20
151.8685105843171
 30
0.0
 11
1677.333716531975
 21
159.7435105843171
 31
0.0
  0
LINE
  5
BDFE
330
18
100
AcDbEntity
  8
HIDDEN
100
AcDbLine
 10
1678.271910719408
 20
150.3685105843171
 30
0.0
 11
1678.271910719408
 21
161.3685105843171
 31
0.0
  0
LINE
  5
BDFF
330
18
100
AcDbEntity
  8
HIDDEN
100
AcDbLine
 10
1683.871910719408
 20
162.153260590567
 30
0.0
 11
1683.871910719408
 21
149.583760578067
 31
0.0
  0
LINE
  5
BE00
330
18
100
AcDbEntity
  8
HIDDEN
100
AcDbLine
 10
1693.271910719408
 20
147.0037387024133
 30
0.0
 11
1693.271910719408
 21
166.8685105843171
 31
0.0
  0
CIRCLE
  5
BE01
330
18
100
AcDbEntity
  8
HIDDEN
100
AcDbCircle
 10
1666.271910719408
 20
155.8685105843171
 30
0.0
 40
4.0
  0
LINE
  5
BE03
102
{ACAD_REACTORS
330
BE6C
102
}
330
18
100
AcDbEntity
  8
DRAW2
100
AcDbLine
 10
1686.454562059161
 20
63.86851058431716
 30
0.0
 11
1699.122267968646
 21
63.86851058431716
 31
0.0
  0
LINE
  5
BE04
102
{ACAD_REACTORS
330
BE6C
102
}
330
18
100
AcDbEntity
  8
DRAW2
100
AcDbLine
 10
1685.353178891409
 20
58.86851058431716
 30
0.0
 11
1700.223651136399
 21
58.86851058431716
 31
0.0
  0
CIRCLE
  5
BE05
102
{ACAD_REACTORS
330
BE6C
102
}
330
18
100
AcDbEntity
  8
DRAW2
100
AcDbCircle
 10
1692.788415013904
 20
112.8850148788126
 30
0.0
 40
7.499999999999997
  0
LINE
  5
BE08
102
{ACAD_REACTORS
330
BE6C
102
}
330
18
100
AcDbEntity
  8
DRAW2
100
AcDbLine
 10
1686.454562059161
 20
108.8685105843172
 30
0.0
 11
1699.122267968646
 21
108.8685105843172
 31
0.0
  0
LINE
  5
BE09
102
{ACAD_REACTORS
330
BE6C
102
}
330
18
100
AcDbEntity
  8
DRAW2
100
AcDbLine
 10
1686.454562059161
 20
108.8685105843174
 30
0.0
 11
1699.122267968646
 21
108.8685105843175
 31
0.0
  0
LINE
  5
BE0A
330
18
100
AcDbEntity
  8
HIDDEN
100
AcDbLine
 10
1688.461325010713
 20
149.4403413814637
 30
0.0
 11
1683.871910719408
 21
149.583760578067
 31
0.0
  0
CIRCLE
  5
BE0C
102
{ACAD_REACTORS
330
BE6C
102
}
330
18
100
AcDbEntity
  8
DRAW2
100
AcDbCircle
 10
1639.755406424912
 20
112.8850148788127
 30
0.0
 40
7.499999999999997
  0
CIRCLE
  5
BE0F
102
{ACAD_REACTORS
330
BE6C
102
}
330
18
100
AcDbEntity
  8
DRAW2
100
AcDbCircle
 10
1666.271910719408
 20
86.36851058431721
 30
0.0
 40
12.00000000000004
  0
LINE
  5
BE10
102
{ACAD_REACTORS
330
BE6C
102
}
330
18
100
AcDbEntity
  8
DRAW2
100
AcDbLine
 10
1633.42155347017
 20
63.86851058431716
 30
0.0
 11
1646.089259379655
 21
63.86851058431716
 31
0.0
  0
LINE
  5
BE11
102
{ACAD_REACTORS
330
BE6C
102
}
330
18
100
AcDbEntity
  8
DRAW2
100
AcDbLine
 10
1632.320170302417
 20
58.86851058431716
 30
0.0
 11
1647.190642547407
 21
58.86851058431716
 31
0.0
  0
LINE
  5
BE12
102
{ACAD_REACTORS
330
BE6C
102
}
330
18
100
AcDbEntity
  8
DRAW2
100
AcDbLine
 10
1644.271910719408
 20
58.86851058431694
 30
0.0
 11
1632.320170302417
 21
58.86851058431694
 31
0.0
  0
CIRCLE
  5
BE13
102
{ACAD_REACTORS
330
BE6C
102
}
330
18
100
AcDbEntity
  8
DRAW2
100
AcDbCircle
 10
1666.271910719408
 20
86.36851058431721
 30
0.0
 40
11.00000000000004
  0
LINE
  5
BE14
102
{ACAD_REACTORS
330
BE6C
102
}
330
18
100
AcDbEntity
  8
DRAW2
100
AcDbLine
 10
1633.42155347017
 20
108.8685105843172
 30
0.0
 11
1646.089259379655
 21
108.8685105843172
 31
0.0
  0
LINE
  5
BE15
102
{ACAD_REACTORS
330
BE6C
102
}
330
18
100
AcDbEntity
  8
DRAW2
100
AcDbLine
 10
1633.42155347017
 20
108.8685105843172
 30
0.0
 11
1646.089259379655
 21
108.8685105843173
 31
0.0
  0
LINE
  5
BE16
330
18
100
AcDbEntity
  8
HIDDEN
100
AcDbLine
 10
1677.405885315624
 20
151.8685105843171
 30
0.0
 11
1666.271910719408
 21
151.8685105843171
 31
0.0
  0
LINE
  5
BE17
330
18
100
AcDbEntity
  8
HIDDEN
100
AcDbLine
 10
1677.405885315624
 20
151.8685105843171
 30
0.0
 11
1678.271910719408
 21
150.3685105843171
 31
0.0
  0
LINE
  5
BE18
330
18
100
AcDbEntity
  8
HIDDEN
100
AcDbLine
 10
1682.512683837343
 20
150.3685105843171
 30
0.0
 11
1683.871910719408
 21
149.583760578067
 31
0.0
  0
LINE
  5
BE19
330
18
100
AcDbEntity
  8
HIDDEN
100
AcDbLine
 10
1686.151910519408
 20
150.3685105843171
 30
0.0
 11
1678.271910719408
 21
150.3685105843171
 31
0.0
  0
LINE
  5
BE1A
330
18
100
AcDbEntity
  8
HIDDEN
100
AcDbLine
 10
1687.605742673582
 20
150.3230783294991
 30
0.0
 11
1686.151910519408
 21
150.3685105843171
 31
0.0
  0
LINE
  5
BE1B
102
{ACAD_REACTORS
330
BE6C
102
}
330
18
100
AcDbEntity
  8
DRAW2
100
AcDbLine
 10
1700.223651136399
 20
58.86851058431716
 30
0.0
 11
1688.271910719408
 21
58.86851058431716
 31
0.0
  0
LINE
  5
BE1C
102
{ACAD_REACTORS
330
BE68
102
}
330
18
100
AcDbEntity
  8
DRAW2
100
AcDbLine
 10
1718.271910719408
 20
58.86851058431716
 30
0.0
 11
1718.271910719408
 21
56.32679112287338
 31
0.0
  0
LINE
  5
BE1D
330
18
100
AcDbEntity
  8
DRAW2
100
AcDbLine
 10
1746.771940719408
 20
63.86848058431713
 30
0.0
 11
1746.771940719408
 21
83.86851058431716
 31
0.0
  0
LINE
  5
BE1E
330
18
100
AcDbEntity
  8
DRAW2
100
AcDbLine
 10
1725.771910719408
 20
63.86848058431713
 30
0.0
 11
1725.771910719408
 21
83.86851058431716
 31
0.0
  0
LINE
  5
BE22
330
18
100
AcDbEntity
  8
DRAW2
100
AcDbLine
 10
1751.271910719408
 20
63.86851058431716
 30
0.0
 11
1751.271910719408
 21
58.86851058431716
 31
0.0
  0
LINE
  5
BE23
330
18
100
AcDbEntity
  8
DRAW2
100
AcDbLine
 10
1725.771910719408
 20
83.86845058431708
 30
0.0
 11
1746.771940719408
 21
83.86845058431708
 31
0.0
  0
LINE
  5
BE24
330
18
100
AcDbEntity
  8
DRAW2
100
AcDbLine
 10
1727.771910719408
 20
85.86848058431712
 30
0.0
 11
1744.771940719408
 21
85.86848058431712
 31
0.0
  0
LINE
  5
BE25
330
18
100
AcDbEntity
  8
DRAW2
100
AcDbLine
 10
1725.771880719408
 20
83.86842058431716
 30
0.0
 11
1727.771880719408
 21
85.86842058431717
 31
0.0
  0
LINE
  5
BE26
330
18
100
AcDbEntity
  8
DRAW2
100
AcDbLine
 10
1744.771820719408
 20
85.86848058431712
 30
0.0
 11
1746.771820719408
 21
83.86848058431713
 31
0.0
  0
LINE
  5
BE28
330
18
100
AcDbEntity
  8
HIDDEN
100
AcDbLine
 10
1693.271910719408
 20
149.290010578067
 30
0.0
 11
1692.388297816182
 21
150.1736234812929
 31
0.0
  0
LINE
  5
BE29
330
18
100
AcDbEntity
  8
HIDDEN
100
AcDbLine
 10
1688.461325010713
 20
162.2966797871704
 30
0.0
 11
1683.871910719408
 21
162.153260590567
 31
0.0
  0
LINE
  5
BE2A
330
18
100
AcDbEntity
  8
HIDDEN
100
AcDbLine
 10
1638.912449473941
 20
185.751690025969
 30
0.0
 11
1626.062343920692
 21
172.90158447272
 31
0.0
  0
LINE
  5
BE2B
330
18
100
AcDbEntity
  8
HIDDEN
100
AcDbLine
 10
1643.476853902829
 20
181.8308130806181
 30
0.0
 11
1630.304984607811
 21
168.6589437856008
 31
0.0
  0
LINE
  5
BE2C
330
18
100
AcDbEntity
  8
HIDDEN
100
AcDbLine
 10
1630.304984607811
 20
168.6589437856008
 30
0.0
 11
1630.633728947606
 21
167.4320532067853
 31
0.0
  0
LINE
  5
BE2D
330
18
100
AcDbEntity
  8
HIDDEN
100
AcDbLine
 10
1624.835453341876
 20
173.230328812515
 30
0.0
 11
1626.062343920692
 21
172.90158447272
 31
0.0
  0
LINE
  5
BE2E
330
18
100
AcDbEntity
  8
HIDDEN
100
AcDbLine
 10
1626.228630477509
 20
162.2204994527452
 30
0.0
 11
1626.523813598449
 21
163.3221378576279
 31
0.0
  0
LINE
  5
BE2F
330
18
100
AcDbEntity
  8
HIDDEN
100
AcDbLine
 10
1624.835453341876
 20
173.230328812515
 30
0.0
 11
1630.633728947606
 21
167.4320532067853
 31
0.0
  0
LINE
  5
BE30
330
18
100
AcDbEntity
  8
HIDDEN
100
AcDbLine
 10
1626.062343920692
 20
172.90158447272
 30
0.0
 11
1630.304984607811
 21
168.6589437856008
 31
0.0
  0
LINE
  5
BE31
330
18
100
AcDbEntity
  8
HIDDEN
100
AcDbLine
 10
1630.633728947606
 20
167.4320532067853
 30
0.0
 11
1625.582158102809
 21
162.3804823619883
 31
0.0
  0
LINE
  5
BE32
330
18
100
AcDbEntity
  8
HIDDEN
100
AcDbLine
 10
1624.290229819408
 20
160.1570406876695
 30
0.0
 11
1624.290229819408
 21
161.0052038667547
 31
0.0
  0
ARC
  5
BE33
330
18
100
AcDbEntity
  8
HIDDEN
100
AcDbCircle
 10
1634.271910719408
 20
192.868510584317
 30
0.0
 40
4.0
100
AcDbArc
 50
140.1262202126481
 51
293.9486550400923
  0
LINE
  5
BE35
330
18
100
AcDbEntity
  8
HIDDEN
100
AcDbLine
 10
1677.405885315624
 20
159.868510584317
 30
0.0
 11
1666.271910719408
 21
159.868510584317
 31
0.0
  0
LINE
  5
BE36
330
18
100
AcDbEntity
  8
HIDDEN
100
AcDbLine
 10
1677.405885315624
 20
159.868510584317
 30
0.0
 11
1678.271910719408
 21
161.3685105843171
 31
0.0
  0
LINE
  5
BE37
330
18
100
AcDbEntity
  8
HIDDEN
100
AcDbLine
 10
1682.512683837343
 20
161.3685105843171
 30
0.0
 11
1683.871910719408
 21
162.153260590567
 31
0.0
  0
LINE
  5
BE38
330
18
100
AcDbEntity
  8
HIDDEN
100
AcDbLine
 10
1686.151910519408
 20
161.3685105843171
 30
0.0
 11
1678.271910719408
 21
161.3685105843171
 31
0.0
  0
LINE
  5
BE39
330
18
100
AcDbEntity
  8
HIDDEN
100
AcDbLine
 10
1687.605742673582
 20
161.413942839135
 30
0.0
 11
1686.151910519408
 21
161.3685105843171
 31
0.0
  0
LINE
  5
BE3C
330
18
100
AcDbEntity
  8
HIDDEN
100
AcDbLine
 10
1719.113655580834
 20
166.8685105843172
 30
0.0
 11
1693.271910719408
 21
166.8685105843171
 31
0.0
  0
LINE
  5
BE3D
330
18
100
AcDbEntity
  8
HIDDEN
100
AcDbLine
 10
1693.271910719408
 20
162.447010590567
 30
0.0
 11
1692.388297816182
 21
161.5633976873413
 31
0.0
  0
LINE
  5
BE3E
102
{ACAD_REACTORS
330
BE68
102
}
330
18
100
AcDbEntity
  8
DRAW2
100
AcDbLine
 10
1754.271910719408
 20
58.86851058431716
 30
0.0
 11
1754.271910719408
 21
56.32679112287338
 31
0.0
  0
LINE
  5
BE3F
330
18
100
AcDbEntity
  8
DRAW2
100
AcDbLine
 10
1756.271910719408
 20
63.86851058431716
 30
0.0
 11
1756.271910719408
 21
58.86851058431716
 31
0.0
  0
LINE
  5
BE41
102
{ACAD_REACTORS
330
BE6C
102
}
330
18
100
AcDbEntity
  8
DRAW2
100
AcDbLine
 10
1688.271910719408
 20
358.8685105843171
 30
0.0
 11
1688.271910719408
 21
363.8726011168389
 31
0.0
  0
LINE
  5
BE42
102
{ACAD_REACTORS
330
BE6C
102
}
330
18
100
AcDbEntity
  8
DRAW2
100
AcDbLine
 10
1644.271910719408
 20
363.8726011168389
 30
0.0
 11
1644.271910719408
 21
358.8685105843174
 31
0.0
  0
CIRCLE
  5
BE43
102
{ACAD_REACTORS
330
BE6C
102
}
330
18
100
AcDbEntity
  8
DRAW2
100
AcDbCircle
 10
1692.788415013904
 20
357.8850148788126
 30
0.0
 40
7.499999999999997
  0
CIRCLE
  5
BE46
102
{ACAD_REACTORS
330
BE6C
102
}
330
18
100
AcDbEntity
  8
DRAW2
100
AcDbCircle
 10
1639.755406424912
 20
357.8850148788126
 30
0.0
 40
7.499999999999997
  0
CIRCLE
  5
BE4B
102
{ACAD_REACTORS
330
BE6C
102
}
330
18
100
AcDbEntity
  8
DRAW2
100
AcDbCircle
 10
1692.788415013904
 20
304.8520062898217
 30
0.0
 40
7.499999999999997
  0
LINE
  5
BE4E
102
{ACAD_REACTORS
330
BE6C
102
}
330
18
100
AcDbEntity
  8
DRAW2
100
AcDbLine
 10
1686.454562059161
 20
308.8685105843171
 30
0.0
 11
1699.122267968646
 21
308.8685105843171
 31
0.0
  0
LINE
  5
BE4F
102
{ACAD_REACTORS
330
BE6C
102
}
330
18
100
AcDbEntity
  8
DRAW2
100
AcDbLine
 10
1686.454562059161
 20
308.8685105843169
 30
0.0
 11
1699.122267968646
 21
308.8685105843167
 31
0.0
  0
LINE
  5
BE50
102
{ACAD_REACTORS
330
BE6C
102
}
330
18
100
AcDbEntity
  8
DRAW2
100
AcDbLine
 10
1686.454562059161
 20
353.8685105843171
 30
0.0
 11
1699.122267968646
 21
353.8685105843171
 31
0.0
  0
LINE
  5
BE51
102
{ACAD_REACTORS
330
BE6C
102
}
330
18
100
AcDbEntity
  8
DRAW2
100
AcDbLine
 10
1685.353178891409
 20
358.8685105843171
 30
0.0
 11
1700.223651136399
 21
358.8685105843171
 31
0.0
  0
CIRCLE
  5
BE52
102
{ACAD_REACTORS
330
BE6C
102
}
330
18
100
AcDbEntity
  8
DRAW2
100
AcDbCircle
 10
1639.755406424912
 20
304.8520062898214
 30
0.0
 40
7.499999999999997
  0
LINE
  5
BE55
102
{ACAD_REACTORS
330
BE6C
102
}
330
18
100
AcDbEntity
  8
DRAW2
100
AcDbLine
 10
1633.42155347017
 20
308.8685105843171
 30
0.0
 11
1646.089259379655
 21
308.8685105843171
 31
0.0
  0
LINE
  5
BE56
102
{ACAD_REACTORS
330
BE6C
102
}
330
18
100
AcDbEntity
  8
DRAW2
100
AcDbLine
 10
1633.42155347017
 20
308.8685105843171
 30
0.0
 11
1646.089259379655
 21
308.8685105843169
 31
0.0
  0
CIRCLE
  5
BE57
102
{ACAD_REACTORS
330
BE6C
102
}
330
18
100
AcDbEntity
  8
DRAW2
100
AcDbCircle
 10
1666.271910719408
 20
331.3685105843171
 30
0.0
 40
12.00000000000004
  0
LINE
  5
BE58
102
{ACAD_REACTORS
330
BE6C
102
}
330
18
100
AcDbEntity
  8
DRAW2
100
AcDbLine
 10
1633.42155347017
 20
353.8685105843171
 30
0.0
 11
1646.089259379655
 21
353.8685105843171
 31
0.0
  0
LINE
  5
BE59
102
{ACAD_REACTORS
330
BE6C
102
}
330
18
100
AcDbEntity
  8
DRAW2
100
AcDbLine
 10
1632.320170302417
 20
358.8685105843171
 30
0.0
 11
1647.190642547407
 21
358.8685105843171
 31
0.0
  0
LINE
  5
BE5A
102
{ACAD_REACTORS
330
BE6C
102
}
330
18
100
AcDbEntity
  8
DRAW2
100
AcDbLine
 10
1644.271910719408
 20
358.8685105843174
 30
0.0
 11
1632.320170302417
 21
358.8685105843174
 31
0.0
  0
CIRCLE
  5
BE5B
102
{ACAD_REACTORS
330
BE6C
102
}
330
18
100
AcDbEntity
  8
DRAW2
100
AcDbCircle
 10
1666.271910719408
 20
331.3685105843171
 30
0.0
 40
11.00000000000004
  0
LINE
  5
BE5C
102
{ACAD_REACTORS
330
BE6C
102
}
330
18
100
AcDbEntity
  8
DRAW2
100
AcDbLine
 10
1700.223651136399
 20
358.8685105843171
 30
0.0
 11
1688.271910719408
 21
358.8685105843171
 31
0.0
  0
LINE
  5
BE5D
102
{ACAD_REACTORS
330
BE6C
102
}
330
18
100
AcDbEntity
  8
DRAW2
100
AcDbLine
 10
1643.473884489052
 20
375.8685105843174
 30
0.0
 11
1628.271910719408
 21
375.8685105843174
 31
0.0
  0
LINE
  5
BE5E
102
{ACAD_REACTORS
330
BE6C
102
}
330
18
100
AcDbEntity
  8
DRAW2
100
AcDbLine
 10
1630.271910719408
 20
377.8685105843174
 30
0.0
 11
1642.271910719408
 21
377.8685105843174
 31
0.0
  0
LINE
  5
BE5F
102
{ACAD_REACTORS
330
BE6C
102
}
330
18
100
AcDbEntity
  8
DRAW2
100
AcDbLine
 10
1630.271910719408
 20
377.8685105843174
 30
0.0
 11
1628.271910719408
 21
375.8685105843174
 31
0.0
  0
LINE
  5
BE60
102
{ACAD_REACTORS
330
BE6C
102
}
330
18
100
AcDbEntity
  8
DRAW2
100
AcDbLine
 10
1628.271910719408
 20
363.8646642028609
 30
0.0
 11
1628.271910719408
 21
375.8685105843174
 31
0.0
  0
LINE
  5
BE61
102
{ACAD_REACTORS
330
BE6C
102
}
330
18
100
AcDbEntity
  8
DRAW2
100
AcDbLine
 10
1642.271910719408
 20
377.8685105843174
 30
0.0
 11
1644.004191524929
 21
376.136229778797
 31
0.0
  0
LINE
  5
BE62
102
{ACAD_REACTORS
330
BE6C
102
}
330
18
100
AcDbEntity
  8
DRAW2
100
AcDbLine
 10
1702.271910719408
 20
377.8685105843171
 30
0.0
 11
1704.271910719408
 21
375.8685105843171
 31
0.0
  0
LINE
  5
BE63
102
{ACAD_REACTORS
330
BE6C
102
}
330
18
100
AcDbEntity
  8
DRAW2
100
AcDbLine
 10
1690.271910719408
 20
377.8685105843171
 30
0.0
 11
1688.539629913888
 21
376.1362297787968
 31
0.0
  0
LINE
  5
BE64
102
{ACAD_REACTORS
330
BE6C
102
}
330
18
100
AcDbEntity
  8
DRAW2
100
AcDbLine
 10
1704.271910719408
 20
375.8685105843171
 30
0.0
 11
1689.069936949763
 21
375.8685105843171
 31
0.0
  0
LINE
  5
BE65
102
{ACAD_REACTORS
330
BE6C
102
}
330
18
100
AcDbEntity
  8
DRAW2
100
AcDbLine
 10
1690.271910719408
 20
377.8685105843171
 30
0.0
 11
1702.271910719408
 21
377.8685105843171
 31
0.0
  0
LINE
  5
BE66
102
{ACAD_REACTORS
330
BE6C
102
}
330
18
100
AcDbEntity
  8
DRAW2
100
AcDbLine
 10
1704.271910719408
 20
375.8685105843171
 30
0.0
 11
1704.271910719408
 21
363.8646642028609
 31
0.0
  0
LINE
  5
BF48
330
18
100
AcDbEntity
  8
HIDDEN
100
AcDbLine
 10
1697.261910519408
 20
149.1653230843171
 30
0.0
 11
1688.461325010713
 21
149.4403413814638
 31
0.0
  0
LINE
  5
BF49
330
18
100
AcDbEntity
  8
HIDDEN
100
AcDbLine
 10
1697.261910519408
 20
150.0213230843172
 30
0.0
 11
1687.605742673582
 21
150.3230783294991
 31
0.0
  0
LINE
  5
BF4A
330
18
100
AcDbEntity
  8
HIDDEN
100
AcDbLine
 10
1697.261910519408
 20
162.5716980843174
 30
0.0
 11
1688.461325010713
 21
162.2966797871704
 31
0.0
  0
LINE
  5
BF4B
330
18
100
AcDbEntity
  8
HIDDEN
100
AcDbLine
 10
1697.261910519408
 20
161.7156980843172
 30
0.0
 11
1687.605742673582
 21
161.4139428391351
 31
0.0
  0
LINE
  5
BF4C
330
18
100
AcDbEntity
  8
HIDDEN
100
AcDbLine
 10
1687.261910519408
 20
161.0591980843172
 30
0.0
 11
1688.461325010713
 21
162.2966797871704
 31
0.0
  0
LINE
  5
BF4D
330
18
100
AcDbEntity
  8
HIDDEN
100
AcDbLine
 10
1687.261910519408
 20
150.677823084317
 30
0.0
 11
1688.461325010713
 21
149.4403413814637
 31
0.0
  0
ARC
  5
BF4E
330
18
100
AcDbEntity
  8
HIDDEN
100
AcDbCircle
 10
1681.784684944356
 20
155.8685105843171
 30
0.0
 40
6.5
100
AcDbArc
 50
327.4210296071975
 51
32.57897039280244
  0
LINE
  5
BF4F
330
18
100
AcDbEntity
  8
HIDDEN
100
AcDbLine
 10
1688.461325010713
 20
149.4403413814638
 30
0.0
 11
1688.461325010713
 21
162.2966797871704
 31
0.0
  0
LINE
  5
BF50
330
18
100
AcDbEntity
  8
HIDDEN
100
AcDbLine
 10
1687.261910519408
 20
150.677823084317
 30
0.0
 11
1687.261910519408
 21
161.0591980843172
 31
0.0
  0
LINE
  5
BF51
330
18
100
AcDbEntity
  8
HIDDEN
100
AcDbLine
 10
1697.261910519408
 20
149.1653230843172
 30
0.0
 11
1697.261910519408
 21
162.5716980843171
 31
0.0
  0
LINE
  5
BF52
330
18
100
AcDbEntity
  8
HIDDEN
100
AcDbLine
 10
1697.261910519408
 20
160.4685105843172
 30
0.0
 11
1693.761910519408
 21
160.4685105843171
 31
0.0
  0
ARC
  5
BF54
330
18
100
AcDbEntity
  8
HIDDEN
100
AcDbCircle
 10
1708.563599612211
 20
155.8685105843171
 30
0.0
 40
15.49999999999998
100
AcDbArc
 50
162.7360436771815
 51
197.2639563228184
  0
LINE
  5
BF55
330
18
100
AcDbEntity
  8
HIDDEN
100
AcDbLine
 10
1697.261910519408
 20
151.2685105843171
 30
0.0
 11
1693.761910519408
 21
151.2685105843171
 31
0.0
  0
VIEWPORT
  5
37
330
15
100
AcDbEntity
 67
     1
  8
0
100
AcDbViewport
 10
296.9950122070312
 20
209.9950000476836
 30
0.0
 40
632.1056339387388
 41
423.1939163498098
 68
     1
 69
     1
 12
296.9950122070312
 22
209.9950000476836
 13
0.0
 23
0.0
 14
10.0
 24
10.0
 15
10.0
 25
10.0
 16
0.0
 26
0.0
 36
1.0
 17
0.0
 27
0.0
 37
0.0
 42
50.0
 43
0.0
 44
0.0
 45
423.1939163498098
 50
0.0
 51
0.0
 72
   100
 90
    32768
  1

281
     0
 71
     1
 74
     0
110
0.0
120
0.0
130
0.0
111
1.0
121
0.0
131
0.0
112
0.0
122
1.0
132
0.0
 79
     0
146
0.0
  0
ENDSEC
  0
SECTION
  2
OBJECTS
  0
DICTIONARY
  5
C
330
0
100
AcDbDictionary
281
     1
  3
ACAD_GROUP
350
D
  3
ACAD_IMAGE_VARS
350
7A9
  3
ACAD_LAYOUT
350
1AD
  3
ACAD_MLINESTYLE
350
1B
  3
ACAD_PLOTSETTINGS
350
1AE
  3
ACAD_PLOTSTYLENAME
350
1AB
  0
DICTIONARY
  5
D
102
{ACAD_REACTORS
330
C
102
}
330
C
100
AcDbDictionary
281
     1
  3
*A1
350
1485
  3
*A2
350
9CCC
  3
*A3
350
9CCD
  3
*A4
350
9CD9
  3
*A5
350
9CE5
  3
*A6
350
9DA0
  3
*A7
350
9E39
  3
*A8
350
BE67
  3
*A9
350
BE68
  3
*A10
350
BE69
  3
*A11
350
BE6A
  3
*A12
350
BE6B
  3
*A13
350
BE6C
  0
RASTERVARIABLES
  5
7A9
102
{ACAD_REACTORS
330
C
102
}
330
C
100
AcDbRasterVariables
 90
        0
 70
     1
 71
     1
 72
     0
  0
DICTIONARY
  5
1AD
102
{ACAD_REACTORS
330
C
102
}
330
C
100
AcDbDictionary
281
     1
  3
Model
350
1AF
  3
ﾚｲｱｳﾄ1
350
1B0
  0
DICTIONARY
  5
1B
102
{ACAD_REACTORS
330
C
102
}
330
C
100
AcDbDictionary
281
     1
  3
STANDARD
350
1C
  0
DICTIONARY
  5
1AE
102
{ACAD_REACTORS
330
C
102
}
330
C
100
AcDbDictionary
281
     1
  3
AdobePDF_A2
350
9F6E
  3
普通紙Ａ３_XL-5800_WinNT40
350
298B
  3
普通紙Ａ３からＡ４_XL-5800_WinNT40
350
298C
  0
ACDBDICTIONARYWDFLT
  5
1AB
102
{ACAD_REACTORS
330
C
102
}
330
C
100
AcDbDictionary
281
     1
  3
Normal
350
1AC
100
AcDbDictionaryWithDefault
340
1AC
  0
GROUP
  5
1485
102
{ACAD_REACTORS
330
D
102
}
330
D
100
AcDbGroup
300

 70
     1
 71
     1
  0
GROUP
  5
9CCC
102
{ACAD_REACTORS
330
D
102
}
330
D
100
AcDbGroup
300

 70
     1
 71
     1
  0
GROUP
  5
9CCD
102
{ACAD_REACTORS
330
D
102
}
330
D
100
AcDbGroup
300

 70
     1
 71
     1
  0
GROUP
  5
9CD9
102
{ACAD_REACTORS
330
D
102
}
330
D
100
AcDbGroup
300

 70
     1
 71
     1
  0
GROUP
  5
9CE5
102
{ACAD_REACTORS
330
D
102
}
330
D
100
AcDbGroup
300

 70
     1
 71
     1
  0
GROUP
  5
9DA0
102
{ACAD_REACTORS
330
D
102
}
330
D
100
AcDbGroup
300

 70
     1
 71
     1
  0
GROUP
  5
9E39
102
{ACAD_REACTORS
330
D
102
}
330
D
100
AcDbGroup
300

 70
     1
 71
     1
  0
GROUP
  5
BE67
102
{ACAD_REACTORS
330
D
102
}
330
D
100
AcDbGroup
300

 70
     1
 71
     1
340
BCD0
340
BCD8
340
BCDB
340
BCDC
340
BCD7
340
BCCF
340
BCD9
340
BCDA
340
BD90
340
BD95
340
BD9A
  0
GROUP
  5
BE68
102
{ACAD_REACTORS
330
D
102
}
330
D
100
AcDbGroup
300

 70
     1
 71
     1
340
BCCE
340
BCEB
340
BCE2
340
BCE3
340
BE1C
340
BCCD
340
BCEA
340
BCEC
340
BDF9
340
BCE4
340
BE3E
  0
GROUP
  5
BE69
102
{ACAD_REACTORS
330
D
102
}
330
D
100
AcDbGroup
300

 70
     1
 71
     1
340
BA78
340
BA82
340
BA85
340
BA86
340
BA81
340
BA77
340
BA83
340
BA84
340
BB4F
340
BB52
340
BB55
  0
GROUP
  5
BE6A
102
{ACAD_REACTORS
330
D
102
}
330
D
100
AcDbGroup
300

 70
     1
 71
     1
340
BA76
340
BA7C
340
BA7F
340
BA80
340
BA7B
340
BA75
340
BA7D
340
BA7E
340
BAE0
340
BAE8
340
BAF3
  0
GROUP
  5
BE6B
102
{ACAD_REACTORS
330
D
102
}
330
D
100
AcDbGroup
300

 70
     1
 71
     1
340
BA71
340
BA72
340
BA73
340
BA74
340
BA87
340
BA89
340
BB3D
340
BB3E
340
BB4E
340
BB93
340
BB96
340
BB97
340
BB99
340
BB9B
340
BB9C
340
BB95
340
BBA4
340
BBAE
340
BBAF
340
BBBF
340
BBCA
340
BBCB
340
BBCC
340
BBD1
340
BBCD
340
BBCE
340
BBD8
340
BBDB
340
BBD0
340
BBDE
340
BBDF
340
BBDA
340
BBDC
340
BBE1
  0
GROUP
  5
BE6C
102
{ACAD_REACTORS
330
D
102
}
330
D
100
AcDbGroup
300

 70
     1
 71
     1
340
BE60
340
BE66
340
BCFA
340
BE13
340
BE0F
340
BCCC
340
BCE0
340
BCDF
340
BCDD
340
BCE1
340
BCDE
340
BE10
340
BCC5
340
BE11
340
BCC4
340
BE12
340
BCE6
340
BCE8
340
BCE9
340
BCE7
340
BCE5
340
BCC9
340
BE03
340
BE1B
340
BE04
340
BCC8
340
BE0C
340
BE14
340
BE15
340
BE05
340
BE08
340
BE09
340
BE5B
340
BE57
340
BE52
340
BE55
340
BE56
340
BE58
340
BE46
340
BE59
340
BE42
340
BE5A
340
BE4B
340
BE4E
340
BE4F
340
BE43
340
BE50
340
BE5C
340
BE51
340
BE41
340
BE5F
340
BE5D
340
BE61
340
BE5E
340
BE64
340
BE65
340
BE63
340
BE62
  0
LAYOUT
  5
1AF
102
{ACAD_REACTORS
330
1AD
102
}
330
1AD
100
AcDbPlotSettings
  1

  2
FUJITSU XL-5800
  4
A4
  6

 40
5.873749732971191
 41
5.704405784606933
 42
5.873748779296875
 43
5.873748779296875
 44
210.0579986572265
 45
296.9259948730469
 46
-934.06
 47
-482.3299999999999
 48
0.0
 49
0.0
140
0.0
141
0.0
142
1.0
143
1.0
 70
 11956
 72
     1
 73
     0
 74
     0
  7
LineScale_10.ctb
 75
    16
147
1.0
148
1033.210332103321
149
625.0
100
AcDbLayout
  1
Model
 70
     1
 71
     0
 10
0.0
 20
0.0
 11
12.0
 21
9.0
 12
0.0
 22
0.0
 32
0.0
 14
0.0
 24
0.0
 34
0.0
 15
0.0
 25
0.0
 35
0.0
146
0.0
 13
0.0
 23
0.0
 33
0.0
 16
1.0
 26
0.0
 36
0.0
 17
0.0
 27
1.0
 37
0.0
 76
     0
330
18
  0
LAYOUT
  5
1B0
102
{ACAD_REACTORS
330
1AD
102
}
330
1AD
100
AcDbPlotSettings
  1
AdobePDF_A2
  2
Adobe PDF
  4
User66
  6
A1
 40
3.174999952316284
 41
3.174999952316284
 42
3.17498779296875
 43
3.17498779296875
 44
420.0
 45
594.0
 46
-3.169999999999999
 47
-3.169999999999999
 48
0.0
 49
0.0
140
594.0
141
420.0
142
1.0
143
1.0
 70
   692
 72
     1
 73
     1
 74
     4
  7
LineScale_10.ctb
 75
    16
147
1.0
148
0.0
149
0.0
100
AcDbLayout
  1
ﾚｲｱｳﾄ1
 70
     1
 71
     1
 10
-0.0049877929687501
 20
-0.0049999523162843
 11
593.9950122070312
 21
419.9950000476837
 12
0.0
 22
0.0
 32
0.0
 14
1.000000000000000E+20
 24
1.000000000000000E+20
 34
1.000000000000000E+20
 15
-1.000000000000000E+20
 25
-1.000000000000000E+20
 35
-1.000000000000000E+20
146
0.0
 13
0.0
 23
0.0
 33
0.0
 16
1.0
 26
0.0
 36
0.0
 17
0.0
 27
1.0
 37
0.0
 76
     0
330
15
331
37
  0
MLINESTYLE
  5
1C
102
{ACAD_REACTORS
330
1B
102
}
330
1B
100
AcDbMlineStyle
  2
STANDARD
 70
     0
  3

 62
   256
 51
90.0
 52
90.0
 71
     2
 49
0.5
 62
   256
  6
BYLAYER
 49
-0.5
 62
   256
  6
BYLAYER
  0
PLOTSETTINGS
  5
9F6E
102
{ACAD_REACTORS
330
1AE
102
}
330
1AE
100
AcDbPlotSettings
  1
AdobePDF_A2
  2
Adobe PDF
  4
User66
  6
A1
 40
3.174999952316284
 41
3.174999952316284
 42
3.17498779296875
 43
3.17498779296875
 44
420.0
 45
594.0
 46
-3.169999999999999
 47
-3.169999999999999
 48
0.0
 49
0.0
140
594.0
141
420.0
142
1.0
143
1.0
 70
   692
 72
     1
 73
     1
 74
     4
  7
LineScale_10.ctb
 75
    16
147
1.0
148
0.0
149
0.0
  0
PLOTSETTINGS
  5
298B
102
{ACAD_REACTORS
330
1AE
102
}
330
1AE
100
AcDbPlotSettings
  1
普通紙Ａ３_XL-5800_WinNT40
  2
FUJITSU XL-5800
  4
A3
  6
A1
 40
5.873749732971191
 41
5.873747825622558
 42
5.70440673828125
 43
5.873748779296875
 44
296.9259948730469
 45
420.1159973144531
 46
-5.009999999999999
 47
-6.7
 48
0.0
 49
0.0
140
420.0
141
297.0
142
1.0
143
1.0
 70
   688
 72
     1
 73
     1
 74
     4
  7
LineScale_10.ctb
 75
    16
147
1.0
148
0.0
149
0.0
  0
PLOTSETTINGS
  5
298C
102
{ACAD_REACTORS
330
1AE
102
}
330
1AE
100
AcDbPlotSettings
  1
普通紙Ａ３からＡ４_XL-5800_WinNT40
  2
FUJITSU XL-5800
  4
A4
  6
A1
 40
5.873749732971191
 41
5.704405784606933
 42
5.873748779296875
 43
5.873748779296875
 44
210.0579986572265
 45
296.9259948730469
 46
-6.4
 47
-5.459999999999999
 48
0.0
 49
0.0
140
420.0
141
297.0
142
0.7071066999999999
143
1.0
 70
   672
 72
     1
 73
     1
 74
     4
  7
LineScale_07.ctb
 75
     0
147
0.7071066999999999
148
0.0
149
0.0
  0
ACDBPLACEHOLDER
  5
1AC
102
{ACAD_REACTORS
330
1AB
102
}
330
1AB
  0
ENDSEC
  0
EOF
