  0
SECTION
  2
HEADER
  9
$ACADVER
  1
AC1015
  9
$ACADMAINTVER
 70
     6
  9
$DWGCODEPAGE
  3
ANSI_932
  9
$INSBASE
 10
0.0
 20
0.0
 30
0.0
  9
$EXTMIN
 10
1173.784854364485
 20
-3.293356224042327
 30
-0.0000000100019835
  9
$EXTMAX
 10
2137.816312139602
 20
787.2520284748725
 30
0.0000000100019837
  9
$LIMMIN
 10
-841.0
 20
-594.0
  9
$LIMMAX
 10
841.0
 20
594.0
  9
$ORTHOMODE
 70
     0
  9
$REGENMODE
 70
     1
  9
$FILLMODE
 70
     1
  9
$QTEXTMODE
 70
     0
  9
$MIRRTEXT
 70
     0
  9
$LTSCALE
 40
7.0
  9
$ATTMODE
 70
     1
  9
$TEXTSIZE
 40
3.2
  9
$TRACEWID
 40
1.0
  9
$TEXTSTYLE
  7
DIMFONT
  9
$CLAYER
  8
DRAW2
  9
$CELTYPE
  6
BYLAYER
  9
$CECOLOR
 62
   256
  9
$CELTSCALE
 40
1.0
  9
$DISPSILH
 70
     0
  9
$DIMSCALE
 40
3.0
  9
$DIMASZ
 40
3.0
  9
$DIMEXO
 40
0.0
  9
$DIMDLI
 40
10.0
  9
$DIMRND
 40
0.0
  9
$DIMDLE
 40
0.0
  9
$DIMEXE
 40
1.0
  9
$DIMTP
 40
0.0
  9
$DIMTM
 40
0.0
  9
$DIMTXT
 40
3.2
  9
$DIMCEN
 40
0.0
  9
$DIMTSZ
 40
0.0
  9
$DIMTOL
 70
     0
  9
$DIMLIM
 70
     0
  9
$DIMTIH
 70
     0
  9
$DIMTOH
 70
     0
  9
$DIMSE1
 70
     0
  9
$DIMSE2
 70
     0
  9
$DIMTAD
 70
     3
  9
$DIMZIN
 70
     8
  9
$DIMBLK
  1

  9
$DIMASO
 70
     1
  9
$DIMSHO
 70
     1
  9
$DIMPOST
  1

  9
$DIMAPOST
  1

  9
$DIMALT
 70
     0
  9
$DIMALTD
 70
     2
  9
$DIMALTF
 40
25.4
  9
$DIMLFAC
 40
1.0
  9
$DIMTOFL
 70
     1
  9
$DIMTVP
 40
0.0
  9
$DIMTIX
 70
     0
  9
$DIMSOXD
 70
     0
  9
$DIMSAH
 70
     1
  9
$DIMBLK1
  1
OPEN
  9
$DIMBLK2
  1
OPEN
  9
$DIMSTYLE
  2
1_3
  9
$DIMCLRD
 70
     0
  9
$DIMCLRE
 70
     0
  9
$DIMCLRT
 70
     0
  9
$DIMTFAC
 40
0.75
  9
$DIMGAP
 40
1.0
  9
$DIMJUST
 70
     0
  9
$DIMSD1
 70
     0
  9
$DIMSD2
 70
     0
  9
$DIMTOLJ
 70
     1
  9
$DIMTZIN
 70
     8
  9
$DIMALTZ
 70
     0
  9
$DIMALTTZ
 70
     0
  9
$DIMUPT
 70
     0
  9
$DIMDEC
 70
     0
  9
$DIMTDEC
 70
     0
  9
$DIMALTU
 70
     2
  9
$DIMALTTD
 70
     2
  9
$DIMTXSTY
  7
DIMFONT
  9
$DIMAUNIT
 70
     0
  9
$DIMADEC
 70
     2
  9
$DIMALTRND
 40
0.0
  9
$DIMAZIN
 70
     2
  9
$DIMDSEP
 70
    46
  9
$DIMATFIT
 70
     1
  9
$DIMFRAC
 70
     0
  9
$DIMLDRBLK
  1
OPEN
  9
$DIMLUNIT
 70
     2
  9
$DIMLWD
 70
    -2
  9
$DIMLWE
 70
    -2
  9
$DIMTMOVE
 70
     0
  9
$LUNITS
 70
     2
  9
$LUPREC
 70
     4
  9
$SKETCHINC
 40
1.0
  9
$FILLETRAD
 40
0.0
  9
$AUNITS
 70
     0
  9
$AUPREC
 70
     4
  9
$MENU
  1
acad
  9
$ELEVATION
 40
0.0
  9
$PELEVATION
 40
0.0
  9
$THICKNESS
 40
0.0
  9
$LIMCHECK
 70
     0
  9
$CHAMFERA
 40
0.0
  9
$CHAMFERB
 40
0.0
  9
$CHAMFERC
 40
0.0
  9
$CHAMFERD
 40
0.0
  9
$SKPOLY
 70
     0
  9
$TDCREATE
 40
2452311.864408912
  9
$TDUCREATE
 40
2452311.489408912
  9
$TDUPDATE
 40
2454973.584355104
  9
$TDUUPDATE
 40
2454973.209355104
  9
$TDINDWG
 40
0.9947531829
  9
$TDUSRTIMER
 40
0.9947528935
  9
$USRTIMER
 70
     1
  9
$ANGBASE
 50
0.0
  9
$ANGDIR
 70
     0
  9
$PDMODE
 70
    35
  9
$PDSIZE
 40
0.5
  9
$PLINEWID
 40
0.0
  9
$SPLFRAME
 70
     0
  9
$SPLINETYPE
 70
     6
  9
$SPLINESEGS
 70
     8
  9
$HANDSEED
  5
D6F7
  9
$SURFTAB1
 70
     6
  9
$SURFTAB2
 70
     6
  9
$SURFTYPE
 70
     6
  9
$SURFU
 70
     6
  9
$SURFV
 70
     6
  9
$UCSBASE
  2

  9
$UCSNAME
  2

  9
$UCSORG
 10
0.0
 20
0.0
 30
0.0
  9
$UCSXDIR
 10
1.0
 20
0.0
 30
0.0
  9
$UCSYDIR
 10
0.0
 20
1.0
 30
0.0
  9
$UCSORTHOREF
  2

  9
$UCSORTHOVIEW
 70
     0
  9
$UCSORGTOP
 10
0.0
 20
0.0
 30
0.0
  9
$UCSORGBOTTOM
 10
0.0
 20
0.0
 30
0.0
  9
$UCSORGLEFT
 10
0.0
 20
0.0
 30
0.0
  9
$UCSORGRIGHT
 10
0.0
 20
0.0
 30
0.0
  9
$UCSORGFRONT
 10
0.0
 20
0.0
 30
0.0
  9
$UCSORGBACK
 10
0.0
 20
0.0
 30
0.0
  9
$PUCSBASE
  2

  9
$PUCSNAME
  2

  9
$PUCSORG
 10
0.0
 20
0.0
 30
0.0
  9
$PUCSXDIR
 10
1.0
 20
0.0
 30
0.0
  9
$PUCSYDIR
 10
0.0
 20
1.0
 30
0.0
  9
$PUCSORTHOREF
  2

  9
$PUCSORTHOVIEW
 70
     0
  9
$PUCSORGTOP
 10
0.0
 20
0.0
 30
0.0
  9
$PUCSORGBOTTOM
 10
0.0
 20
0.0
 30
0.0
  9
$PUCSORGLEFT
 10
0.0
 20
0.0
 30
0.0
  9
$PUCSORGRIGHT
 10
0.0
 20
0.0
 30
0.0
  9
$PUCSORGFRONT
 10
0.0
 20
0.0
 30
0.0
  9
$PUCSORGBACK
 10
0.0
 20
0.0
 30
0.0
  9
$USERI1
 70
     0
  9
$USERI2
 70
     0
  9
$USERI3
 70
     0
  9
$USERI4
 70
     0
  9
$USERI5
 70
     0
  9
$USERR1
 40
0.0
  9
$USERR2
 40
0.0
  9
$USERR3
 40
0.0
  9
$USERR4
 40
0.0
  9
$USERR5
 40
0.0
  9
$WORLDVIEW
 70
     1
  9
$SHADEDGE
 70
     3
  9
$SHADEDIF
 70
    70
  9
$TILEMODE
 70
     1
  9
$MAXACTVP
 70
    48
  9
$PINSBASE
 10
0.0
 20
0.0
 30
0.0
  9
$PLIMCHECK
 70
     0
  9
$PEXTMIN
 10
1.000000000000000E+20
 20
1.000000000000000E+20
 30
1.000000000000000E+20
  9
$PEXTMAX
 10
-1.000000000000000E+20
 20
-1.000000000000000E+20
 30
-1.000000000000000E+20
  9
$PLIMMIN
 10
-0.0049877929687501
 20
-0.0049999523162843
  9
$PLIMMAX
 10
840.9950122070311
 20
593.9950000476836
  9
$UNITMODE
 70
     0
  9
$VISRETAIN
 70
     0
  9
$PLINEGEN
 70
     1
  9
$PSLTSCALE
 70
     1
  9
$TREEDEPTH
 70
  3020
  9
$CMLSTYLE
  2
STANDARD
  9
$CMLJUST
 70
     0
  9
$CMLSCALE
 40
20.0
  9
$PROXYGRAPHICS
 70
     1
  9
$MEASUREMENT
 70
     1
  9
$CELWEIGHT
370
    -1
  9
$ENDCAPS
280
     0
  9
$JOINSTYLE
280
     0
  9
$LWDISPLAY
290
     0
  9
$INSUNITS
 70
     0
  9
$HYPERLINKBASE
  1

  9
$STYLESHEET
  1

  9
$XEDIT
290
     1
  9
$CEPSNTYPE
380
     0
  9
$PSTYLEMODE
290
     1
  9
$FINGERPRINTGUID
  2
{7FD28A7C-F8BA-11D3-9BCC-00A0C977751D}
  9
$VERSIONGUID
  2
{B09DC2F2-A429-4B27-BC95-E58938B66E49}
  9
$EXTNAMES
290
     1
  9
$PSVPSCALE
 40
0.0
  9
$OLESTARTUP
290
     0
  0
ENDSEC
  0
SECTION
  2
CLASSES
  0
CLASS
  1
LWPOLYLINE
  2
AcDbPolyline
  3
AutoCAD 2000
 90
    32768
280
     0
281
     1
  0
CLASS
  1
ACDBDICTIONARYWDFLT
  2
AcDbDictionaryWithDefault
  3
AutoCAD 2000
 90
        0
280
     0
281
     0
  0
CLASS
  1
ACDBPLACEHOLDER
  2
AcDbPlaceHolder
  3
AutoCAD 2000
 90
        0
280
     0
281
     0
  0
CLASS
  1
LAYOUT
  2
AcDbLayout
  3
AutoCAD 2000
 90
        0
280
     0
281
     0
  0
CLASS
  1
PLOTSETTINGS
  2
AcDbPlotSettings
  3
AutoCAD 2000
 90
        0
280
     0
281
     0
  0
CLASS
  1
RASTERVARIABLES
  2
AcDbRasterVariables
  3
ISM
 90
        0
280
     0
281
     0
  0
ENDSEC
  0
SECTION
  2
TABLES
  0
TABLE
  2
VPORT
  5
8
330
0
100
AcDbSymbolTable
 70
     2
  0
VPORT
  5
D6F6
330
8
100
AcDbSymbolTableRecord
100
AcDbViewportTableRecord
  2
*Active
 70
     0
 10
0.0
 20
0.0
 11
1.0
 21
1.0
 12
1655.800583252044
 22
391.979336125415
 13
0.0
 23
0.0
 14
5.0
 24
5.0
 15
10.0
 25
10.0
 16
0.0
 26
0.0
 36
1.0
 17
0.0
 27
0.0
 37
0.0
 40
796.5571366738116
 41
1.493654822335025
 42
50.0
 43
0.0
 44
0.0
 50
0.0
 51
0.0
 71
     0
 72
   100
 73
     1
 74
     0
 75
     0
 76
     0
 77
     0
 78
     1
281
     0
 65
     1
110
0.0
120
0.0
130
0.0
111
1.0
121
0.0
131
0.0
112
0.0
122
1.0
132
0.0
 79
     0
146
0.0
  0
ENDTAB
  0
TABLE
  2
LTYPE
  5
5
330
0
100
AcDbSymbolTable
 70
     2
  0
LTYPE
  5
12
330
5
100
AcDbSymbolTableRecord
100
AcDbLinetypeTableRecord
  2
BYBLOCK
 70
     0
  3

 72
    65
 73
     0
 40
0.0
  0
LTYPE
  5
13
330
5
100
AcDbSymbolTableRecord
100
AcDbLinetypeTableRecord
  2
BYLAYER
 70
     0
  3

 72
    65
 73
     0
 40
0.0
  0
LTYPE
  5
14
330
5
100
AcDbSymbolTableRecord
100
AcDbLinetypeTableRecord
  2
CONTINUOUS
 70
     0
  3
Solid line
 72
    65
 73
     0
 40
0.0
  0
LTYPE
  5
23
330
5
100
AcDbSymbolTableRecord
100
AcDbLinetypeTableRecord
  2
HIDDEN
 70
     0
  3
__ __ __ __ __ __ __ __ __ __ __ __ __ __ __ __
 72
    65
 73
     2
 40
0.375
 49
0.25
 74
     0
 49
-0.125
 74
     0
  0
ENDTAB
  0
TABLE
  2
LAYER
  5
2
330
0
100
AcDbSymbolTable
 70
     6
  0
LAYER
  5
E
330
2
100
AcDbSymbolTableRecord
100
AcDbLayerTableRecord
  2
0
 70
     0
 62
     7
  6
CONTINUOUS
370
    -3
390
1AC
  0
LAYER
  5
29
330
2
100
AcDbSymbolTableRecord
100
AcDbLayerTableRecord
  2
DRAW2
 70
     0
 62
     4
  6
CONTINUOUS
370
    -3
390
1AC
  0
LAYER
  5
2A
330
2
100
AcDbSymbolTableRecord
100
AcDbLayerTableRecord
  2
DRAW3
 70
     0
 62
     1
  6
CONTINUOUS
370
    -3
390
1AC
  0
LAYER
  5
2C
330
2
100
AcDbSymbolTableRecord
100
AcDbLayerTableRecord
  2
HIDDEN
 70
     0
 62
     7
  6
HIDDEN
370
    -3
390
1AC
  0
LAYER
  5
133
330
2
100
AcDbSymbolTableRecord
100
AcDbLayerTableRecord
  2
DEFPOINTS
 70
     0
 62
     7
  6
CONTINUOUS
290
     0
370
    -3
390
1AC
  0
ENDTAB
  0
TABLE
  2
STYLE
  5
3
330
0
100
AcDbSymbolTable
 70
     2
  0
STYLE
  5
F
330
3
100
AcDbSymbolTableRecord
100
AcDbTextStyleTableRecord
  2
STANDARD
 70
     0
 40
0.0
 41
1.0
 50
0.0
 71
     0
 42
2.5
  3
txt
  4

  0
STYLE
  5
30
330
3
100
AcDbSymbolTableRecord
100
AcDbTextStyleTableRecord
  2
DIMFONT
 70
     0
 40
0.0
 41
1.0
 50
10.0
 71
     0
 42
3.2
  3
romans.shx
  4
extfont.shx
  0
ENDTAB
  0
TABLE
  2
VIEW
  5
6
330
0
100
AcDbSymbolTable
 70
     5
  0
VIEW
  5
C27
330
6
100
AcDbSymbolTableRecord
100
AcDbViewTableRecord
  2
View1
 70
     0
 40
1250.0
 10
0.0
 20
0.0
 41
2066.420664206642
 11
0.0
 21
0.0
 31
1.0
 12
0.0
 22
0.0
 32
0.0
 42
50.0
 43
0.0
 44
0.0
 50
0.0
 71
     0
281
     0
 72
     1
110
0.0
120
0.0
130
0.0
111
1.0
121
0.0
131
0.0
112
0.0
122
1.0
132
0.0
 79
     0
146
0.0
  0
VIEW
  5
C2A
330
6
100
AcDbSymbolTableRecord
100
AcDbViewTableRecord
  2
A4
 70
     1
 40
314.2148930664061
 10
103.8222427368164
 20
144.5197510242462
 41
519.4401184271216
 11
0.0
 21
0.0
 31
1.0
 12
0.0
 22
0.0
 32
0.0
 42
50.0
 43
0.0
 44
0.0
 50
0.0
 71
     0
281
     0
 72
     1
110
0.0
120
0.0
130
0.0
111
1.0
121
0.0
131
0.0
112
0.0
122
1.0
132
0.0
 79
     0
146
0.0
  0
VIEW
  5
C2B
330
6
100
AcDbSymbolTableRecord
100
AcDbViewTableRecord
  2
A3
 70
     1
 40
314.2148930664061
 10
205.819491624832
 20
151.3197510242461
 41
519.4401184271216
 11
0.0
 21
0.0
 31
1.0
 12
0.0
 22
0.0
 32
0.0
 42
50.0
 43
0.0
 44
0.0
 50
0.0
 71
     0
281
     0
 72
     1
110
0.0
120
0.0
130
0.0
111
1.0
121
0.0
131
0.0
112
0.0
122
1.0
132
0.0
 79
     0
146
0.0
  0
VIEW
  5
C2C
330
6
100
AcDbSymbolTableRecord
100
AcDbViewTableRecord
  2
A2
 70
     1
 40
444.348344177246
 10
293.3145020008086
 20
213.319491624832
 41
734.5684804110931
 11
0.0
 21
0.0
 31
1.0
 12
0.0
 22
0.0
 32
0.0
 42
50.0
 43
0.0
 44
0.0
 50
0.0
 71
     0
281
     0
 72
     1
110
0.0
120
0.0
130
0.0
111
1.0
121
0.0
131
0.0
112
0.0
122
1.0
132
0.0
 79
     0
146
0.0
  0
VIEW
  5
C2D
330
6
100
AcDbSymbolTableRecord
100
AcDbViewTableRecord
  2
A1
 70
     1
 40
628.2954051513671
 10
422.5084997558592
 20
293.4384954071043
 41
1038.658086744695
 11
0.0
 21
0.0
 31
1.0
 12
0.0
 22
0.0
 32
0.0
 42
50.0
 43
0.0
 44
0.0
 50
0.0
 71
     0
281
     0
 72
     1
110
0.0
120
0.0
130
0.0
111
1.0
121
0.0
131
0.0
112
0.0
122
1.0
132
0.0
 79
     0
146
0.0
  0
ENDTAB
  0
TABLE
  2
UCS
  5
7
330
0
100
AcDbSymbolTable
 70
     0
  0
ENDTAB
  0
TABLE
  2
APPID
  5
9
330
0
100
AcDbSymbolTable
 70
     1
  0
APPID
  5
10
330
9
100
AcDbSymbolTableRecord
100
AcDbRegAppTableRecord
  2
ACAD
 70
     0
  0
ENDTAB
  0
TABLE
  2
DIMSTYLE
  5
A
330
0
100
AcDbSymbolTable
 70
     2
100
AcDbDimStyleTable
 71
     1
340
4D
  0
DIMSTYLE
105
4D
330
A
100
AcDbSymbolTableRecord
100
AcDbDimStyleTableRecord
  2
1_3
 70
     0
 40
3.0
 41
3.0
 42
0.0
 43
10.0
 44
1.0
 73
     0
 74
     0
 77
     3
 78
     8
 79
     2
140
3.2
141
0.0
146
0.75
147
1.0
172
     1
173
     1
179
     2
271
     0
272
     0
284
     8
289
     1
340
30
341
125
343
125
344
125
  0
DIMSTYLE
105
26A3
330
A
100
AcDbSymbolTableRecord
100
AcDbDimStyleTableRecord
  2
STANDARD
 70
     0
340
F
  0
ENDTAB
  0
TABLE
  2
BLOCK_RECORD
  5
1
330
0
100
AcDbSymbolTable
 70
     1
  0
BLOCK_RECORD
  5
18
330
1
100
AcDbSymbolTableRecord
100
AcDbBlockTableRecord
  2
*MODEL_SPACE
340
1AF
  0
BLOCK_RECORD
  5
15
330
1
100
AcDbSymbolTableRecord
100
AcDbBlockTableRecord
  2
*PAPER_SPACE
340
1B0
  0
BLOCK_RECORD
  5
125
330
1
100
AcDbSymbolTableRecord
100
AcDbBlockTableRecord
  2
_OPEN
340
0
102
{BLKREFS
331
2665
331
2666
331
2671
331
2672
331
267D
331
267E
331
CE2A
331
CE2B
331
CE4E
331
CE4F
331
CE60
331
CE61
331
CE69
331
CE6A
331
D510
331
D511
331
D5CD
331
D5CE
331
D5DF
331
D5E0
331
D5FA
331
D5FB
331
D603
331
D604
331
D615
331
D616
331
D627
331
D628
331
D66E
331
D66F
331
D677
331
D678
331
D689
331
D68A
331
D69B
331
D69C
331
D6B6
331
D6B7
331
D6BF
331
D6C0
331
D6CF
331
D6D0
102
}
  0
ENDTAB
  0
ENDSEC
  0
SECTION
  2
BLOCKS
  0
BLOCK
  5
19
330
18
100
AcDbEntity
  8
0
100
AcDbBlockBegin
  2
*MODEL_SPACE
 70
     0
 10
0.0
 20
0.0
 30
0.0
  3
*MODEL_SPACE
  1

  0
ENDBLK
  5
1A
330
18
100
AcDbEntity
  8
0
100
AcDbBlockEnd
  0
BLOCK
  5
16
330
15
100
AcDbEntity
 67
     1
  8
0
100
AcDbBlockBegin
  2
*PAPER_SPACE
 70
     0
 10
0.0
 20
0.0
 30
0.0
  3
*PAPER_SPACE
  1

  0
ENDBLK
  5
17
330
15
100
AcDbEntity
 67
     1
  8
0
100
AcDbBlockEnd
  0
BLOCK
  5
126
330
125
100
AcDbEntity
  8
0
100
AcDbBlockBegin
  2
_OPEN
 70
     0
 10
0.0
 20
0.0
 30
0.0
  3
_OPEN
  1

  0
LINE
  5
127
330
125
100
AcDbEntity
  8
0
  6
ByBlock
 62
     0
100
AcDbLine
 10
-1.0
 20
0.1666666666666666
 30
0.0
 11
0.0
 21
0.0
 31
0.0
  0
LINE
  5
128
330
125
100
AcDbEntity
  8
0
  6
ByBlock
 62
     0
100
AcDbLine
 10
0.0
 20
0.0
 30
0.0
 11
-1.0
 21
-0.1666666666666666
 31
0.0
  0
LINE
  5
129
330
125
100
AcDbEntity
  8
0
  6
ByBlock
 62
     0
100
AcDbLine
 10
0.0
 20
0.0
 30
0.0
 11
-1.0
 21
0.0
 31
0.0
  0
ENDBLK
  5
12A
330
125
100
AcDbEntity
  8
0
100
AcDbBlockEnd
  0
ENDSEC
  0
SECTION
  2
ENTITIES
  0
TEXT
  5
2783
330
18
100
AcDbEntity
  8
0
100
AcDbText
 10
289.9791188454981
 20
596.5343442442899
 30
0.0
 40
3.2
  1

 51
10.0
  7
DIMFONT
100
AcDbText
  0
TEXT
  5
2791
330
18
100
AcDbEntity
  8
0
100
AcDbText
 10
399.046620988657
 20
559.3598774521149
 30
0.0
 40
3.2
  1

 51
10.0
  7
DIMFONT
100
AcDbText
  0
LINE
  5
D1D9
330
18
100
AcDbEntity
  8
DRAW2
100
AcDbLine
 10
1583.484503972794
 20
135.9324563050793
 30
0.0
 11
1583.484505401548
 21
11.93245615335353
 31
0.0
  0
LINE
  5
D1DA
330
18
100
AcDbEntity
  8
DRAW2
100
AcDbLine
 10
1580.484503972793
 20
135.9324563050793
 30
0.0
 11
1580.484505401549
 21
11.93245615335353
 31
0.0
  0
LINE
  5
D1DB
330
18
100
AcDbEntity
  8
DRAW2
100
AcDbLine
 10
1586.484493972796
 20
136.4324563050792
 30
0.0
 11
1586.484493972796
 21
11.43245630507931
 31
0.0
  0
LINE
  5
D1DC
330
18
100
AcDbEntity
  8
DRAW2
100
AcDbLine
 10
1511.484493972796
 20
105.9324563050792
 30
0.0
 11
1511.484493972796
 21
41.93245630507941
 31
0.0
  0
LINE
  5
D1DE
330
18
100
AcDbEntity
  8
DRAW2
100
AcDbLine
 10
1606.484493972796
 20
136.4324563050792
 30
0.0
 11
1606.484493972796
 21
11.43245630507931
 31
0.0
  0
LINE
  5
D1DF
330
18
100
AcDbEntity
  8
DRAW2
100
AcDbLine
 10
1424.484493972796
 20
105.9324563050795
 30
0.0
 11
1424.484493972796
 21
41.93245630507941
 31
0.0
  0
LINE
  5
D1E0
330
18
100
AcDbEntity
  8
DRAW2
100
AcDbLine
 10
1302.484493972795
 20
105.9324563050792
 30
0.0
 11
1302.484493972795
 21
41.93245630507954
 31
0.0
  0
LINE
  5
D1E2
330
18
100
AcDbEntity
  8
DRAW2
100
AcDbLine
 10
1215.484493972796
 20
105.9324563050792
 30
0.0
 11
1215.484493972796
 21
41.93245630507954
 31
0.0
  0
LINE
  5
D1E4
330
18
100
AcDbEntity
  8
DRAW2
100
AcDbLine
 10
1481.984403972795
 20
63.93239630507858
 30
0.0
 11
1464.984403972795
 21
63.93239630507858
 31
0.0
  0
LINE
  5
D1E5
330
18
100
AcDbEntity
  8
DRAW2
100
AcDbLine
 10
1483.984493972793
 20
61.93239630507858
 30
0.0
 11
1462.984433972795
 21
61.93239630507858
 31
0.0
  0
LINE
  5
D1E6
330
18
100
AcDbEntity
  8
DRAW2
100
AcDbLine
 10
1455.484493972794
 20
26.93245630507954
 30
0.0
 11
1491.484493972794
 21
26.93245630507954
 31
0.0
  0
LINE
  5
D1E7
330
18
100
AcDbEntity
  8
DRAW2
100
AcDbLine
 10
1462.984493972793
 20
26.93245630507954
 30
0.0
 11
1483.984493972793
 21
26.93245630507954
 31
0.0
  0
LINE
  5
D1E8
330
18
100
AcDbEntity
  8
DRAW2
100
AcDbLine
 10
1489.484493972794
 20
16.93245630507954
 30
0.0
 11
1459.484493972794
 21
16.93245630507954
 31
0.0
  0
LINE
  5
D1E9
330
18
100
AcDbEntity
  8
DRAW2
100
AcDbLine
 10
1459.345681393602
 20
-3.067543694920458
 30
0.0
 11
1487.623306551986
 21
-3.067543694920458
 31
0.0
  0
LINE
  5
D1EA
330
18
100
AcDbEntity
  8
DRAW2
100
AcDbLine
 10
1511.484493972794
 20
41.93245630507954
 30
0.0
 11
1215.484493972794
 21
41.93245630507954
 31
0.0
  0
LINE
  5
D1EB
330
18
100
AcDbEntity
  8
DRAW2
100
AcDbLine
 10
1215.484493972794
 20
26.93245630507954
 30
0.0
 11
1511.484493972794
 21
26.93245630507954
 31
0.0
  0
LINE
  5
D1EC
330
18
100
AcDbEntity
  8
DRAW2
100
AcDbLine
 10
1511.484493972796
 20
41.93245630507839
 30
0.0
 11
1424.484493972796
 21
41.93245630507873
 31
0.0
  0
LINE
  5
D1ED
330
18
100
AcDbEntity
  8
DRAW2
100
AcDbLine
 10
1303.484493972796
 20
51.43245630507919
 30
0.0
 11
1423.484493972796
 21
51.43245630507932
 31
0.0
  0
LINE
  5
D1EE
330
18
100
AcDbEntity
  8
DRAW2
100
AcDbLine
 10
1302.484493972795
 20
41.93245630507954
 30
0.0
 11
1215.484493972796
 21
41.93245630507954
 31
0.0
  0
LINE
  5
D1EF
330
18
100
AcDbEntity
  8
DRAW2
100
AcDbLine
 10
1215.484493972794
 20
41.93245630507954
 30
0.0
 11
1215.484493972794
 21
26.93245630507954
 31
0.0
  0
LINE
  5
D1F1
330
18
100
AcDbEntity
  8
DRAW2
100
AcDbLine
 10
1235.484493972794
 20
26.93245630507954
 30
0.0
 11
1271.484493972794
 21
26.93245630507954
 31
0.0
  0
ARC
  5
D1F2
330
18
100
AcDbEntity
  8
DRAW2
100
AcDbCircle
 10
1239.345681393602
 20
-2.067543694920459
 30
0.0
 40
1.0
100
AcDbArc
 50
188.5307656099491
 51
270.0
  0
LINE
  5
D1F3
330
18
100
AcDbEntity
  8
DRAW2
100
AcDbLine
 10
1267.484493972794
 20
16.93245630507954
 30
0.0
 11
1237.484493972794
 21
16.93245630507954
 31
0.0
  0
LINE
  5
D1F4
330
18
100
AcDbEntity
  8
DRAW2
100
AcDbLine
 10
1235.484493972794
 20
16.93245630507954
 30
0.0
 11
1238.356745040734
 21
-2.215884147850601
 31
0.0
  0
LINE
  5
D1F5
330
18
100
AcDbEntity
  8
DRAW2
100
AcDbLine
 10
1235.484493972794
 20
26.93245630507954
 30
0.0
 11
1235.484493972794
 21
16.93245630507954
 31
0.0
  0
LINE
  5
D1F6
330
18
100
AcDbEntity
  8
DRAW2
100
AcDbLine
 10
1268.612242904854
 20
-2.215884147850828
 30
0.0
 11
1271.484493972794
 21
16.93245630507954
 31
0.0
  0
LINE
  5
D1F7
330
18
100
AcDbEntity
  8
DRAW2
100
AcDbLine
 10
1239.345681393602
 20
-3.067543694920458
 30
0.0
 11
1267.623306551985
 21
-3.067543694920458
 31
0.0
  0
ARC
  5
D1F8
330
18
100
AcDbEntity
  8
DRAW2
100
AcDbCircle
 10
1267.623306551985
 20
-2.067543694920459
 30
0.0
 40
1.0
100
AcDbArc
 50
270.0
 51
351.4692343900506
  0
LINE
  5
D1F9
330
18
100
AcDbEntity
  8
DRAW2
100
AcDbLine
 10
1271.484493972794
 20
26.93245630507954
 30
0.0
 11
1271.484493972794
 21
16.93245630507954
 31
0.0
  0
LINE
  5
D1FA
330
18
100
AcDbEntity
  8
DRAW2
100
AcDbLine
 10
1263.984493972794
 20
61.93239630507858
 30
0.0
 11
1242.984433972795
 21
61.93239630507858
 31
0.0
  0
LINE
  5
D1FB
330
18
100
AcDbEntity
  8
DRAW2
100
AcDbLine
 10
1261.984403972794
 20
63.93239630507858
 30
0.0
 11
1244.984403972794
 21
63.93239630507858
 31
0.0
  0
LINE
  5
D1FC
330
18
100
AcDbEntity
  8
DRAW2
100
AcDbLine
 10
1244.984493972794
 20
63.93233630507849
 30
0.0
 11
1242.984523972794
 21
61.93236630507854
 31
0.0
  0
LINE
  5
D1FD
330
18
100
AcDbEntity
  8
DRAW2
100
AcDbLine
 10
1242.984433972795
 20
61.93245630507854
 30
0.0
 11
1242.984433972795
 21
41.93245630507854
 31
0.0
  0
LINE
  5
D1FE
330
18
100
AcDbEntity
  8
DRAW2
100
AcDbLine
 10
1263.984613972795
 20
61.93254630507855
 30
0.0
 11
1261.984583972794
 21
63.93251630507851
 31
0.0
  0
LINE
  5
D1FF
330
18
100
AcDbEntity
  8
DRAW2
100
AcDbLine
 10
1263.984493972794
 20
61.93245630507854
 30
0.0
 11
1263.984493972794
 21
41.93245630507854
 31
0.0
  0
ARC
  5
D200
330
18
100
AcDbEntity
  8
DRAW2
100
AcDbCircle
 10
1303.484493972796
 20
50.4324563050792
 30
0.0
 40
1.0
100
AcDbArc
 50
90.0
 51
180.0
  0
LINE
  5
D201
330
18
100
AcDbEntity
  8
DRAW2
100
AcDbLine
 10
1455.484493972794
 20
16.93245630507954
 30
0.0
 11
1458.356745040734
 21
-2.215884147850601
 31
0.0
  0
ARC
  5
D202
330
18
100
AcDbEntity
  8
DRAW2
100
AcDbCircle
 10
1459.345681393602
 20
-2.067543694920459
 30
0.0
 40
1.0
100
AcDbArc
 50
188.5307656099491
 51
270.0
  0
LINE
  5
D203
330
18
100
AcDbEntity
  8
DRAW2
100
AcDbLine
 10
1455.484493972794
 20
26.93245630507954
 30
0.0
 11
1455.484493972794
 21
16.93245630507954
 31
0.0
  0
ARC
  5
D204
330
18
100
AcDbEntity
  8
DRAW2
100
AcDbCircle
 10
1423.484493972796
 20
50.43245630507932
 30
0.0
 40
1.0
100
AcDbArc
 50
0.0
 51
90.0
  0
LINE
  5
D205
330
18
100
AcDbEntity
  8
DRAW2
100
AcDbLine
 10
1462.984433972795
 20
61.93245630507854
 30
0.0
 11
1462.984433972795
 21
41.93245630507854
 31
0.0
  0
LINE
  5
D206
330
18
100
AcDbEntity
  8
DRAW2
100
AcDbLine
 10
1464.984493972794
 20
63.93233630507849
 30
0.0
 11
1462.984523972793
 21
61.93236630507854
 31
0.0
  0
LINE
  5
D208
330
18
100
AcDbEntity
  8
DRAW2
100
AcDbLine
 10
1586.484493972796
 20
11.43245630507931
 30
0.0
 11
1606.484493972796
 21
11.43245630507931
 31
0.0
  0
LINE
  5
D209
330
18
100
AcDbEntity
  8
DRAW2
100
AcDbLine
 10
1512.484493972795
 20
46.43245630507932
 30
0.0
 11
1580.484505004031
 21
46.43245630507932
 31
0.0
  0
LINE
  5
D20A
330
18
100
AcDbEntity
  8
DRAW2
100
AcDbLine
 10
1511.484493972794
 20
26.93245630507954
 30
0.0
 11
1511.484493972794
 21
41.93245630507954
 31
0.0
  0
LINE
  5
D20C
330
18
100
AcDbEntity
  8
DRAW2
100
AcDbLine
 10
1488.612242904854
 20
-2.215884147850828
 30
0.0
 11
1491.484493972794
 21
16.93245630507954
 31
0.0
  0
ARC
  5
D20D
330
18
100
AcDbEntity
  8
DRAW2
100
AcDbCircle
 10
1487.623306551986
 20
-2.067543694920459
 30
0.0
 40
1.0
100
AcDbArc
 50
270.0
 51
351.4692343900506
  0
LINE
  5
D20E
330
18
100
AcDbEntity
  8
DRAW2
100
AcDbLine
 10
1491.484493972794
 20
26.93245630507954
 30
0.0
 11
1491.484493972794
 21
16.93245630507954
 31
0.0
  0
LINE
  5
D20F
330
18
100
AcDbEntity
  8
DRAW2
100
AcDbLine
 10
1483.984493972793
 20
61.93245630507854
 30
0.0
 11
1483.984493972793
 21
41.93245630507854
 31
0.0
  0
LINE
  5
D210
330
18
100
AcDbEntity
  8
DRAW2
100
AcDbLine
 10
1483.984613972795
 20
61.93254630507855
 30
0.0
 11
1481.984583972795
 21
63.93251630507851
 31
0.0
  0
ARC
  5
D211
330
18
100
AcDbEntity
  8
DRAW2
100
AcDbCircle
 10
1512.484493972795
 20
45.43245630507931
 30
0.0
 40
1.0
100
AcDbArc
 50
90.0
 51
180.0
  0
LINE
  5
D212
330
18
100
AcDbEntity
  8
DRAW2
100
AcDbLine
 10
1580.484505401549
 20
11.93245615335353
 30
0.0
 11
1586.484505401549
 21
11.93245615335353
 31
0.0
  0
ELLIPSE
  5
D213
330
18
100
AcDbEntity
  8
DRAW2
100
AcDbEllipse
 10
1363.37510853983
 20
583.6369764477755
 30
0.0
 11
-27.25000000000003
 21
0.0
 31
0.0
210
0.0
220
0.0
230
1.0
 40
0.4999999665119207
 41
8.038513368769375
 42
8.366322538821853
  0
ELLIPSE
  5
D214
330
18
100
AcDbEntity
  8
DRAW2
100
AcDbEllipse
 10
1363.375108539845
 20
586.3869643010247
 30
0.0
 11
-6.578188124999996
 21
0.0
 31
0.0
210
0.0
220
0.0
230
1.0
 40
0.5000236863861822
 41
5.565323145631157
 42
6.283185307179585
  0
SPLINE
  5
D215
330
18
100
AcDbEntity
  8
DRAW3
100
AcDbSpline
210
0.0
220
0.0
230
1.0
 70
     8
 71
     3
 72
    11
 73
     7
 74
     5
 42
0.0000000001
 43
0.0000000001
 44
0.0000000001
 40
0.0
 40
0.0
 40
0.0
 40
0.0
 40
1.286164015414442
 40
2.259090133153113
 40
3.487593437624798
 40
4.310807470993709
 40
4.310807470993709
 40
4.310807470993709
 40
4.310807470993709
 10
1361.875108539845
 20
542.8602048618476
 30
0.0
 10
1362.13656387874
 20
542.3510065568191
 30
0.0
 10
1362.595798602524
 20
541.4566222847343
 30
0.0
 10
1363.459250365334
 20
542.6196526731087
 30
0.0
 10
1364.061305113526
 20
543.8039382317611
 30
0.0
 10
1364.642082316103
 20
543.2229764511086
 30
0.0
 10
1364.875108539844
 20
542.9898761687923
 30
0.0
 11
1361.875108539845
 21
542.8602048618476
 31
0.0
 11
1362.691909593801
 21
541.8666989923113
 31
0.0
 11
1363.375108539845
 21
542.559392597524
 31
0.0
 11
1364.203781305879
 21
543.4663224823172
 31
0.0
 11
1364.875108539844
 21
542.9898761687923
 31
0.0
  0
ELLIPSE
  5
D216
330
18
100
AcDbEntity
  8
DRAW2
100
AcDbEllipse
 10
1363.375108539845
 20
563.8789476021489
 30
0.0
 11
-1.5
 21
0.0
 31
0.0
210
0.0
220
0.0
230
1.0
 40
0.5
 41
3.141592653589792
 42
6.283185307179585
  0
ELLIPSE
  5
D217
330
18
100
AcDbEntity
  8
DRAW2
100
AcDbEllipse
 10
1363.375108539845
 20
586.3869643010247
 30
0.0
 11
-6.578188124999996
 21
0.0
 31
0.0
210
0.0
220
0.0
230
1.0
 40
0.5000236863861822
 41
3.141592653589792
 42
3.838296034265176
  0
ELLIPSE
  5
D218
330
18
100
AcDbEntity
  8
DRAW2
100
AcDbEllipse
 10
1363.375108539846
 20
575.1372951718519
 30
0.0
 11
-3.000000000000055
 21
0.0
 31
0.0
210
0.0
220
0.0
230
0.9999999999999998
 40
0.4999999999999905
 41
3.141592653589792
 42
6.283185307179585
  0
ELLIPSE
  5
D219
330
18
100
AcDbEntity
  8
DRAW2
100
AcDbEllipse
 10
1363.375108539845
 20
572.1061889381012
 30
0.0
 11
-5.000000000000039
 21
0.0
 31
0.0
210
0.0
220
0.0
230
1.0
 40
0.4999999999999961
 41
3.141592653589792
 42
6.283185307179585
  0
ELLIPSE
  5
D21A
330
18
100
AcDbEntity
  8
DRAW2
100
AcDbEllipse
 10
1363.375108539845
 20
564.3119603040413
 30
0.0
 11
-5.000000000000039
 21
0.0
 31
0.0
210
0.0
220
0.0
230
1.0
 40
0.4999999999999961
 41
2.453473714604013
 42
6.971304246165958
  0
ELLIPSE
  5
D21B
330
18
100
AcDbEntity
  8
DRAW2
100
AcDbEllipse
 10
1363.375108539846
 20
563.8789476021488
 30
0.0
 11
-4.499999999999943
 21
0.0
 31
0.0
210
0.0
220
0.0
230
1.0
 40
0.5000000000000063
 41
1.910633236248886
 42
7.514144724520223
  0
ELLIPSE
  5
D21C
330
18
100
AcDbEntity
  8
DRAW2
100
AcDbEllipse
 10
1363.37510853983
 20
583.6369764477755
 30
0.0
 11
-27.25000000000003
 21
0.0
 31
0.0
210
0.0
220
0.0
230
1.0
 40
0.4999999665119207
 41
7.341640729127121
 42
7.669449899180714
  0
ELLIPSE
  5
D21D
330
18
100
AcDbEntity
  8
DRAW2
100
AcDbEllipse
 10
1363.37510853983
 20
583.6369764477755
 30
0.0
 11
-27.25000000000003
 21
0.0
 31
0.0
210
0.0
220
0.0
230
1.0
 40
0.4999999665119207
 41
8.988639798578837
 42
10.91813253224939
  0
ELLIPSE
  5
D21E
330
18
100
AcDbEntity
  8
DRAW2
100
AcDbEllipse
 10
1363.432916493641
 20
594.137068764242
 30
0.0
 11
6.5
 21
0.0
 31
0.0
210
0.0
220
0.0
230
-1.0
 40
0.5
 41
3.141592653589792
 42
6.283185307179585
  0
ELLIPSE
  5
D21F
330
18
100
AcDbEntity
  8
DRAW2
100
AcDbEllipse
 10
1363.432916493641
 20
592.8380295014981
 30
0.0
 11
6.5
 21
0.0
 31
0.0
210
0.0
220
0.0
230
-1.0
 40
0.5000000000000177
 41
2.451469414811
 42
6.979370822664071
  0
ELLIPSE
  5
D220
330
18
100
AcDbEntity
  8
DRAW2
100
AcDbEllipse
 10
1363.42032733365
 20
592.8380295014981
 30
0.0
 11
5.0
 21
0.0
 31
0.0
210
0.0
220
0.0
230
-1.0
 40
0.5
 41
3.141592653589792
 42
6.283185307179585
  0
ELLIPSE
  5
D221
330
18
100
AcDbEntity
  8
DRAW2
100
AcDbEllipse
 10
1363.42032733365
 20
588.1614923210618
 30
0.0
 11
5.0
 21
0.0
 31
0.0
210
0.0
220
0.0
230
-1.0
 40
0.5
 41
2.416124216841774
 42
6.984722548338107
  0
ELLIPSE
  5
D222
330
18
100
AcDbEntity
  8
DRAW2
100
AcDbEllipse
 10
1363.432916493641
 20
587.6418770787912
 30
0.0
 11
4.387410840008918
 21
0.0
 31
0.0
210
0.0
220
0.0
230
-1.0
 40
0.5014429009938997
 41
0.0
 42
6.283185307179585
  0
ELLIPSE
  5
D223
330
18
100
AcDbEntity
  8
DRAW2
100
AcDbEllipse
 10
1381.574231179294
 20
571.8917748397355
 30
0.0
 11
4.387410840008918
 21
0.0
 31
0.0
210
0.0
220
0.0
230
-1.0
 40
0.5014429009938997
 41
0.0
 42
6.283185307179585
  0
ELLIPSE
  5
D224
330
18
100
AcDbEntity
  8
DRAW2
100
AcDbEllipse
 10
1381.561642019303
 20
572.4113900820058
 30
0.0
 11
5.0
 21
0.0
 31
0.0
210
0.0
220
0.0
230
-1.0
 40
0.5
 41
2.416124216841774
 42
6.984722548338107
  0
ELLIPSE
  5
D225
330
18
100
AcDbEntity
  8
DRAW2
100
AcDbEllipse
 10
1381.561642019303
 20
577.0879272624422
 30
0.0
 11
5.0
 21
0.0
 31
0.0
210
0.0
220
0.0
230
-1.0
 40
0.5
 41
3.141592653589792
 42
6.283185307179585
  0
ELLIPSE
  5
D226
330
18
100
AcDbEntity
  8
DRAW2
100
AcDbEllipse
 10
1381.574231179294
 20
577.0879272624422
 30
0.0
 11
6.5
 21
0.0
 31
0.0
210
0.0
220
0.0
230
-1.0
 40
0.5000000000000177
 41
2.451469414811
 42
6.979370822664071
  0
ELLIPSE
  5
D227
330
18
100
AcDbEntity
  8
DRAW2
100
AcDbEllipse
 10
1381.574231179294
 20
578.3869665251861
 30
0.0
 11
6.5
 21
0.0
 31
0.0
210
0.0
220
0.0
230
-1.0
 40
0.5
 41
3.141592653589792
 42
6.283185307179585
  0
ELLIPSE
  5
D228
330
18
100
AcDbEntity
  8
DRAW2
100
AcDbEllipse
 10
1345.175985900366
 20
578.3869665251861
 30
0.0
 11
-6.5
 21
0.0
 31
0.0
210
0.0
220
0.0
230
1.0
 40
0.5
 41
3.141592653589792
 42
6.283185307179585
  0
ELLIPSE
  5
D229
330
18
100
AcDbEntity
  8
DRAW2
100
AcDbEllipse
 10
1345.175985900366
 20
577.0879272624422
 30
0.0
 11
-6.5
 21
0.0
 31
0.0
210
0.0
220
0.0
230
1.0
 40
0.5000000000000177
 41
2.451469414811
 42
6.979370822664071
  0
ELLIPSE
  5
D22A
330
18
100
AcDbEntity
  8
DRAW2
100
AcDbEllipse
 10
1345.188575060357
 20
577.0879272624422
 30
0.0
 11
-5.0
 21
0.0
 31
0.0
210
0.0
220
0.0
230
1.0
 40
0.5
 41
3.141592653589792
 42
6.283185307179585
  0
ELLIPSE
  5
D22B
330
18
100
AcDbEntity
  8
DRAW2
100
AcDbEllipse
 10
1345.175985900366
 20
571.8917748397355
 30
0.0
 11
-4.387410840008918
 21
0.0
 31
0.0
210
0.0
220
0.0
230
1.0
 40
0.5014429009938997
 41
0.0
 42
6.283185307179585
  0
ELLIPSE
  5
D22C
330
18
100
AcDbEntity
  8
DRAW2
100
AcDbEllipse
 10
1345.188575060357
 20
572.4113900820058
 30
0.0
 11
-5.0
 21
0.0
 31
0.0
210
0.0
220
0.0
230
1.0
 40
0.5
 41
2.416124216841774
 42
6.984722548338107
  0
ELLIPSE
  5
D22D
330
18
100
AcDbEntity
  8
DRAW2
100
AcDbEllipse
 10
1363.37510853983
 20
585.1578615883844
 30
0.0
 11
-28.5
 21
0.0
 31
0.0
210
0.0
220
0.0
230
1.0
 40
0.4999997185682373
 41
2.926927062939845
 42
6.497850897829742
  0
ELLIPSE
  5
D22E
330
18
100
AcDbEntity
  8
DRAW2
100
AcDbEllipse
 10
1363.37510853983
 20
584.5030027641103
 30
0.0
 11
-28.25
 21
0.0
 31
0.0
210
0.0
220
0.0
230
1.0
 40
0.5
 41
2.634798880584718
 42
6.789979080184659
  0
ELLIPSE
  5
D22F
330
18
100
AcDbEntity
  8
DRAW2
100
AcDbEllipse
 10
1363.37510853983
 20
583.6369764477755
 30
0.0
 11
-27.25000000000003
 21
0.0
 31
0.0
210
0.0
220
0.0
230
1.0
 40
0.4999999665119207
 41
4.78432527918479
 42
6.719323469370144
  0
ELLIPSE
  5
D230
330
18
100
AcDbEntity
  8
DRAW2
100
AcDbEllipse
 10
1363.484493972794
 20
280.5689716855738
 30
0.0
 11
-5.0
 21
0.0
 31
0.0
210
0.0
220
0.0
230
1.0
 40
0.8660254037844424
 41
5.017081634400089
 42
6.775776497205878
  0
ELLIPSE
  5
D231
330
18
100
AcDbEntity
  8
DRAW2
100
AcDbEllipse
 10
1363.484493972794
 20
280.8689716855738
 30
0.0
 11
-4.400000000000004
 21
0.0
 31
0.0
210
0.0
220
0.0
230
1.0
 40
0.866025403784439
 41
5.060272727522644
 42
6.748694573802644
  0
SPLINE
  5
D232
330
18
100
AcDbEntity
  8
DRAW3
100
AcDbSpline
210
0.0
220
0.0
230
1.0
 70
     8
 71
     3
 72
    11
 73
     7
 74
     5
 42
0.0000000001
 43
0.0000000001
 44
0.0000000001
 40
0.0
 40
0.0
 40
0.0
 40
0.0
 40
1.286164015414473
 40
2.259090133153385
 40
3.487593437625655
 40
4.310807470994109
 40
4.310807470994109
 40
4.310807470994109
 40
4.310807470994109
 10
1361.984493972794
 20
310.427016570791
 30
0.0
 10
1362.245949311689
 20
309.9178182657624
 30
0.0
 10
1362.705184035473
 20
309.0234339936774
 30
0.0
 10
1363.568635798284
 20
310.1864643820521
 30
0.0
 10
1364.170690546477
 20
311.3707499407047
 30
0.0
 10
1364.751467749053
 20
310.789788160052
 30
0.0
 10
1364.984493972794
 20
310.5566878777356
 30
0.0
 11
1361.984493972794
 21
310.427016570791
 31
0.0
 11
1362.80129502675
 21
309.4335107012544
 31
0.0
 11
1363.484493972794
 21
310.1262043064673
 31
0.0
 11
1364.313166738829
 21
311.0331341912606
 31
0.0
 11
1364.984493972794
 21
310.5566878777356
 31
0.0
  0
ELLIPSE
  5
D233
330
18
100
AcDbEntity
  8
DRAW2
100
AcDbEllipse
 10
1363.484493972794
 20
276.690584506452
 30
0.0
 11
-1.5
 21
0.0
 31
0.0
210
0.0
220
0.0
230
1.0
 40
0.8660254037844573
 41
0.0
 42
3.141592653589792
  0
ELLIPSE
  5
D234
330
18
100
AcDbEntity
  8
DRAW2
100
AcDbEllipse
 10
1363.484493972794
 20
277.8689716855736
 30
0.0
 11
-5.0
 21
0.0
 31
0.0
210
0.0
220
0.0
230
1.0
 40
0.8660254037844651
 41
2.977230532462223
 42
3.141592653589792
  0
ELLIPSE
  5
D235
330
18
100
AcDbEntity
  8
DRAW2
100
AcDbEllipse
 10
1363.484493972794
 20
277.8689716855733
 30
0.0
 11
-6.5
 21
0.0
 31
0.0
210
0.0
220
0.0
230
1.0
 40
0.866025403784446
 41
8.731618053192676
 42
10.15285196311326
  0
ELLIPSE
  5
D236
330
18
100
AcDbEntity
  8
DRAW2
100
AcDbEllipse
 10
1363.484493972794
 20
277.1189710175406
 30
0.0
 11
-6.5
 21
0.0
 31
0.0
210
0.0
220
0.0
230
1.0
 40
0.8660254037844284
 41
8.731618053192846
 42
9.424777960769381
  0
ELLIPSE
  5
D237
330
18
100
AcDbEntity
  8
DRAW2
100
AcDbEllipse
 10
1363.484493972793
 20
263.695585316174
 30
0.0
 11
-6.578188124999996
 21
0.0
 31
0.0
210
0.0
220
0.0
230
1.0
 40
0.8660680913452114
 41
0.0
 42
3.141592653589792
  0
ELLIPSE
  5
D238
330
18
100
AcDbEntity
  8
DRAW2
100
AcDbEllipse
 10
1363.484493972794
 20
270.190574506454
 30
0.0
 11
-3.000000000000055
 21
0.0
 31
0.0
210
0.0
220
0.0
230
0.9999999999999998
 40
0.8660254037844412
 41
1.385385707454914
 42
1.756206946133439
  0
ELLIPSE
  5
D239
330
18
100
AcDbEntity
  8
DRAW2
100
AcDbEllipse
 10
1363.484493972794
 20
271.9405845064521
 30
0.0
 11
-5.000000000000169
 21
0.0
 31
0.0
210
0.0
220
0.0
230
1.0
 40
0.8660254037844129
 41
0.0
 42
3.141592653589792
  0
ELLIPSE
  5
D23A
330
18
100
AcDbEntity
  8
DRAW2
100
AcDbEllipse
 10
1363.484493972794
 20
276.4405845064521
 30
0.0
 11
-5.000000000000169
 21
0.0
 31
0.0
210
0.0
220
0.0
230
1.0
 40
0.8799228573220643
 41
5.017081634400073
 42
10.69088163354889
  0
ELLIPSE
  5
D23B
330
18
100
AcDbEntity
  8
DRAW2
100
AcDbEllipse
 10
1363.484493972794
 20
276.6905845064521
 30
0.0
 11
-4.499999999999943
 21
0.0
 31
0.0
210
0.0
220
0.0
230
1.0
 40
0.8660254037844431
 41
5.052225889838775
 42
10.65573737811009
  0
ELLIPSE
  5
D23C
330
18
100
AcDbEntity
  8
DRAW2
100
AcDbEllipse
 10
1363.484493972794
 20
258.9324560605624
 30
0.0
 11
-27.25000000000003
 21
0.0
 31
0.0
210
0.0
220
0.0
230
1.0
 40
0.8660253948113327
 41
8.975830409045848
 42
10.82455318258565
  0
ELLIPSE
  5
D23D
330
18
100
AcDbEntity
  8
DRAW2
100
AcDbEllipse
 10
1363.484493972794
 20
258.9324560605624
 30
0.0
 11
-27.25000000000003
 21
0.0
 31
0.0
210
0.0
220
0.0
230
1.0
 40
0.8660253948113327
 41
6.881437084994425
 42
8.826526182954525
  0
ELLIPSE
  5
D23E
330
18
100
AcDbEntity
  8
DRAW2
100
AcDbEllipse
 10
1381.671027451293
 20
253.2891714663636
 30
0.0
 11
5.0
 21
0.0
 31
0.0
210
0.0
220
0.0
230
-1.0
 40
0.8660254037844424
 41
0.0
 42
6.283185307179585
  0
ELLIPSE
  5
D23F
330
18
100
AcDbEntity
  8
DRAW2
100
AcDbEllipse
 10
1381.671027451293
 20
253.5891714663636
 30
0.0
 11
4.400000000000004
 21
0.0
 31
0.0
210
0.0
220
0.0
230
-1.0
 40
0.866025403784439
 41
0.0
 42
6.283185307179585
  0
ELLIPSE
  5
D240
330
18
100
AcDbEntity
  8
DRAW2
100
AcDbEllipse
 10
1381.671027451293
 20
250.5891714663632
 30
0.0
 11
6.5
 21
0.0
 31
0.0
210
0.0
220
0.0
230
-1.0
 40
0.866025403784446
 41
5.555111304835689
 42
10.15285196311326
  0
ELLIPSE
  5
D241
330
18
100
AcDbEntity
  8
DRAW2
100
AcDbEllipse
 10
1381.671027451293
 20
249.8391707983305
 30
0.0
 11
6.5
 21
0.0
 31
0.0
210
0.0
220
0.0
230
-1.0
 40
0.8660254037844284
 41
6.283185307179585
 42
9.424777960769381
  0
ELLIPSE
  5
D242
330
18
100
AcDbEntity
  8
DRAW2
100
AcDbEllipse
 10
1381.671027451293
 20
250.5891714663636
 30
0.0
 11
5.0
 21
0.0
 31
0.0
210
0.0
220
0.0
230
-1.0
 40
0.8660254037844651
 41
0.0
 42
3.141592653589792
  0
ELLIPSE
  5
D243
330
18
100
AcDbEntity
  8
DRAW2
100
AcDbEllipse
 10
1345.297960494294
 20
253.5891714663636
 30
0.0
 11
-4.400000000000004
 21
0.0
 31
0.0
210
0.0
220
0.0
230
1.0
 40
0.866025403784439
 41
0.0
 42
6.283185307179585
  0
ELLIPSE
  5
D244
330
18
100
AcDbEntity
  8
DRAW2
100
AcDbEllipse
 10
1345.297960494294
 20
250.5891714663636
 30
0.0
 11
-5.0
 21
0.0
 31
0.0
210
0.0
220
0.0
230
1.0
 40
0.8660254037844651
 41
0.0
 42
3.141592653589792
  0
ELLIPSE
  5
D245
330
18
100
AcDbEntity
  8
DRAW2
100
AcDbEllipse
 10
1345.297960494294
 20
253.2891714663636
 30
0.0
 11
-5.0
 21
0.0
 31
0.0
210
0.0
220
0.0
230
1.0
 40
0.8660254037844424
 41
0.0
 42
6.283185307179585
  0
ELLIPSE
  5
D246
330
18
100
AcDbEntity
  8
DRAW2
100
AcDbEllipse
 10
1345.297960494294
 20
249.8391707983305
 30
0.0
 11
-6.5
 21
0.0
 31
0.0
210
0.0
220
0.0
230
1.0
 40
0.8660254037844284
 41
6.283185307179585
 42
9.424777960769381
  0
ELLIPSE
  5
D247
330
18
100
AcDbEntity
  8
DRAW2
100
AcDbEllipse
 10
1345.297960494294
 20
250.5891714663632
 30
0.0
 11
-6.5
 21
0.0
 31
0.0
210
0.0
220
0.0
230
1.0
 40
0.866025403784446
 41
5.555111304835689
 42
10.15285196311326
  0
ELLIPSE
  5
D248
330
18
100
AcDbEntity
  8
DRAW2
100
AcDbEllipse
 10
1363.484493972794
 20
277.1189710175406
 30
0.0
 11
-6.5
 21
0.0
 31
0.0
210
0.0
220
0.0
230
1.0
 40
0.8660254037844284
 41
6.283185307179585
 42
6.976345214756117
  0
ELLIPSE
  5
D249
330
18
100
AcDbEntity
  8
DRAW2
100
AcDbEllipse
 10
1363.484493972794
 20
277.8689716855733
 30
0.0
 11
-6.5
 21
0.0
 31
0.0
210
0.0
220
0.0
230
1.0
 40
0.866025403784446
 41
5.555111304835689
 42
6.976345214756289
  0
ELLIPSE
  5
D24A
330
18
100
AcDbEntity
  8
DRAW2
100
AcDbEllipse
 10
1363.484493972794
 20
280.8689716855738
 30
0.0
 11
-4.400000000000004
 21
0.0
 31
0.0
210
0.0
220
0.0
230
1.0
 40
0.866025403784439
 41
2.676083386966733
 42
4.364505233246736
  0
ELLIPSE
  5
D24B
330
18
100
AcDbEntity
  8
DRAW2
100
AcDbEllipse
 10
1363.484493972794
 20
277.8689716855736
 30
0.0
 11
-5.0
 21
0.0
 31
0.0
210
0.0
220
0.0
230
1.0
 40
0.8660254037844651
 41
0.0
 42
0.1643621211275688
  0
ELLIPSE
  5
D24C
330
18
100
AcDbEntity
  8
DRAW2
100
AcDbEllipse
 10
1363.484493972794
 20
280.5689716855738
 30
0.0
 11
-5.0
 21
0.0
 31
0.0
210
0.0
220
0.0
230
1.0
 40
0.8660254037844424
 41
2.649001463563493
 42
4.407696326369289
  0
ELLIPSE
  5
D24D
330
18
100
AcDbEntity
  8
DRAW2
100
AcDbEllipse
 10
1363.484493972794
 20
258.0543460619699
 30
0.0
 11
-28.5
 21
0.0
 31
0.0
210
0.0
220
0.0
230
1.0
 40
0.8660254591771646
 41
5.667214971064286
 42
10.04074829688468
  0
ELLIPSE
  5
D24E
330
18
100
AcDbEntity
  8
DRAW2
100
AcDbEllipse
 10
1363.484493972794
 20
258.9324560605624
 30
0.0
 11
-27.25000000000003
 21
0.0
 31
0.0
210
0.0
220
0.0
230
1.0
 40
0.8660253948113327
 41
4.883410085363292
 42
6.732132858903355
  0
ELLIPSE
  5
D24F
330
18
100
AcDbEntity
  8
DRAW2
100
AcDbEllipse
 10
1363.484493972794
 20
258.4324563050797
 30
0.0
 11
-28.25
 21
0.0
 31
0.0
210
0.0
220
0.0
230
1.0
 40
0.8660254037844367
 41
4.869420093567828
 42
10.83854317438112
  0
ELLIPSE
  5
D250
330
18
100
AcDbEntity
  8
DRAW2
100
AcDbEllipse
 10
1348.484493972794
 20
135.0702501868239
 30
0.0
 11
4.283000000000014
 21
0.0
 31
0.0
210
0.0
220
0.0
230
1.0
 40
0.8458914853646696
 41
2.819133918922396
 42
6.605644041847116
  0
ELLIPSE
  5
D251
330
18
100
AcDbEntity
  8
DRAW2
100
AcDbEllipse
 10
1348.484493972794
 20
134.2257488207055
 30
0.0
 11
4.863999999999974
 21
0.0
 31
0.0
210
0.0
220
0.0
230
1.0
 40
0.7448505821992005
 41
0.0
 42
6.283185307179585
  0
ELLIPSE
  5
D252
330
18
100
AcDbEntity
  8
DRAW2
100
AcDbEllipse
 10
1378.484493972794
 20
134.2257488207055
 30
0.0
 11
4.863999999999974
 21
0.0
 31
0.0
210
0.0
220
0.0
230
1.0
 40
0.7448505821992005
 41
0.0
 42
6.283185307179585
  0
ELLIPSE
  5
D253
330
18
100
AcDbEntity
  8
DRAW2
100
AcDbEllipse
 10
1378.484493972794
 20
135.0702501868239
 30
0.0
 11
4.283000000000014
 21
0.0
 31
0.0
210
0.0
220
0.0
230
1.0
 40
0.8458914853646696
 41
2.819133918922396
 42
6.605644041847132
  0
LINE
  5
D254
330
18
100
AcDbEntity
  8
DRAW2
100
AcDbLine
 10
1216.484473972791
 20
787.1677209690454
 30
0.0
 11
1201.484473972791
 21
787.1677209690454
 31
0.0
  0
LINE
  5
D255
330
18
100
AcDbEntity
  8
DRAW2
100
AcDbLine
 10
1201.484473972791
 20
567.1677209690454
 30
0.0
 11
1216.484473972791
 21
567.1677209690454
 31
0.0
  0
LINE
  5
D256
330
18
100
AcDbEntity
  8
DRAW2
100
AcDbLine
 10
1215.48449397279
 20
727.1277049562327
 30
0.0
 11
1201.484473972791
 21
727.1277049562327
 31
0.0
  0
LINE
  5
D257
330
18
100
AcDbEntity
  8
DRAW2
100
AcDbLine
 10
1201.484473972791
 20
627.2077369818579
 30
0.0
 11
1215.48449397279
 21
627.2077369818579
 31
0.0
  0
LINE
  5
D25C
330
18
100
AcDbEntity
  8
DRAW2
100
AcDbLine
 10
1215.984493972794
 20
302.9324563050798
 30
0.0
 11
1200.984493972794
 21
302.9324563050798
 31
0.0
  0
LINE
  5
D25F
330
18
100
AcDbEntity
  8
DRAW2
100
AcDbLine
 10
1200.984493972794
 20
106.9324563050797
 30
0.0
 11
1215.984493972794
 21
106.9324563050797
 31
0.0
  0
LINE
  5
D262
330
18
100
AcDbEntity
  8
DRAW2
100
AcDbLine
 10
1200.984493972794
 20
302.9324563050798
 30
0.0
 11
1200.984493972794
 21
106.9324563050797
 31
0.0
  0
LINE
  5
D263
330
18
100
AcDbEntity
  8
DRAW2
100
AcDbLine
 10
1173.984493972794
 20
215.9324263050794
 30
0.0
 11
1173.984493972794
 21
193.9323663050794
 31
0.0
  0
LINE
  5
D264
330
18
100
AcDbEntity
  8
DRAW2
100
AcDbLine
 10
1175.984493972794
 20
217.9324263050794
 30
0.0
 11
1175.984493972794
 21
191.9324263050794
 31
0.0
  0
LINE
  5
D265
330
18
100
AcDbEntity
  8
DRAW2
100
AcDbLine
 10
1200.984493972794
 20
217.9324263050794
 30
0.0
 11
1200.984493972794
 21
191.9324263050794
 31
0.0
  0
LINE
  5
D266
330
18
100
AcDbEntity
  8
DRAW2
100
AcDbLine
 10
1173.984493972794
 20
136.2581191569109
 30
0.0
 11
1173.984493972794
 21
114.2580591569109
 31
0.0
  0
LINE
  5
D267
330
18
100
AcDbEntity
  8
DRAW2
100
AcDbLine
 10
1175.984493972794
 20
138.2581191569109
 30
0.0
 11
1175.984493972794
 21
112.2581191569109
 31
0.0
  0
LINE
  5
D268
330
18
100
AcDbEntity
  8
DRAW2
100
AcDbLine
 10
1200.984493972794
 20
138.2581191569109
 30
0.0
 11
1200.984493972794
 21
112.2581191569109
 31
0.0
  0
LINE
  5
D269
330
18
100
AcDbEntity
  8
DRAW2
100
AcDbLine
 10
1200.984493972794
 20
112.2581191569109
 30
0.0
 11
1175.984493972794
 21
112.2581191569109
 31
0.0
  0
LINE
  5
D26A
330
18
100
AcDbEntity
  8
DRAW2
100
AcDbLine
 10
1173.984493972794
 20
114.2580591569109
 30
0.0
 11
1175.984493972794
 21
112.2581191569109
 31
0.0
  0
LINE
  5
D26B
330
18
100
AcDbEntity
  8
DRAW2
100
AcDbLine
 10
1200.984493972794
 20
138.2581191569109
 30
0.0
 11
1175.984493972794
 21
138.2581191569109
 31
0.0
  0
LINE
  5
D26C
330
18
100
AcDbEntity
  8
DRAW2
100
AcDbLine
 10
1173.984493972794
 20
136.2581191569109
 30
0.0
 11
1175.984493972794
 21
138.2581191569109
 31
0.0
  0
LINE
  5
D26D
330
18
100
AcDbEntity
  8
DRAW2
100
AcDbLine
 10
1200.984493972794
 20
191.9324263050794
 30
0.0
 11
1175.984493972794
 21
191.9324263050794
 31
0.0
  0
LINE
  5
D26E
330
18
100
AcDbEntity
  8
DRAW2
100
AcDbLine
 10
1173.984493972794
 20
193.9323663050794
 30
0.0
 11
1175.984493972794
 21
191.9324263050794
 31
0.0
  0
LINE
  5
D26F
330
18
100
AcDbEntity
  8
DRAW2
100
AcDbLine
 10
1200.984493972794
 20
217.9324263050794
 30
0.0
 11
1175.984493972794
 21
217.9324263050794
 31
0.0
  0
LINE
  5
D270
330
18
100
AcDbEntity
  8
DRAW2
100
AcDbLine
 10
1173.984493972794
 20
215.9324263050794
 30
0.0
 11
1175.984493972794
 21
217.9324263050794
 31
0.0
  0
LINE
  5
D271
330
18
100
AcDbEntity
  8
DRAW2
100
AcDbLine
 10
1175.984493972794
 20
297.6067634532476
 30
0.0
 11
1175.984493972794
 21
271.6067634532476
 31
0.0
  0
LINE
  5
D272
330
18
100
AcDbEntity
  8
DRAW2
100
AcDbLine
 10
1173.984493972794
 20
295.6067634532476
 30
0.0
 11
1173.984493972794
 21
273.6067034532477
 31
0.0
  0
LINE
  5
D273
330
18
100
AcDbEntity
  8
DRAW2
100
AcDbLine
 10
1200.984493972794
 20
297.6067634532476
 30
0.0
 11
1200.984493972794
 21
271.6067634532476
 31
0.0
  0
LINE
  5
D274
330
18
100
AcDbEntity
  8
DRAW2
100
AcDbLine
 10
1200.984493972794
 20
271.6067634532476
 30
0.0
 11
1175.984493972794
 21
271.6067634532476
 31
0.0
  0
LINE
  5
D275
330
18
100
AcDbEntity
  8
DRAW2
100
AcDbLine
 10
1173.984493972794
 20
273.6067034532477
 30
0.0
 11
1175.984493972794
 21
271.6067634532476
 31
0.0
  0
LINE
  5
D276
330
18
100
AcDbEntity
  8
DRAW2
100
AcDbLine
 10
1200.984493972794
 20
297.6067634532476
 30
0.0
 11
1175.984493972794
 21
297.6067634532476
 31
0.0
  0
LINE
  5
D277
330
18
100
AcDbEntity
  8
DRAW2
100
AcDbLine
 10
1173.984493972794
 20
295.6067634532476
 30
0.0
 11
1175.984493972794
 21
297.6067634532476
 31
0.0
  0
LINE
  5
D278
330
18
100
AcDbEntity
  8
DRAW2
100
AcDbLine
 10
1201.484473972791
 20
787.1677209690454
 30
0.0
 11
1201.484473972791
 21
567.1677209690454
 31
0.0
  0
LINE
  5
D279
330
18
100
AcDbEntity
  8
DRAW2
100
AcDbLine
 10
1174.484533972791
 20
642.167840969045
 30
0.0
 11
1174.484533972791
 21
620.167660969045
 31
0.0
  0
LINE
  5
D27A
330
18
100
AcDbEntity
  8
DRAW2
100
AcDbLine
 10
1176.484473972792
 20
644.167720969045
 30
0.0
 11
1176.484473972792
 21
618.167660969045
 31
0.0
  0
LINE
  5
D27B
330
18
100
AcDbEntity
  8
DRAW2
100
AcDbLine
 10
1176.484473972792
 20
598.1677209690456
 30
0.0
 11
1176.484473972792
 21
572.1676609690456
 31
0.0
  0
LINE
  5
D27C
330
18
100
AcDbEntity
  8
DRAW2
100
AcDbLine
 10
1174.484533972791
 20
596.1678409690456
 30
0.0
 11
1174.484533972791
 21
574.1676609690456
 31
0.0
  0
LINE
  5
D27D
330
18
100
AcDbEntity
  8
DRAW2
100
AcDbLine
 10
1176.484473972792
 20
572.1676609690456
 30
0.0
 11
1201.484473972792
 21
572.1676609690456
 31
0.0
  0
LINE
  5
D27E
330
18
100
AcDbEntity
  8
DRAW2
100
AcDbLine
 10
1174.484413972791
 20
574.1675409690457
 30
0.0
 11
1176.484353972791
 21
572.1676009690456
 31
0.0
  0
LINE
  5
D27F
330
18
100
AcDbEntity
  8
DRAW2
100
AcDbLine
 10
1176.484473972792
 20
598.1677209690456
 30
0.0
 11
1201.484473972792
 21
598.1677209690456
 31
0.0
  0
LINE
  5
D280
330
18
100
AcDbEntity
  8
DRAW2
100
AcDbLine
 10
1176.484533972791
 20
598.1675409690457
 30
0.0
 11
1174.484533972791
 21
596.1676009690457
 31
0.0
  0
LINE
  5
D281
330
18
100
AcDbEntity
  8
DRAW2
100
AcDbLine
 10
1176.484473972792
 20
618.167660969045
 30
0.0
 11
1201.484473972792
 21
618.167660969045
 31
0.0
  0
LINE
  5
D282
330
18
100
AcDbEntity
  8
DRAW2
100
AcDbLine
 10
1174.484413972791
 20
620.1675409690452
 30
0.0
 11
1176.484353972791
 21
618.1676009690451
 31
0.0
  0
LINE
  5
D283
330
18
100
AcDbEntity
  8
DRAW2
100
AcDbLine
 10
1176.484473972792
 20
644.167720969045
 30
0.0
 11
1201.484473972792
 21
644.167720969045
 31
0.0
  0
LINE
  5
D284
330
18
100
AcDbEntity
  8
DRAW2
100
AcDbLine
 10
1176.484533972791
 20
644.1675409690451
 30
0.0
 11
1174.484533972791
 21
642.1676009690449
 31
0.0
  0
LINE
  5
D285
330
18
100
AcDbEntity
  8
DRAW2
100
AcDbLine
 10
1174.484533972791
 20
734.1678409690455
 30
0.0
 11
1174.484533972791
 21
712.1676609690455
 31
0.0
  0
LINE
  5
D286
330
18
100
AcDbEntity
  8
DRAW2
100
AcDbLine
 10
1176.484473972792
 20
736.1677209690456
 30
0.0
 11
1176.484473972792
 21
710.1676609690455
 31
0.0
  0
LINE
  5
D287
330
18
100
AcDbEntity
  8
DRAW2
100
AcDbLine
 10
1176.484473972792
 20
710.1676609690455
 30
0.0
 11
1201.484473972792
 21
710.1676609690455
 31
0.0
  0
LINE
  5
D288
330
18
100
AcDbEntity
  8
DRAW2
100
AcDbLine
 10
1174.484413972791
 20
712.1675409690457
 30
0.0
 11
1176.484353972791
 21
710.1676009690455
 31
0.0
  0
LINE
  5
D289
330
18
100
AcDbEntity
  8
DRAW2
100
AcDbLine
 10
1176.484473972792
 20
736.1677209690456
 30
0.0
 11
1201.484473972792
 21
736.1677209690456
 31
0.0
  0
LINE
  5
D28A
330
18
100
AcDbEntity
  8
DRAW2
100
AcDbLine
 10
1176.484533972791
 20
736.1675409690457
 30
0.0
 11
1174.484533972791
 21
734.1676009690456
 31
0.0
  0
LINE
  5
D28B
330
18
100
AcDbEntity
  8
DRAW2
100
AcDbLine
 10
1174.484533972791
 20
780.1678409690453
 30
0.0
 11
1174.484533972791
 21
758.1676609690454
 31
0.0
  0
LINE
  5
D28C
330
18
100
AcDbEntity
  8
DRAW2
100
AcDbLine
 10
1176.484473972792
 20
782.1677209690452
 30
0.0
 11
1176.484473972792
 21
756.1676609690453
 31
0.0
  0
LINE
  5
D28D
330
18
100
AcDbEntity
  8
DRAW2
100
AcDbLine
 10
1176.484473972792
 20
756.1676609690453
 30
0.0
 11
1201.484473972792
 21
756.1676609690453
 31
0.0
  0
LINE
  5
D28E
330
18
100
AcDbEntity
  8
DRAW2
100
AcDbLine
 10
1174.484413972791
 20
758.1675409690453
 30
0.0
 11
1176.484353972791
 21
756.1676009690454
 31
0.0
  0
LINE
  5
D28F
330
18
100
AcDbEntity
  8
DRAW2
100
AcDbLine
 10
1176.484473972792
 20
782.1677209690452
 30
0.0
 11
1201.484473972792
 21
782.1677209690452
 31
0.0
  0
LINE
  5
D290
330
18
100
AcDbEntity
  8
DRAW2
100
AcDbLine
 10
1176.484533972791
 20
782.1675409690453
 30
0.0
 11
1174.484533972791
 21
780.1676009690454
 31
0.0
  0
LINE
  5
D291
330
18
100
AcDbEntity
  8
DRAW2
100
AcDbLine
 10
1465.984493972793
 20
404.9324563050794
 30
0.0
 11
1482.984493972794
 21
404.9324563050794
 31
0.0
  0
LINE
  5
D292
330
18
100
AcDbEntity
  8
DRAW2
100
AcDbLine
 10
1463.984493972793
 20
402.9324563050795
 30
0.0
 11
1484.984493972794
 21
402.9324563050795
 31
0.0
  0
LINE
  5
D293
330
18
100
AcDbEntity
  8
DRAW2
100
AcDbLine
 10
1424.484493972792
 20
382.9324563050791
 30
0.0
 11
1511.484493972794
 21
382.9324563050791
 31
0.0
  0
LINE
  5
D294
330
18
100
AcDbEntity
  8
DRAW2
100
AcDbLine
 10
1510.984493972792
 20
303.9324563050791
 30
0.0
 11
1423.984493972794
 21
303.9324563050795
 31
0.0
  0
LINE
  5
D295
330
18
100
AcDbEntity
  8
DRAW2
100
AcDbLine
 10
1424.484493972791
 20
303.9324563050795
 30
0.0
 11
1511.484493972791
 21
303.9324563050795
 31
0.0
  0
LINE
  5
D296
330
18
100
AcDbEntity
  8
DRAW2
100
AcDbLine
 10
1511.484493972791
 20
367.9324563050803
 30
0.0
 11
1424.484493972791
 21
367.9324563050801
 31
0.0
  0
LINE
  5
D297
330
18
100
AcDbEntity
  8
DRAW2
100
AcDbLine
 10
1510.984493972792
 20
105.9324563050791
 30
0.0
 11
1423.984493972793
 21
105.9324563050793
 31
0.0
  0
LINE
  5
D298
330
18
100
AcDbEntity
  8
DRAW2
100
AcDbLine
 10
1424.484493972796
 20
105.9324563050792
 30
0.0
 11
1511.484493972796
 21
105.9324563050792
 31
0.0
  0
LINE
  5
D299
330
18
100
AcDbEntity
  8
DRAW2
100
AcDbLine
 10
1424.484493972791
 20
303.9324563050795
 30
0.0
 11
1424.484493972791
 21
367.9324563050793
 31
0.0
  0
LINE
  5
D29A
330
18
100
AcDbEntity
  8
DRAW2
100
AcDbLine
 10
1302.484493972791
 20
303.9324563050795
 30
0.0
 11
1302.484493972791
 21
367.9324563050793
 31
0.0
  0
LINE
  5
D29B
330
18
100
AcDbEntity
  8
DRAW2
100
AcDbLine
 10
1215.484493972792
 20
303.9324563050795
 30
0.0
 11
1215.48449397279
 21
367.9324563050793
 31
0.0
  0
LINE
  5
D29D
330
18
100
AcDbEntity
  8
DRAW2
100
AcDbLine
 10
1361.984493972794
 20
302.9324563050793
 30
0.0
 11
1304.484493972794
 21
302.9324563050793
 31
0.0
  0
CIRCLE
  5
D29E
330
18
100
AcDbEntity
  8
DRAW2
100
AcDbCircle
 10
1333.484493972794
 20
179.9324563050794
 30
0.0
 40
6.0
  0
CIRCLE
  5
D29F
330
18
100
AcDbEntity
  8
DRAW2
100
AcDbCircle
 10
1333.484493972794
 20
179.9324563050794
 30
0.0
 40
11.5
  0
CIRCLE
  5
D2A0
330
18
100
AcDbEntity
  8
DRAW2
100
AcDbCircle
 10
1333.484493972794
 20
179.9324563050794
 30
0.0
 40
14.75
  0
LINE
  5
D2A1
330
18
100
AcDbEntity
  8
DRAW2
100
AcDbLine
 10
1303.48449397279
 20
96.43245630508046
 30
0.0
 11
1423.484493972791
 21
96.43245630508022
 31
0.0
  0
CIRCLE
  5
D2A2
330
18
100
AcDbEntity
  8
DRAW3
100
AcDbCircle
 10
1333.484493972794
 20
179.9324563050794
 30
0.0
 40
10.5
  0
CIRCLE
  5
D2A3
330
18
100
AcDbEntity
  8
DRAW2
100
AcDbCircle
 10
1333.484493972794
 20
179.9324563050794
 30
0.0
 40
9.25
  0
LINE
  5
D2A6
330
18
100
AcDbEntity
  8
DRAW2
100
AcDbLine
 10
1422.484493972794
 20
106.9324563050792
 30
0.0
 11
1304.484493972794
 21
106.9324563050793
 31
0.0
  0
LINE
  5
D2A7
330
18
100
AcDbEntity
  8
DRAW2
100
AcDbLine
 10
1304.484493972794
 20
302.9324563050793
 30
0.0
 11
1304.484493972794
 21
106.9324563050793
 31
0.0
  0
LINE
  5
D2A8
330
18
100
AcDbEntity
  8
DRAW2
100
AcDbLine
 10
1302.984513972794
 20
303.9324563050793
 30
0.0
 11
1302.984493972793
 21
105.9324563050793
 31
0.0
  0
LINE
  5
D2A9
330
18
100
AcDbEntity
  8
DRAW2
100
AcDbLine
 10
1215.984493972794
 20
303.9324563050798
 30
0.0
 11
1215.984493972794
 21
105.9324563050797
 31
0.0
  0
LINE
  5
D2AB
330
18
100
AcDbEntity
  8
DRAW2
100
AcDbLine
 10
1215.984493972794
 20
105.9324563050797
 30
0.0
 11
1302.984493972793
 21
105.9324563050793
 31
0.0
  0
LINE
  5
D2AC
330
18
100
AcDbEntity
  8
DRAW2
100
AcDbLine
 10
1302.484493972795
 20
105.9324563050792
 30
0.0
 11
1215.484493972796
 21
105.9324563050792
 31
0.0
  0
ARC
  5
D2AD
330
18
100
AcDbEntity
  8
DRAW2
100
AcDbCircle
 10
1303.48449397279
 20
97.43245630508043
 30
0.0
 40
1.0
100
AcDbArc
 50
180.0
 51
270.0
  0
LINE
  5
D2AF
330
18
100
AcDbEntity
  8
DRAW2
100
AcDbLine
 10
1318.870716227118
 20
181.9324563050794
 30
0.0
 11
1322.159742319888
 21
181.9324563050794
 31
0.0
  0
LINE
  5
D2B0
330
18
100
AcDbEntity
  8
DRAW2
100
AcDbLine
 10
1318.870716227118
 20
177.9324563050794
 30
0.0
 11
1322.159742319888
 21
177.9324563050794
 31
0.0
  0
LINE
  5
D2B1
330
18
100
AcDbEntity
  8
DRAW2
100
AcDbLine
 10
1318.870716227118
 20
177.9324563050794
 30
0.0
 11
1322.159742319888
 21
177.9324563050794
 31
0.0
  0
LINE
  5
D2B2
330
18
100
AcDbEntity
  8
DRAW2
100
AcDbLine
 10
1215.984493972794
 20
303.9324563050797
 30
0.0
 11
1302.984493972794
 21
303.9324563050793
 31
0.0
  0
LINE
  5
D2B3
330
18
100
AcDbEntity
  8
DRAW2
100
AcDbLine
 10
1302.484493972791
 20
303.9324563050795
 30
0.0
 11
1215.484493972792
 21
303.9324563050795
 31
0.0
  0
LINE
  5
D2B4
330
18
100
AcDbEntity
  8
DRAW2
100
AcDbLine
 10
1335.234493972794
 20
258.0543648289816
 30
0.0
 11
1335.234493972794
 21
258.4324563050797
 31
0.0
  0
LINE
  5
D2B6
330
18
100
AcDbEntity
  8
DRAW2
100
AcDbLine
 10
1423.984493972793
 20
105.9324563050793
 30
0.0
 11
1423.984493972794
 21
303.9324563050795
 31
0.0
  0
LINE
  5
D2B7
330
18
100
AcDbEntity
  8
DRAW2
100
AcDbLine
 10
1422.484493972794
 20
302.9324563050793
 30
0.0
 11
1422.484493972794
 21
106.9324563050792
 31
0.0
  0
CIRCLE
  5
D2B9
330
18
100
AcDbEntity
  8
DRAW3
100
AcDbCircle
 10
1393.484493972793
 20
179.9324563050794
 30
0.0
 40
10.5
  0
CIRCLE
  5
D2BA
330
18
100
AcDbEntity
  8
DRAW2
100
AcDbCircle
 10
1393.484493972793
 20
179.9324563050794
 30
0.0
 40
11.5
  0
CIRCLE
  5
D2BB
330
18
100
AcDbEntity
  8
DRAW2
100
AcDbCircle
 10
1393.484493972793
 20
179.9324563050794
 30
0.0
 40
14.75
  0
LINE
  5
D2C0
330
18
100
AcDbEntity
  8
DRAW2
100
AcDbLine
 10
1344.8092456257
 20
177.9324563050794
 30
0.0
 11
1348.098271718468
 21
177.9324563050794
 31
0.0
  0
LINE
  5
D2C1
330
18
100
AcDbEntity
  8
DRAW2
100
AcDbLine
 10
1344.8092456257
 20
181.9324563050794
 30
0.0
 11
1348.098271718468
 21
181.9324563050794
 31
0.0
  0
LINE
  5
D2C2
330
18
100
AcDbEntity
  8
DRAW2
100
AcDbLine
 10
1344.8092456257
 20
177.9324563050794
 30
0.0
 11
1348.098271718468
 21
177.9324563050794
 31
0.0
  0
CIRCLE
  5
D2C3
330
18
100
AcDbEntity
  8
DRAW2
100
AcDbCircle
 10
1393.484493972793
 20
179.9324563050794
 30
0.0
 40
9.25
  0
CIRCLE
  5
D2C4
330
18
100
AcDbEntity
  8
DRAW2
100
AcDbCircle
 10
1393.484493972793
 20
179.9324563050794
 30
0.0
 40
6.0
  0
LINE
  5
D2C5
330
18
100
AcDbEntity
  8
DRAW2
100
AcDbLine
 10
1378.870716227118
 20
181.9324563050794
 30
0.0
 11
1382.159742319888
 21
181.9324563050794
 31
0.0
  0
LINE
  5
D2C6
330
18
100
AcDbEntity
  8
DRAW2
100
AcDbLine
 10
1378.870716227118
 20
177.9324563050794
 30
0.0
 11
1382.159742319888
 21
177.9324563050794
 31
0.0
  0
LINE
  5
D2C7
330
18
100
AcDbEntity
  8
DRAW2
100
AcDbLine
 10
1378.870716227118
 20
177.9324563050794
 30
0.0
 11
1382.159742319888
 21
177.9324563050794
 31
0.0
  0
ARC
  5
D2C8
330
18
100
AcDbEntity
  8
DRAW2
100
AcDbCircle
 10
1423.484493972791
 20
97.43245630508022
 30
0.0
 40
1.0
100
AcDbArc
 50
270.0
 51
0.0
  0
LINE
  5
D2C9
330
18
100
AcDbEntity
  8
DRAW2
100
AcDbLine
 10
1404.8092456257
 20
181.9324563050794
 30
0.0
 11
1408.098271718468
 21
181.9324563050794
 31
0.0
  0
LINE
  5
D2CA
330
18
100
AcDbEntity
  8
DRAW2
100
AcDbLine
 10
1404.8092456257
 20
177.9324563050794
 30
0.0
 11
1408.098271718468
 21
177.9324563050794
 31
0.0
  0
LINE
  5
D2CB
330
18
100
AcDbEntity
  8
DRAW2
100
AcDbLine
 10
1404.8092456257
 20
177.9324563050794
 30
0.0
 11
1408.098271718468
 21
177.9324563050794
 31
0.0
  0
LINE
  5
D2CC
330
18
100
AcDbEntity
  8
DRAW2
100
AcDbLine
 10
1422.484493972794
 20
302.9324563050793
 30
0.0
 11
1364.984493972794
 21
302.9324563050793
 31
0.0
  0
LINE
  5
D2CD
330
18
100
AcDbEntity
  8
DRAW2
100
AcDbLine
 10
1345.297960494294
 20
251.0891714663636
 30
0.0
 11
1347.797960494294
 21
252.3391714663636
 31
0.0
  0
LINE
  5
D2CE
330
18
100
AcDbEntity
  8
DRAW2
100
AcDbLine
 10
1342.797960494293
 20
252.3391714663636
 30
0.0
 11
1345.297960494294
 21
251.0891714663636
 31
0.0
  0
LINE
  5
D2CF
330
18
100
AcDbEntity
  8
DRAW2
100
AcDbLine
 10
1345.297960494294
 20
256.0891714663636
 30
0.0
 11
1347.797960494294
 21
254.8391714663636
 31
0.0
  0
LINE
  5
D2D0
330
18
100
AcDbEntity
  8
DRAW2
100
AcDbLine
 10
1342.797960494293
 20
254.8391714663636
 30
0.0
 11
1345.297960494294
 21
256.0891714663636
 31
0.0
  0
LINE
  5
D2D1
330
18
100
AcDbEntity
  8
DRAW2
100
AcDbLine
 10
1347.797960494294
 20
254.8391714663636
 30
0.0
 11
1347.797960494294
 21
252.3391714663636
 31
0.0
  0
LINE
  5
D2D2
330
18
100
AcDbEntity
  8
DRAW2
100
AcDbLine
 10
1342.797960494293
 20
252.3391714663636
 30
0.0
 11
1342.797960494293
 21
254.8391714663636
 31
0.0
  0
LINE
  5
D2D3
330
18
100
AcDbEntity
  8
DRAW2
100
AcDbLine
 10
1350.297960494293
 20
253.2891714663636
 30
0.0
 11
1350.297960494293
 21
250.5891714663636
 31
0.0
  0
LINE
  5
D2D4
330
18
100
AcDbEntity
  8
DRAW2
100
AcDbLine
 10
1340.297960494293
 20
250.5891714663636
 30
0.0
 11
1340.297960494293
 21
253.2891714663636
 31
0.0
  0
LINE
  5
D2D5
330
18
100
AcDbEntity
  8
DRAW2
100
AcDbLine
 10
1338.797960494294
 20
250.5891714663632
 30
0.0
 11
1338.797960494294
 21
249.8391707983305
 31
0.0
  0
LINE
  5
D2D6
330
18
100
AcDbEntity
  8
DRAW2
100
AcDbLine
 10
1351.797960494294
 20
249.8391707983305
 30
0.0
 11
1351.797960494294
 21
250.5891714663632
 31
0.0
  0
LINE
  5
D2D8
330
18
100
AcDbEntity
  8
DRAW2
100
AcDbLine
 10
1375.171027451294
 20
249.8391707983305
 30
0.0
 11
1375.171027451294
 21
250.5891714663632
 31
0.0
  0
LINE
  5
D2D9
330
18
100
AcDbEntity
  8
DRAW2
100
AcDbLine
 10
1386.671027451294
 20
250.5891714663636
 30
0.0
 11
1386.671027451294
 21
253.2891714663636
 31
0.0
  0
LINE
  5
D2DA
330
18
100
AcDbEntity
  8
DRAW2
100
AcDbLine
 10
1376.671027451293
 20
253.2891714663636
 30
0.0
 11
1376.671027451293
 21
250.5891714663636
 31
0.0
  0
LINE
  5
D2DB
330
18
100
AcDbEntity
  8
DRAW2
100
AcDbLine
 10
1384.171027451293
 20
252.3391714663636
 30
0.0
 11
1384.171027451293
 21
254.8391714663636
 31
0.0
  0
LINE
  5
D2DC
330
18
100
AcDbEntity
  8
DRAW2
100
AcDbLine
 10
1379.171027451294
 20
254.8391714663636
 30
0.0
 11
1379.171027451294
 21
252.3391714663636
 31
0.0
  0
LINE
  5
D2DD
330
18
100
AcDbEntity
  8
DRAW2
100
AcDbLine
 10
1384.171027451293
 20
254.8391714663636
 30
0.0
 11
1381.671027451293
 21
256.0891714663636
 31
0.0
  0
LINE
  5
D2DE
330
18
100
AcDbEntity
  8
DRAW2
100
AcDbLine
 10
1381.671027451293
 20
256.0891714663636
 30
0.0
 11
1379.171027451294
 21
254.8391714663636
 31
0.0
  0
LINE
  5
D2DF
330
18
100
AcDbEntity
  8
DRAW2
100
AcDbLine
 10
1384.171027451293
 20
252.3391714663636
 30
0.0
 11
1381.671027451293
 21
251.0891714663636
 31
0.0
  0
LINE
  5
D2E0
330
18
100
AcDbEntity
  8
DRAW2
100
AcDbLine
 10
1381.671027451293
 20
251.0891714663636
 30
0.0
 11
1379.171027451294
 21
252.3391714663636
 31
0.0
  0
LINE
  5
D2E1
330
18
100
AcDbEntity
  8
DRAW2
100
AcDbLine
 10
1388.171027451293
 20
250.5891714663632
 30
0.0
 11
1388.171027451293
 21
249.8391707983305
 31
0.0
  0
LINE
  5
D2E2
330
18
100
AcDbEntity
  8
DRAW2
100
AcDbLine
 10
1364.484493972794
 20
260.5510464107732
 30
0.0
 11
1371.484493972794
 21
265.7471988334796
 31
0.0
  0
LINE
  5
D2E3
330
18
100
AcDbEntity
  8
DRAW2
100
AcDbLine
 10
1364.484493972794
 20
264.1283966799629
 30
0.0
 11
1371.484493972794
 21
269.3245491026694
 31
0.0
  0
LINE
  5
D2E4
330
18
100
AcDbEntity
  8
DRAW2
100
AcDbLine
 10
1368.484493972794
 20
273.2835223771127
 30
0.0
 11
1371.484493972794
 21
271.0565999102385
 31
0.0
  0
LINE
  5
D2E5
330
18
100
AcDbEntity
  8
DRAW2
100
AcDbLine
 10
1364.984493972794
 20
276.690584506452
 30
0.0
 11
1364.984493972794
 21
310.5566878777356
 31
0.0
  0
LINE
  5
D2E6
330
18
100
AcDbEntity
  8
DRAW2
100
AcDbLine
 10
1361.984493972794
 20
276.690584506452
 30
0.0
 11
1361.984493972794
 21
310.4270165707911
 31
0.0
  0
LINE
  5
D2E7
330
18
100
AcDbEntity
  8
DRAW2
100
AcDbLine
 10
1364.484493972794
 20
260.5510464107732
 30
0.0
 11
1362.484493972794
 21
260.5510464107732
 31
0.0
  0
LINE
  5
D2E8
330
18
100
AcDbEntity
  8
DRAW2
100
AcDbLine
 10
1355.484493972794
 20
265.7471988334796
 30
0.0
 11
1362.484493972794
 21
260.5510464107732
 31
0.0
  0
LINE
  5
D2E9
330
18
100
AcDbEntity
  8
DRAW2
100
AcDbLine
 10
1370.128071196976
 20
264.7403160487962
 30
0.0
 11
1370.062682097793
 21
263.695585316174
 31
0.0
  0
LINE
  5
D2EA
330
18
100
AcDbEntity
  8
DRAW2
100
AcDbLine
 10
1356.840916748611
 20
264.7403160487979
 30
0.0
 11
1356.906305847793
 21
263.695585316174
 31
0.0
  0
LINE
  5
D2EB
330
18
100
AcDbEntity
  8
DRAW2
100
AcDbLine
 10
1364.484493972794
 20
264.1283966799629
 30
0.0
 11
1364.484493972794
 21
260.5510464107729
 31
0.0
  0
LINE
  5
D2EC
330
18
100
AcDbEntity
  8
DRAW2
100
AcDbLine
 10
1362.484493972794
 20
264.1283966799629
 30
0.0
 11
1362.484493972794
 21
260.5510464107732
 31
0.0
  0
LINE
  5
D2ED
330
18
100
AcDbEntity
  8
DRAW2
100
AcDbLine
 10
1355.484493972794
 20
269.3245491026694
 30
0.0
 11
1355.484493972794
 21
265.74719883348
 31
0.0
  0
LINE
  5
D2EE
330
18
100
AcDbEntity
  8
DRAW2
100
AcDbLine
 10
1355.484493972794
 20
269.3245491026694
 30
0.0
 11
1362.484493972794
 21
264.1283966799629
 31
0.0
  0
LINE
  5
D2EF
330
18
100
AcDbEntity
  8
DRAW2
100
AcDbLine
 10
1355.484493972794
 20
271.0565999102385
 30
0.0
 11
1358.484493972794
 21
273.2835223771127
 31
0.0
  0
LINE
  5
D2F0
330
18
100
AcDbEntity
  8
DRAW2
100
AcDbLine
 10
1355.484493972794
 20
271.0565999102385
 30
0.0
 11
1355.484493972794
 21
269.3245491026694
 31
0.0
  0
LINE
  5
D2F1
330
18
100
AcDbEntity
  8
DRAW2
100
AcDbLine
 10
1364.484493972794
 20
264.1283966799629
 30
0.0
 11
1362.484493972794
 21
264.1283966799629
 31
0.0
  0
LINE
  5
D2F2
330
18
100
AcDbEntity
  8
DRAW2
100
AcDbLine
 10
1368.484493972794
 20
271.9405845064521
 30
0.0
 11
1368.484493972794
 21
276.4405845064521
 31
0.0
  0
LINE
  5
D2F3
330
18
100
AcDbEntity
  8
DRAW2
100
AcDbLine
 10
1358.484493972794
 20
271.9405845064521
 30
0.0
 11
1358.484493972794
 21
276.4405845064521
 31
0.0
  0
LINE
  5
D2F4
330
18
100
AcDbEntity
  8
DRAW2
100
AcDbLine
 10
1369.984493972794
 20
277.1189710175406
 30
0.0
 11
1369.984493972794
 21
277.8689716855733
 31
0.0
  0
LINE
  5
D2F5
330
18
100
AcDbEntity
  8
DRAW2
100
AcDbLine
 10
1356.984493972794
 20
277.8689716855733
 30
0.0
 11
1356.984493972794
 21
277.1189710175406
 31
0.0
  0
LINE
  5
D2F6
330
18
100
AcDbEntity
  8
DRAW2
100
AcDbLine
 10
1364.984493972794
 20
282.6189716855738
 30
0.0
 11
1365.984493972794
 21
282.1189716855736
 31
0.0
  0
LINE
  5
D2F7
330
18
100
AcDbEntity
  8
DRAW2
100
AcDbLine
 10
1360.984493972794
 20
282.1189716855736
 30
0.0
 11
1361.984493972794
 21
282.6189716855738
 31
0.0
  0
LINE
  5
D2F8
330
18
100
AcDbEntity
  8
DRAW2
100
AcDbLine
 10
1365.984493972794
 20
282.1189716855736
 30
0.0
 11
1365.984493972794
 21
280.2507622455097
 31
0.0
  0
LINE
  5
D2F9
330
18
100
AcDbEntity
  8
DRAW2
100
AcDbLine
 10
1360.984493972794
 20
280.2507622455097
 30
0.0
 11
1360.984493972794
 21
282.1189716855736
 31
0.0
  0
LINE
  5
D2FA
330
18
100
AcDbEntity
  8
DRAW2
100
AcDbLine
 10
1368.484493972794
 20
280.5689716855738
 30
0.0
 11
1368.484493972794
 21
277.8689716855736
 31
0.0
  0
LINE
  5
D2FB
330
18
100
AcDbEntity
  8
DRAW2
100
AcDbLine
 10
1358.484493972794
 20
277.8689716855736
 30
0.0
 11
1358.484493972794
 21
280.5689716855738
 31
0.0
  0
LINE
  5
D2FC
330
18
100
AcDbEntity
  8
DRAW2
100
AcDbLine
 10
1371.484493972794
 20
269.3245491026694
 30
0.0
 11
1371.484493972794
 21
265.7471988334795
 31
0.0
  0
LINE
  5
D2FD
330
18
100
AcDbEntity
  8
DRAW2
100
AcDbLine
 10
1371.484493972794
 20
271.0565999102385
 30
0.0
 11
1371.484493972794
 21
269.3245491026694
 31
0.0
  0
LINE
  5
D2FE
330
18
100
AcDbEntity
  8
DRAW2
100
AcDbLine
 10
1391.734493972794
 20
258.0543648289816
 30
0.0
 11
1391.734493972794
 21
258.4324563050797
 31
0.0
  0
LINE
  5
D2FF
330
18
100
AcDbEntity
  8
DRAW2
100
AcDbLine
 10
1303.48449397279
 20
313.4324563050792
 30
0.0
 11
1423.484493972791
 21
313.4324563050794
 31
0.0
  0
LINE
  5
D300
330
18
100
AcDbEntity
  8
DRAW2
100
AcDbLine
 10
1303.484493972792
 20
358.4324563050796
 30
0.0
 11
1423.484493972791
 21
358.4324563050794
 31
0.0
  0
LINE
  5
D301
330
18
100
AcDbEntity
  8
DRAW2
100
AcDbLine
 10
1302.484493972791
 20
367.9324563050793
 30
0.0
 11
1215.484493972794
 21
367.9324563050793
 31
0.0
  0
LINE
  5
D302
330
18
100
AcDbEntity
  8
DRAW2
100
AcDbLine
 10
1215.484493972794
 20
382.9324563050791
 30
0.0
 11
1302.484493972794
 21
382.9324563050791
 31
0.0
  0
LINE
  5
D303
330
18
100
AcDbEntity
  8
DRAW2
100
AcDbLine
 10
1215.484493972794
 20
367.9324563050791
 30
0.0
 11
1215.484493972794
 21
382.9324563050791
 31
0.0
  0
LINE
  5
D304
330
18
100
AcDbEntity
  8
DRAW2
100
AcDbLine
 10
1262.984493972794
 20
402.9324563050803
 30
0.0
 11
1262.984493972794
 21
382.9324563050803
 31
0.0
  0
LINE
  5
D305
330
18
100
AcDbEntity
  8
DRAW2
100
AcDbLine
 10
1241.984493972794
 20
382.9324563050803
 30
0.0
 11
1241.984493972794
 21
402.9324563050803
 31
0.0
  0
LINE
  5
D306
330
18
100
AcDbEntity
  8
DRAW2
100
AcDbLine
 10
1262.984493972794
 20
382.9324563050803
 30
0.0
 11
1241.984493972794
 21
382.9324563050803
 31
0.0
  0
LINE
  5
D307
330
18
100
AcDbEntity
  8
DRAW2
100
AcDbLine
 10
1243.984493972794
 20
404.9324563050801
 30
0.0
 11
1260.984493972794
 21
404.9324563050801
 31
0.0
  0
LINE
  5
D308
330
18
100
AcDbEntity
  8
DRAW2
100
AcDbLine
 10
1241.984493972794
 20
402.9324563050803
 30
0.0
 11
1262.984493972794
 21
402.9324563050803
 31
0.0
  0
LINE
  5
D309
330
18
100
AcDbEntity
  8
DRAW2
100
AcDbLine
 10
1241.984493972794
 20
402.9324563050803
 30
0.0
 11
1243.984493972794
 21
404.9324563050801
 31
0.0
  0
LINE
  5
D30A
330
18
100
AcDbEntity
  8
DRAW2
100
AcDbLine
 10
1260.984493972794
 20
404.9324563050801
 30
0.0
 11
1262.984493972794
 21
402.9324563050803
 31
0.0
  0
ARC
  5
D30B
330
18
100
AcDbEntity
  8
DRAW2
100
AcDbCircle
 10
1303.48449397279
 20
312.4324563050793
 30
0.0
 40
1.0
100
AcDbArc
 50
90.0
 51
180.0
  0
ARC
  5
D30C
330
18
100
AcDbEntity
  8
DRAW2
100
AcDbCircle
 10
1303.484493972792
 20
359.4324563050796
 30
0.0
 40
1.0
100
AcDbArc
 50
180.0
 51
270.0
  0
LINE
  5
D30D
330
18
100
AcDbEntity
  8
DRAW2
100
AcDbLine
 10
1302.484493972794
 20
382.9324563050791
 30
0.0
 11
1302.484493972794
 21
367.9324563050791
 31
0.0
  0
ARC
  5
D30E
330
18
100
AcDbEntity
  8
DRAW2
100
AcDbCircle
 10
1423.484493972791
 20
312.4324563050794
 30
0.0
 40
1.0
100
AcDbArc
 50
0.0
 51
90.0
  0
ARC
  5
D30F
330
18
100
AcDbEntity
  8
DRAW2
100
AcDbCircle
 10
1423.484493972791
 20
359.4324563050794
 30
0.0
 40
1.0
100
AcDbArc
 50
270.0
 51
0.0
  0
LINE
  5
D310
330
18
100
AcDbEntity
  8
DRAW2
100
AcDbLine
 10
1424.484493972792
 20
367.9324563050792
 30
0.0
 11
1424.484493972792
 21
382.9324563050791
 31
0.0
  0
LINE
  5
D311
330
18
100
AcDbEntity
  8
DRAW2
100
AcDbLine
 10
1463.984493972793
 20
382.9324563050795
 30
0.0
 11
1463.984493972793
 21
402.9324563050795
 31
0.0
  0
LINE
  5
D312
330
18
100
AcDbEntity
  8
DRAW2
100
AcDbLine
 10
1463.984493972793
 20
402.9324563050795
 30
0.0
 11
1465.984493972793
 21
404.9324563050794
 31
0.0
  0
LINE
  5
D313
330
18
100
AcDbEntity
  8
DRAW2
100
AcDbLine
 10
1580.484504010725
 20
273.9324560269146
 30
0.0
 11
1580.484502581971
 21
397.9324561786406
 31
0.0
  0
LINE
  5
D314
330
18
100
AcDbEntity
  8
DRAW2
100
AcDbLine
 10
1583.484504010725
 20
273.9324560269146
 30
0.0
 11
1583.484502581971
 21
397.9324561786406
 31
0.0
  0
LINE
  5
D315
330
18
100
AcDbEntity
  8
DRAW2
100
AcDbLine
 10
1586.484493972791
 20
273.4324563050794
 30
0.0
 11
1586.484493972791
 21
398.4324563050794
 31
0.0
  0
LINE
  5
D316
330
18
100
AcDbEntity
  8
DRAW2
100
AcDbLine
 10
1511.484493972791
 20
303.9324563050795
 30
0.0
 11
1511.484493972791
 21
367.9324563050793
 31
0.0
  0
LINE
  5
D318
330
18
100
AcDbEntity
  8
DRAW2
100
AcDbLine
 10
1606.484493972791
 20
273.4324563050794
 30
0.0
 11
1606.484493972791
 21
398.4324563050794
 31
0.0
  0
LINE
  5
D31A
330
18
100
AcDbEntity
  8
DRAW2
100
AcDbLine
 10
1586.484493972791
 20
273.4324563050794
 30
0.0
 11
1606.484493972791
 21
273.4324563050794
 31
0.0
  0
LINE
  5
D31C
330
18
100
AcDbEntity
  8
DRAW2
100
AcDbLine
 10
1586.484493972796
 20
136.4324563050792
 30
0.0
 11
1606.484493972796
 21
136.4324563050792
 31
0.0
  0
LINE
  5
D31E
330
18
100
AcDbEntity
  8
DRAW2
100
AcDbLine
 10
1525.984493972793
 20
302.9324563050791
 30
0.0
 11
1525.984493972793
 21
106.9324563050789
 31
0.0
  0
LINE
  5
D31F
330
18
100
AcDbEntity
  8
DRAW2
100
AcDbLine
 10
1510.984493972792
 20
105.9324563050791
 30
0.0
 11
1510.984493972792
 21
303.9324563050791
 31
0.0
  0
LINE
  5
D320
330
18
100
AcDbEntity
  8
DRAW2
100
AcDbLine
 10
1525.984493972793
 20
191.9324563050794
 30
0.0
 11
1525.984493972793
 21
217.9324563050794
 31
0.0
  0
LINE
  5
D321
330
18
100
AcDbEntity
  8
DRAW2
100
AcDbLine
 10
1550.984493972793
 20
191.9324563050794
 30
0.0
 11
1550.984493972793
 21
217.9324563050794
 31
0.0
  0
LINE
  5
D322
330
18
100
AcDbEntity
  8
DRAW2
100
AcDbLine
 10
1552.984493972792
 20
193.9324563050794
 30
0.0
 11
1552.984493972792
 21
215.9325163050794
 31
0.0
  0
LINE
  5
D323
330
18
100
AcDbEntity
  8
DRAW2
100
AcDbLine
 10
1525.984493972793
 20
191.9324563050794
 30
0.0
 11
1550.984493972793
 21
191.9324563050794
 31
0.0
  0
LINE
  5
D324
330
18
100
AcDbEntity
  8
DRAW2
100
AcDbLine
 10
1525.984493972793
 20
112.2581191569089
 30
0.0
 11
1550.984493972793
 21
112.2581191569089
 31
0.0
  0
LINE
  5
D325
330
18
100
AcDbEntity
  8
DRAW2
100
AcDbLine
 10
1525.984493972793
 20
138.2581191569089
 30
0.0
 11
1550.984493972793
 21
138.2581191569089
 31
0.0
  0
LINE
  5
D327
330
18
100
AcDbEntity
  8
DRAW2
100
AcDbLine
 10
1512.484493972795
 20
101.4324563050791
 30
0.0
 11
1580.484503972793
 21
101.4324563050792
 31
0.0
  0
LINE
  5
D328
330
18
100
AcDbEntity
  8
DRAW2
100
AcDbLine
 10
1525.984493972793
 20
112.2581191569089
 30
0.0
 11
1525.984493972793
 21
138.2581191569089
 31
0.0
  0
LINE
  5
D329
330
18
100
AcDbEntity
  8
DRAW2
100
AcDbLine
 10
1525.984493972793
 20
106.9324563050789
 30
0.0
 11
1510.984493972792
 21
106.9324563050791
 31
0.0
  0
ARC
  5
D32A
330
18
100
AcDbEntity
  8
DRAW2
100
AcDbCircle
 10
1512.484493972795
 20
102.4324563050792
 30
0.0
 40
1.0
100
AcDbArc
 50
180.0
 51
270.0
  0
LINE
  5
D32B
330
18
100
AcDbEntity
  8
DRAW2
100
AcDbLine
 10
1552.984493972792
 20
114.2581191569089
 30
0.0
 11
1552.984493972792
 21
136.2581791569089
 31
0.0
  0
LINE
  5
D32C
330
18
100
AcDbEntity
  8
DRAW2
100
AcDbLine
 10
1550.984493972793
 20
112.2581191569089
 30
0.0
 11
1550.984493972793
 21
138.2581191569089
 31
0.0
  0
LINE
  5
D32D
330
18
100
AcDbEntity
  8
DRAW2
100
AcDbLine
 10
1552.984493972792
 20
114.2581191569089
 30
0.0
 11
1550.984493972793
 21
112.2581191569089
 31
0.0
  0
LINE
  5
D32E
330
18
100
AcDbEntity
  8
DRAW2
100
AcDbLine
 10
1552.984493972792
 20
136.2581791569089
 30
0.0
 11
1550.984493972793
 21
138.2581191569089
 31
0.0
  0
LINE
  5
D32F
330
18
100
AcDbEntity
  8
DRAW2
100
AcDbLine
 10
1580.484503972793
 20
135.9324563050793
 30
0.0
 11
1586.484503972793
 21
135.9324563050793
 31
0.0
  0
LINE
  5
D330
330
18
100
AcDbEntity
  8
DRAW2
100
AcDbLine
 10
1552.984493972792
 20
193.9324563050794
 30
0.0
 11
1550.984493972793
 21
191.9324563050794
 31
0.0
  0
LINE
  5
D331
330
18
100
AcDbEntity
  8
DRAW2
100
AcDbLine
 10
1525.984493972793
 20
271.6067934532458
 30
0.0
 11
1550.984493972793
 21
271.6067934532458
 31
0.0
  0
LINE
  5
D332
330
18
100
AcDbEntity
  8
DRAW2
100
AcDbLine
 10
1525.984493972793
 20
297.6067934532458
 30
0.0
 11
1550.984493972793
 21
297.6067934532458
 31
0.0
  0
LINE
  5
D334
330
18
100
AcDbEntity
  8
DRAW2
100
AcDbLine
 10
1525.984493972793
 20
217.9324563050794
 30
0.0
 11
1550.984493972793
 21
217.9324563050794
 31
0.0
  0
LINE
  5
D335
330
18
100
AcDbEntity
  8
DRAW2
100
AcDbLine
 10
1512.484493972791
 20
308.4324563050795
 30
0.0
 11
1580.484504010725
 21
308.4324560269146
 31
0.0
  0
LINE
  5
D336
330
18
100
AcDbEntity
  8
DRAW2
100
AcDbLine
 10
1525.984493972793
 20
271.6067934532458
 30
0.0
 11
1525.984493972793
 21
297.6067934532458
 31
0.0
  0
LINE
  5
D337
330
18
100
AcDbEntity
  8
DRAW2
100
AcDbLine
 10
1510.984493972792
 20
302.9324563050791
 30
0.0
 11
1525.984493972793
 21
302.9324563050791
 31
0.0
  0
ARC
  5
D338
330
18
100
AcDbEntity
  8
DRAW2
100
AcDbCircle
 10
1512.484493972791
 20
307.4324563050796
 30
0.0
 40
1.0
100
AcDbArc
 50
90.0
 51
180.0
  0
LINE
  5
D339
330
18
100
AcDbEntity
  8
DRAW2
100
AcDbLine
 10
1552.984493972792
 20
215.9325163050794
 30
0.0
 11
1550.984493972793
 21
217.9324563050794
 31
0.0
  0
LINE
  5
D33A
330
18
100
AcDbEntity
  8
DRAW2
100
AcDbLine
 10
1552.984493972792
 20
273.6067934532458
 30
0.0
 11
1552.984493972792
 21
295.6068534532458
 31
0.0
  0
LINE
  5
D33B
330
18
100
AcDbEntity
  8
DRAW2
100
AcDbLine
 10
1550.984493972793
 20
271.6067934532458
 30
0.0
 11
1550.984493972793
 21
297.6067934532458
 31
0.0
  0
LINE
  5
D33C
330
18
100
AcDbEntity
  8
DRAW2
100
AcDbLine
 10
1552.984493972792
 20
273.6067934532458
 30
0.0
 11
1550.984493972793
 21
271.6067934532458
 31
0.0
  0
LINE
  5
D33D
330
18
100
AcDbEntity
  8
DRAW2
100
AcDbLine
 10
1552.984493972792
 20
295.6068534532458
 30
0.0
 11
1550.984493972793
 21
297.6067934532458
 31
0.0
  0
LINE
  5
D33E
330
18
100
AcDbEntity
  8
DRAW2
100
AcDbLine
 10
1580.484504010725
 20
273.9324560269146
 30
0.0
 11
1586.484504010726
 21
273.9324560269146
 31
0.0
  0
LINE
  5
D33F
330
18
100
AcDbEntity
  8
DRAW2
100
AcDbLine
 10
1586.484493972791
 20
398.4324563050794
 30
0.0
 11
1606.484493972791
 21
398.4324563050794
 31
0.0
  0
LINE
  5
D341
330
18
100
AcDbEntity
  8
DRAW2
100
AcDbLine
 10
1512.484493972791
 20
363.4324563050794
 30
0.0
 11
1580.484502581971
 21
363.4324563050794
 31
0.0
  0
ARC
  5
D342
330
18
100
AcDbEntity
  8
DRAW2
100
AcDbCircle
 10
1512.484493972791
 20
364.4324563050794
 30
0.0
 40
1.0
100
AcDbArc
 50
180.0
 51
270.0
  0
LINE
  5
D343
330
18
100
AcDbEntity
  8
DRAW2
100
AcDbLine
 10
1484.984493972794
 20
402.9324563050795
 30
0.0
 11
1484.984493972794
 21
382.9324563050795
 31
0.0
  0
LINE
  5
D344
330
18
100
AcDbEntity
  8
DRAW2
100
AcDbLine
 10
1482.984493972794
 20
404.9324563050794
 30
0.0
 11
1484.984493972794
 21
402.9324563050795
 31
0.0
  0
LINE
  5
D345
330
18
100
AcDbEntity
  8
DRAW2
100
AcDbLine
 10
1511.484493972794
 20
382.9324563050791
 30
0.0
 11
1511.484493972794
 21
367.9324563050792
 31
0.0
  0
LINE
  5
D346
330
18
100
AcDbEntity
  8
DRAW2
100
AcDbLine
 10
1580.484502581971
 20
397.9324561786406
 30
0.0
 11
1586.484502581971
 21
397.9324561786406
 31
0.0
  0
LINE
  5
D348
330
18
100
AcDbEntity
  8
DRAW2
100
AcDbLine
 10
1424.484493972791
 20
629.1677209690454
 30
0.0
 11
1511.484493972791
 21
629.1677209690454
 31
0.0
  0
LINE
  5
D349
330
18
100
AcDbEntity
  8
DRAW2
100
AcDbLine
 10
1511.484493972791
 20
725.1677209690454
 30
0.0
 11
1424.484493972791
 21
725.1677209690454
 31
0.0
  0
LINE
  5
D34B
330
18
100
AcDbEntity
  8
DRAW2
100
AcDbLine
 10
1511.484493972791
 20
619.6677209690452
 30
0.0
 11
1424.484493972791
 21
619.6677209690452
 31
0.0
  0
LINE
  5
D34C
330
18
100
AcDbEntity
  8
DRAW2
100
AcDbLine
 10
1511.484493972791
 20
734.6677209690454
 30
0.0
 11
1424.484493972791
 21
734.6677209690454
 31
0.0
  0
CIRCLE
  5
D34D
330
18
100
AcDbEntity
  8
DRAW2
100
AcDbCircle
 10
1474.484453972791
 20
644.1677209690452
 30
0.0
 40
10.5
  0
CIRCLE
  5
D34E
330
18
100
AcDbEntity
  8
DRAW2
100
AcDbCircle
 10
1474.484453972791
 20
644.1677209690452
 30
0.0
 40
8.5
  0
CIRCLE
  5
D34F
330
18
100
AcDbEntity
  8
DRAW2
100
AcDbCircle
 10
1474.484453972791
 20
710.1677209690453
 30
0.0
 40
8.5
  0
CIRCLE
  5
D350
330
18
100
AcDbEntity
  8
DRAW2
100
AcDbCircle
 10
1474.484453972791
 20
710.1677209690453
 30
0.0
 40
10.5
  0
LINE
  5
D353
330
18
100
AcDbEntity
  8
DRAW2
100
AcDbLine
 10
1423.48447397279
 20
567.1677209690454
 30
0.0
 11
1510.484473972789
 21
567.1677209690454
 31
0.0
  0
LINE
  5
D354
330
18
100
AcDbEntity
  8
DRAW2
100
AcDbLine
 10
1423.48447397279
 20
787.1677209690454
 30
0.0
 11
1510.484473972789
 21
787.1677209690454
 31
0.0
  0
LINE
  5
D355
330
18
100
AcDbEntity
  8
DRAW2
100
AcDbLine
 10
1216.484473972791
 20
787.1677209690454
 30
0.0
 11
1216.484473972791
 21
734.6677209690454
 31
0.0
  0
LINE
  5
D356
330
18
100
AcDbEntity
  8
DRAW2
100
AcDbLine
 10
1304.484473972791
 20
699.6677209690456
 30
0.0
 11
1304.484473972791
 21
787.1677209690456
 31
0.0
  0
LINE
  5
D357
330
18
100
AcDbEntity
  8
DRAW2
100
AcDbLine
 10
1422.484473972791
 20
699.6677209690452
 30
0.0
 11
1422.484473972792
 21
787.1677209690456
 31
0.0
  0
LINE
  5
D358
330
18
100
AcDbEntity
  8
DRAW2
100
AcDbLine
 10
1423.48447397279
 20
787.1677209690454
 30
0.0
 11
1423.48447397279
 21
699.6677209690452
 31
0.0
  0
LINE
  5
D359
330
18
100
AcDbEntity
  8
DRAW2
100
AcDbLine
 10
1303.484473972791
 20
787.1677209690454
 30
0.0
 11
1303.484473972791
 21
699.6677209692456
 31
0.0
  0
LINE
  5
D35A
330
18
100
AcDbEntity
  8
DRAW2
100
AcDbLine
 10
1216.484473972791
 20
787.1677209690454
 30
0.0
 11
1216.484473972791
 21
734.6677209690454
 31
0.0
  0
LINE
  5
D35B
330
18
100
AcDbEntity
  8
DRAW2
100
AcDbLine
 10
1318.734493972794
 20
539.3277209690453
 30
0.0
 11
1348.234493972794
 21
539.3277209690453
 31
0.0
  0
LINE
  5
D35C
330
18
100
AcDbEntity
  8
DRAW2
100
AcDbLine
 10
1358.375108539844
 20
567.1677209690455
 30
0.0
 11
1304.484473972791
 21
567.1677209690454
 31
0.0
  0
LINE
  5
D35D
330
18
100
AcDbEntity
  8
DRAW2
100
AcDbLine
 10
1303.48449397279
 20
699.6677209690456
 30
0.0
 11
1423.484493972791
 21
699.6677209690452
 31
0.0
  0
LINE
  5
D35E
330
18
100
AcDbEntity
  8
DRAW2
100
AcDbLine
 10
1303.48449397279
 20
654.6677209690451
 30
0.0
 11
1423.484493972791
 21
654.6677209690455
 31
0.0
  0
LINE
  5
D35F
330
18
100
AcDbEntity
  8
DRAW2
100
AcDbLine
 10
1422.484473972792
 20
727.1277049562327
 30
0.0
 11
1304.484473972791
 21
727.1277049562327
 31
0.0
  0
LINE
  5
D360
330
18
100
AcDbEntity
  8
DRAW2
100
AcDbLine
 10
1422.484473972792
 20
627.207736981858
 30
0.0
 11
1304.484473972791
 21
627.207736981858
 31
0.0
  0
CIRCLE
  5
D362
330
18
100
AcDbEntity
  8
DRAW2
100
AcDbCircle
 10
1252.484493972791
 20
644.1677209690452
 30
0.0
 40
8.5
  0
CIRCLE
  5
D363
330
18
100
AcDbEntity
  8
DRAW2
100
AcDbCircle
 10
1252.484493972791
 20
644.1677209690452
 30
0.0
 40
10.5
  0
LINE
  5
D364
330
18
100
AcDbEntity
  8
DRAW2
100
AcDbLine
 10
1215.48449397279
 20
725.1677209690454
 30
0.0
 11
1215.48449397279
 21
629.1677209690454
 31
0.0
  0
LINE
  5
D365
330
18
100
AcDbEntity
  8
DRAW2
100
AcDbLine
 10
1302.484493972791
 20
629.1677209690454
 30
0.0
 11
1302.484493972791
 21
725.1677209690454
 31
0.0
  0
LINE
  5
D367
330
18
100
AcDbEntity
  8
DRAW2
100
AcDbLine
 10
1215.48449397279
 20
619.6677209690452
 30
0.0
 11
1215.48449397279
 21
734.6677209690454
 31
0.0
  0
LINE
  5
D368
330
18
100
AcDbEntity
  8
DRAW2
100
AcDbLine
 10
1302.484493972791
 20
619.6677209690452
 30
0.0
 11
1302.484493972791
 21
734.6677209690454
 31
0.0
  0
LINE
  5
D369
330
18
100
AcDbEntity
  8
DRAW2
100
AcDbLine
 10
1304.484473972791
 20
567.1677209690454
 30
0.0
 11
1304.484473972791
 21
654.6677209690452
 31
0.0
  0
LINE
  5
D36A
330
18
100
AcDbEntity
  8
DRAW2
100
AcDbLine
 10
1303.484473972791
 20
654.6677209688452
 30
0.0
 11
1303.484473972791
 21
567.1677209690454
 31
0.0
  0
LINE
  5
D36B
330
18
100
AcDbEntity
  8
DRAW2
100
AcDbLine
 10
1215.48449397279
 20
629.1677209690454
 30
0.0
 11
1302.484493972791
 21
629.1677209690454
 31
0.0
  0
LINE
  5
D36C
330
18
100
AcDbEntity
  8
DRAW2
100
AcDbLine
 10
1302.484493972791
 20
619.6677209690452
 30
0.0
 11
1215.48449397279
 21
619.6677209690452
 31
0.0
  0
LINE
  5
D36D
330
18
100
AcDbEntity
  8
DRAW2
100
AcDbLine
 10
1216.484473972791
 20
567.1677209690454
 30
0.0
 11
1303.484473972791
 21
567.1677209690454
 31
0.0
  0
LINE
  5
D36E
330
18
100
AcDbEntity
  8
DRAW2
100
AcDbLine
 10
1216.484473972791
 20
619.6677209690452
 30
0.0
 11
1216.484473972791
 21
567.1677209690454
 31
0.0
  0
LINE
  5
D36F
330
18
100
AcDbEntity
  8
DRAW2
100
AcDbLine
 10
1216.484473972791
 20
619.6677209690452
 30
0.0
 11
1216.484473972791
 21
567.1677209690454
 31
0.0
  0
LINE
  5
D370
330
18
100
AcDbEntity
  8
DRAW2
100
AcDbLine
 10
1318.734493972794
 20
539.3277209690453
 30
0.0
 11
1318.734493972794
 21
567.1677209690454
 31
0.0
  0
LINE
  5
D371
330
18
100
AcDbEntity
  8
DRAW2
100
AcDbLine
 10
1303.48447397279
 20
592.6677207179388
 30
0.0
 11
1304.484523772793
 21
592.6677207179388
 31
0.0
  0
LINE
  5
D372
330
18
100
AcDbEntity
  8
DRAW2
100
AcDbLine
 10
1303.484473972791
 20
629.2198325900979
 30
0.0
 11
1302.484493972791
 21
629.2198325900979
 31
0.0
  0
LINE
  5
D373
330
18
100
AcDbEntity
  8
DRAW2
100
AcDbLine
 10
1302.484493972791
 20
725.1677209690454
 30
0.0
 11
1215.48449397279
 21
725.1677209690454
 31
0.0
  0
LINE
  5
D375
330
18
100
AcDbEntity
  8
DRAW2
100
AcDbLine
 10
1302.484493972791
 20
734.6677209690454
 30
0.0
 11
1215.48449397279
 21
734.6677209690454
 31
0.0
  0
CIRCLE
  5
D379
330
18
100
AcDbEntity
  8
DRAW2
100
AcDbCircle
 10
1252.484493972791
 20
710.1677209690453
 30
0.0
 40
10.5
  0
CIRCLE
  5
D37A
330
18
100
AcDbEntity
  8
DRAW2
100
AcDbCircle
 10
1252.484493972791
 20
710.1677209690453
 30
0.0
 40
8.5
  0
ARC
  5
D37B
330
18
100
AcDbEntity
  8
DRAW2
100
AcDbCircle
 10
1303.48449397279
 20
653.6677209690451
 30
0.0
 40
1.0
100
AcDbArc
 50
90.0
 51
180.0
  0
ARC
  5
D37C
330
18
100
AcDbEntity
  8
DRAW2
100
AcDbCircle
 10
1303.48449397279
 20
700.6677209690455
 30
0.0
 40
1.0
100
AcDbArc
 50
180.0
 51
270.0
  0
LINE
  5
D37D
330
18
100
AcDbEntity
  8
DRAW2
100
AcDbLine
 10
1303.484473972791
 20
725.1156093479927
 30
0.0
 11
1302.484493972791
 21
725.1156093479927
 31
0.0
  0
LINE
  5
D37E
330
18
100
AcDbEntity
  8
DRAW2
100
AcDbLine
 10
1424.484493972791
 20
725.1677209690454
 30
0.0
 11
1424.484493972791
 21
629.1677209690454
 31
0.0
  0
LINE
  5
D37F
330
18
100
AcDbEntity
  8
DRAW2
100
AcDbLine
 10
1424.484493972791
 20
619.6677209690452
 30
0.0
 11
1424.484493972791
 21
734.6677209690454
 31
0.0
  0
LINE
  5
D380
330
18
100
AcDbEntity
  8
DRAW2
100
AcDbLine
 10
1422.484473972792
 20
567.1677209690454
 30
0.0
 11
1422.484473972791
 21
654.6677209690455
 31
0.0
  0
LINE
  5
D381
330
18
100
AcDbEntity
  8
DRAW2
100
AcDbLine
 10
1423.48447397279
 20
654.6677209690455
 30
0.0
 11
1423.48447397279
 21
567.1677209690454
 31
0.0
  0
LINE
  5
D382
330
18
100
AcDbEntity
  8
DRAW2
100
AcDbLine
 10
1408.234453972789
 20
539.3277209690453
 30
0.0
 11
1378.734453972789
 21
539.3277209690453
 31
0.0
  0
LINE
  5
D383
330
18
100
AcDbEntity
  8
DRAW2
100
AcDbLine
 10
1422.484473972792
 20
567.1677209690454
 30
0.0
 11
1368.375108539845
 21
567.1677209690455
 31
0.0
  0
LINE
  5
D384
330
18
100
AcDbEntity
  8
DRAW2
100
AcDbLine
 10
1369.953296664845
 20
586.3869643010247
 30
0.0
 11
1370.134769167179
 21
581.3650216114158
 31
0.0
  0
LINE
  5
D385
330
18
100
AcDbEntity
  8
DRAW2
100
AcDbLine
 10
1356.796920414844
 20
586.3869643010247
 30
0.0
 11
1356.615447912512
 21
581.3650216114158
 31
0.0
  0
LINE
  5
D386
330
18
100
AcDbEntity
  8
DRAW2
100
AcDbLine
 10
1364.375108539845
 20
583.8334475945584
 30
0.0
 11
1364.375108539845
 21
578.6372951718517
 31
0.0
  0
LINE
  5
D387
330
18
100
AcDbEntity
  8
DRAW2
100
AcDbLine
 10
1362.375108539845
 20
583.8334475945584
 30
0.0
 11
1362.375108539845
 21
578.6372951718517
 31
0.0
  0
LINE
  5
D388
330
18
100
AcDbEntity
  8
DRAW2
100
AcDbLine
 10
1364.375108539845
 20
583.8334475945584
 30
0.0
 11
1371.375108539845
 21
580.8334475945586
 31
0.0
  0
LINE
  5
D389
330
18
100
AcDbEntity
  8
DRAW2
100
AcDbLine
 10
1355.375108539845
 20
580.8334475945586
 30
0.0
 11
1362.375108539845
 21
583.8334475945584
 31
0.0
  0
LINE
  5
D38A
330
18
100
AcDbEntity
  8
DRAW2
100
AcDbLine
 10
1371.375108539845
 20
574.6372951718519
 30
0.0
 11
1367.914563712415
 21
573.1542045315245
 31
0.0
  0
LINE
  5
D38B
330
18
100
AcDbEntity
  8
DRAW2
100
AcDbLine
 10
1364.375108539845
 20
578.6372951718517
 30
0.0
 11
1371.375108539845
 21
575.6372951718517
 31
0.0
  0
LINE
  5
D38C
330
18
100
AcDbEntity
  8
DRAW2
100
AcDbLine
 10
1348.234493972794
 20
539.3277209690453
 30
0.0
 11
1348.234493972794
 21
567.1677209690455
 31
0.0
  0
LINE
  5
D38D
330
18
100
AcDbEntity
  8
DRAW2
100
AcDbLine
 10
1364.875108539844
 20
563.8789476021489
 30
0.0
 11
1364.875108539844
 21
542.9898761687922
 31
0.0
  0
LINE
  5
D38E
330
18
100
AcDbEntity
  8
DRAW2
100
AcDbLine
 10
1361.875108539845
 20
563.8789476021489
 30
0.0
 11
1361.875108539845
 21
542.8602048618476
 31
0.0
  0
LINE
  5
D38F
330
18
100
AcDbEntity
  8
DRAW2
100
AcDbLine
 10
1345.188575060357
 20
570.4483991667616
 30
0.0
 11
1347.688575060357
 21
571.1700870032483
 31
0.0
  0
LINE
  5
D390
330
18
100
AcDbEntity
  8
DRAW2
100
AcDbLine
 10
1342.688575060357
 20
571.1700870032483
 30
0.0
 11
1345.188575060357
 21
570.4483991667616
 31
0.0
  0
LINE
  5
D391
330
18
100
AcDbEntity
  8
DRAW2
100
AcDbLine
 10
1345.188575060357
 20
573.3351505127093
 30
0.0
 11
1347.688575060357
 21
572.6134626762224
 31
0.0
  0
LINE
  5
D392
330
18
100
AcDbEntity
  8
DRAW2
100
AcDbLine
 10
1342.688575060357
 20
572.6134626762224
 30
0.0
 11
1345.188575060357
 21
573.3351505127093
 31
0.0
  0
LINE
  5
D393
330
18
100
AcDbEntity
  8
DRAW2
100
AcDbLine
 10
1347.688575060357
 20
572.6134626762224
 30
0.0
 11
1347.688575060357
 21
571.1700870032483
 31
0.0
  0
LINE
  5
D394
330
18
100
AcDbEntity
  8
DRAW2
100
AcDbLine
 10
1342.688575060357
 20
571.1700870032483
 30
0.0
 11
1342.688575060357
 21
572.6134626762224
 31
0.0
  0
LINE
  5
D395
330
18
100
AcDbEntity
  8
DRAW2
100
AcDbLine
 10
1351.675985900365
 20
578.3869665251861
 30
0.0
 11
1351.675985900365
 21
577.0879272624422
 31
0.0
  0
LINE
  5
D396
330
18
100
AcDbEntity
  8
DRAW2
100
AcDbLine
 10
1338.675985900366
 20
578.3869665251861
 30
0.0
 11
1338.675985900366
 21
577.0879272624422
 31
0.0
  0
LINE
  5
D397
330
18
100
AcDbEntity
  8
DRAW2
100
AcDbLine
 10
1350.188575060357
 20
572.4113900820058
 30
0.0
 11
1350.188575060357
 21
577.0879272624422
 31
0.0
  0
LINE
  5
D398
330
18
100
AcDbEntity
  8
DRAW2
100
AcDbLine
 10
1340.188575060357
 20
577.0879272624422
 30
0.0
 11
1340.188575060357
 21
572.4113900820058
 31
0.0
  0
LINE
  5
D399
330
18
100
AcDbEntity
  8
DRAW2
100
AcDbLine
 10
1355.375108539845
 20
580.8334475945586
 30
0.0
 11
1355.375108539845
 21
575.6372951718517
 31
0.0
  0
LINE
  5
D39A
330
18
100
AcDbEntity
  8
DRAW2
100
AcDbLine
 10
1355.375108539845
 20
574.6372951718519
 30
0.0
 11
1358.835653367276
 21
573.1542045315243
 31
0.0
  0
LINE
  5
D39B
330
18
100
AcDbEntity
  8
DRAW2
100
AcDbLine
 10
1355.375108539845
 20
575.6372951718517
 30
0.0
 11
1362.375108539845
 21
578.6372951718517
 31
0.0
  0
LINE
  5
D39C
330
18
100
AcDbEntity
  8
DRAW2
100
AcDbLine
 10
1355.375108539845
 20
574.6372951718519
 30
0.0
 11
1355.375108539845
 21
575.6372951718517
 31
0.0
  0
LINE
  5
D39D
330
18
100
AcDbEntity
  8
DRAW2
100
AcDbLine
 10
1364.375108539845
 20
578.6372951718517
 30
0.0
 11
1362.375108539845
 21
578.6372951718517
 31
0.0
  0
LINE
  5
D39E
330
18
100
AcDbEntity
  8
DRAW2
100
AcDbLine
 10
1366.375108539845
 20
574.1061889381012
 30
0.0
 11
1366.375108539845
 21
575.1372951718519
 31
0.0
  0
LINE
  5
D39F
330
18
100
AcDbEntity
  8
DRAW2
100
AcDbLine
 10
1360.375108539845
 20
574.1061889381012
 30
0.0
 11
1360.375108539845
 21
575.1372951718519
 31
0.0
  0
LINE
  5
D3A0
330
18
100
AcDbEntity
  8
DRAW2
100
AcDbLine
 10
1368.375108539845
 20
564.3119603040413
 30
0.0
 11
1368.375108539845
 21
572.1061889381012
 31
0.0
  0
LINE
  5
D3A1
330
18
100
AcDbEntity
  8
DRAW2
100
AcDbLine
 10
1358.375108539844
 20
572.1061889381012
 30
0.0
 11
1358.375108539844
 21
564.3119603040413
 31
0.0
  0
LINE
  5
D3A2
330
18
100
AcDbEntity
  8
DRAW2
100
AcDbLine
 10
1378.734453972789
 20
539.3277209690453
 30
0.0
 11
1378.734453972789
 21
567.1677209690455
 31
0.0
  0
LINE
  5
D3A3
330
18
100
AcDbEntity
  8
DRAW2
100
AcDbLine
 10
1371.375108539845
 20
580.8334475945586
 30
0.0
 11
1371.375108539845
 21
575.6372951718517
 31
0.0
  0
LINE
  5
D3A4
330
18
100
AcDbEntity
  8
DRAW2
100
AcDbLine
 10
1371.375108539845
 20
575.6372951718517
 30
0.0
 11
1371.375108539845
 21
574.6372951718519
 31
0.0
  0
LINE
  5
D3A5
330
18
100
AcDbEntity
  8
DRAW2
100
AcDbLine
 10
1384.061642019303
 20
572.6134626762224
 30
0.0
 11
1381.561642019303
 21
573.3351505127093
 31
0.0
  0
LINE
  5
D3A6
330
18
100
AcDbEntity
  8
DRAW2
100
AcDbLine
 10
1384.061642019303
 20
571.1700870032483
 30
0.0
 11
1381.561642019303
 21
570.4483991667616
 31
0.0
  0
LINE
  5
D3A7
330
18
100
AcDbEntity
  8
DRAW2
100
AcDbLine
 10
1384.061642019303
 20
571.1700870032483
 30
0.0
 11
1384.061642019303
 21
572.6134626762224
 31
0.0
  0
LINE
  5
D3A8
330
18
100
AcDbEntity
  8
DRAW2
100
AcDbLine
 10
1381.561642019303
 20
573.3351505127093
 30
0.0
 11
1379.061642019303
 21
572.6134626762224
 31
0.0
  0
LINE
  5
D3A9
330
18
100
AcDbEntity
  8
DRAW2
100
AcDbLine
 10
1379.061642019303
 20
572.6134626762224
 30
0.0
 11
1379.061642019303
 21
571.1700870032483
 31
0.0
  0
LINE
  5
D3AA
330
18
100
AcDbEntity
  8
DRAW2
100
AcDbLine
 10
1381.561642019303
 20
570.4483991667616
 30
0.0
 11
1379.061642019303
 21
571.1700870032483
 31
0.0
  0
LINE
  5
D3AB
330
18
100
AcDbEntity
  8
DRAW2
100
AcDbLine
 10
1376.561642019303
 20
572.4113900820058
 30
0.0
 11
1376.561642019303
 21
577.0879272624422
 31
0.0
  0
LINE
  5
D3AC
330
18
100
AcDbEntity
  8
DRAW2
100
AcDbLine
 10
1375.074231179294
 20
578.3869665251861
 30
0.0
 11
1375.074231179294
 21
577.0879272624422
 31
0.0
  0
LINE
  5
D3AD
330
18
100
AcDbEntity
  8
DRAW2
100
AcDbLine
 10
1386.561642019302
 20
577.0879272624422
 30
0.0
 11
1386.561642019302
 21
572.4113900820058
 31
0.0
  0
LINE
  5
D3AE
330
18
100
AcDbEntity
  8
DRAW2
100
AcDbLine
 10
1388.074231179294
 20
578.3869665251861
 30
0.0
 11
1388.074231179294
 21
577.0879272624422
 31
0.0
  0
LINE
  5
D3AF
330
18
100
AcDbEntity
  8
DRAW2
100
AcDbLine
 10
1364.375108539845
 20
583.8334475945584
 30
0.0
 11
1362.375108539845
 21
583.8334475945584
 31
0.0
  0
LINE
  5
D3B0
330
18
100
AcDbEntity
  8
DRAW2
100
AcDbLine
 10
1369.932916493641
 20
594.137068764242
 30
0.0
 11
1369.932916493641
 21
592.8380295014981
 31
0.0
  0
LINE
  5
D3B1
330
18
100
AcDbEntity
  8
DRAW2
100
AcDbLine
 10
1368.42032733365
 20
592.8380295014981
 30
0.0
 11
1368.42032733365
 21
588.1614923210618
 31
0.0
  0
LINE
  5
D3B2
330
18
100
AcDbEntity
  8
DRAW2
100
AcDbLine
 10
1356.932916493641
 20
594.137068764242
 30
0.0
 11
1356.932916493641
 21
592.8380295014981
 31
0.0
  0
LINE
  5
D3B3
330
18
100
AcDbEntity
  8
DRAW2
100
AcDbLine
 10
1358.42032733365
 20
588.1614923210618
 30
0.0
 11
1358.42032733365
 21
592.8380295014981
 31
0.0
  0
LINE
  5
D3B4
330
18
100
AcDbEntity
  8
DRAW2
100
AcDbLine
 10
1408.234453972789
 20
539.3277209690453
 30
0.0
 11
1408.234453972789
 21
567.1677209690454
 31
0.0
  0
LINE
  5
D3B5
330
18
100
AcDbEntity
  8
DRAW2
100
AcDbLine
 10
1423.484473972791
 20
592.6677106816823
 30
0.0
 11
1422.48442417279
 21
592.6677106816823
 31
0.0
  0
LINE
  5
D3B6
330
18
100
AcDbEntity
  8
DRAW2
100
AcDbLine
 10
1424.484493972791
 20
629.2198325900979
 30
0.0
 11
1423.48447397279
 21
629.2198325900979
 31
0.0
  0
ARC
  5
D3B7
330
18
100
AcDbEntity
  8
DRAW2
100
AcDbCircle
 10
1423.484493972791
 20
653.6677209690456
 30
0.0
 40
1.0
100
AcDbArc
 50
0.0
 51
90.0
  0
ARC
  5
D3B8
330
18
100
AcDbEntity
  8
DRAW2
100
AcDbCircle
 10
1423.484493972791
 20
700.6677209690454
 30
0.0
 40
1.0
100
AcDbArc
 50
270.0
 51
0.0
  0
LINE
  5
D3B9
330
18
100
AcDbEntity
  8
DRAW2
100
AcDbLine
 10
1424.484493972791
 20
725.1156093479927
 30
0.0
 11
1423.48447397279
 21
725.1156093479927
 31
0.0
  0
LINE
  5
D3BA
330
18
100
AcDbEntity
  8
DRAW2
100
AcDbLine
 10
1304.484473972791
 20
787.1677209690456
 30
0.0
 11
1422.484473972792
 21
787.1677209690456
 31
0.0
  0
LINE
  5
D3BB
330
18
100
AcDbEntity
  8
DRAW2
100
AcDbLine
 10
1216.484473972791
 20
787.1677209690454
 30
0.0
 11
1303.484473972791
 21
787.1677209690454
 31
0.0
  0
LINE
  5
D3BC
330
18
100
AcDbEntity
  8
DRAW2
100
AcDbLine
 10
1303.484473972791
 20
761.6677212201518
 30
0.0
 11
1304.484523772793
 21
761.6677212201518
 31
0.0
  0
LINE
  5
D3BD
330
18
100
AcDbEntity
  8
DRAW2
100
AcDbLine
 10
1423.484473972791
 20
761.6677136816824
 30
0.0
 11
1422.48442417279
 21
761.6677136816824
 31
0.0
  0
LINE
  5
D3BE
330
18
100
AcDbEntity
  8
DRAW2
100
AcDbLine
 10
1525.484473972791
 20
787.1677209690454
 30
0.0
 11
1525.484473972791
 21
704.6677209690452
 31
0.0
  0
LINE
  5
D3BF
330
18
100
AcDbEntity
  8
DRAW2
100
AcDbLine
 10
1510.484473972791
 20
787.1677209690454
 30
0.0
 11
1510.484473972791
 21
734.6677209690454
 31
0.0
  0
LINE
  5
D3C0
330
18
100
AcDbEntity
  8
DRAW2
100
AcDbLine
 10
1510.484473972789
 20
787.1677209690454
 30
0.0
 11
1510.484473972789
 21
734.6677209690454
 31
0.0
  0
LINE
  5
D3C1
330
18
100
AcDbEntity
  8
DRAW2
100
AcDbLine
 10
1586.484493972791
 20
614.6677209690452
 30
0.0
 11
1606.484493972791
 21
614.6677209690452
 31
0.0
  0
LINE
  5
D3C4
330
18
100
AcDbEntity
  8
DRAW2
100
AcDbLine
 10
1586.484493972791
 20
739.6677209690452
 30
0.0
 11
1606.484493972791
 21
739.6677209690452
 31
0.0
  0
LINE
  5
D3C6
330
18
100
AcDbEntity
  8
DRAW2
100
AcDbLine
 10
1550.484473972791
 20
644.167720969045
 30
0.0
 11
1550.484473972791
 21
618.167660969045
 31
0.0
  0
LINE
  5
D3C7
330
18
100
AcDbEntity
  8
DRAW2
100
AcDbLine
 10
1552.484413972791
 20
642.167840969045
 30
0.0
 11
1552.484413972791
 21
620.167660969045
 31
0.0
  0
LINE
  5
D3C8
330
18
100
AcDbEntity
  8
DRAW2
100
AcDbLine
 10
1511.484493972791
 20
629.1677209690454
 30
0.0
 11
1511.484493972791
 21
725.1677209690454
 31
0.0
  0
LINE
  5
D3C9
330
18
100
AcDbEntity
  8
DRAW2
100
AcDbLine
 10
1586.484493972791
 20
614.6677209690452
 30
0.0
 11
1586.484493972791
 21
739.6677209690452
 31
0.0
  0
LINE
  5
D3CB
330
18
100
AcDbEntity
  8
DRAW2
100
AcDbLine
 10
1511.484493972791
 20
619.6677209690452
 30
0.0
 11
1511.484493972791
 21
734.6677209690454
 31
0.0
  0
LINE
  5
D3CC
330
18
100
AcDbEntity
  8
DRAW2
100
AcDbLine
 10
1525.484473972791
 20
649.6677209690457
 30
0.0
 11
1525.484473972791
 21
567.1677209690454
 31
0.0
  0
LINE
  5
D3CE
330
18
100
AcDbEntity
  8
DRAW2
100
AcDbLine
 10
1583.484492581968
 20
739.1677208426068
 30
0.0
 11
1583.484492581968
 21
615.1677206908807
 31
0.0
  0
LINE
  5
D3CF
330
18
100
AcDbEntity
  8
DRAW2
100
AcDbLine
 10
1580.484492581968
 20
739.1677208426068
 30
0.0
 11
1580.484494010723
 21
615.1677206908807
 31
0.0
  0
LINE
  5
D3D2
330
18
100
AcDbEntity
  8
DRAW2
100
AcDbLine
 10
1550.484473972791
 20
572.1676609690456
 30
0.0
 11
1525.484473972791
 21
572.1676609690456
 31
0.0
  0
LINE
  5
D3D3
330
18
100
AcDbEntity
  8
DRAW2
100
AcDbLine
 10
1550.484473972791
 20
598.1677209690456
 30
0.0
 11
1525.484473972791
 21
598.1677209690456
 31
0.0
  0
LINE
  5
D3D4
330
18
100
AcDbEntity
  8
DRAW2
100
AcDbLine
 10
1550.484473972791
 20
618.167660969045
 30
0.0
 11
1525.484473972791
 21
618.167660969045
 31
0.0
  0
LINE
  5
D3D5
330
18
100
AcDbEntity
  8
DRAW2
100
AcDbLine
 10
1510.484473972791
 20
619.6677209690452
 30
0.0
 11
1510.484473972791
 21
567.1677209690454
 31
0.0
  0
LINE
  5
D3D6
330
18
100
AcDbEntity
  8
DRAW2
100
AcDbLine
 10
1510.484473972789
 20
619.6677209690452
 30
0.0
 11
1510.484473972789
 21
567.1677209690454
 31
0.0
  0
LINE
  5
D3D7
330
18
100
AcDbEntity
  8
DRAW2
100
AcDbLine
 10
1525.484473972791
 20
567.1677209690454
 30
0.0
 11
1510.484473972791
 21
567.1677209690454
 31
0.0
  0
LINE
  5
D3D8
330
18
100
AcDbEntity
  8
DRAW2
100
AcDbLine
 10
1525.484473972791
 20
627.2077369818579
 30
0.0
 11
1511.484493972791
 21
627.2077369818579
 31
0.0
  0
LINE
  5
D3D9
330
18
100
AcDbEntity
  8
DRAW2
100
AcDbLine
 10
1552.484413972791
 20
596.1678409690456
 30
0.0
 11
1552.484413972791
 21
574.1676609690456
 31
0.0
  0
LINE
  5
D3DA
330
18
100
AcDbEntity
  8
DRAW2
100
AcDbLine
 10
1550.484473972791
 20
598.1677209690456
 30
0.0
 11
1550.484473972791
 21
572.1676609690456
 31
0.0
  0
LINE
  5
D3DB
330
18
100
AcDbEntity
  8
DRAW2
100
AcDbLine
 10
1552.484533972791
 20
574.1675409690457
 30
0.0
 11
1550.484593972791
 21
572.1676009690456
 31
0.0
  0
LINE
  5
D3DC
330
18
100
AcDbEntity
  8
DRAW2
100
AcDbLine
 10
1550.484413972792
 20
598.1675409690457
 30
0.0
 11
1552.484413972791
 21
596.1676009690457
 31
0.0
  0
LINE
  5
D3DD
330
18
100
AcDbEntity
  8
DRAW2
100
AcDbLine
 10
1552.484533972791
 20
620.1675409690452
 30
0.0
 11
1550.484593972791
 21
618.1676009690451
 31
0.0
  0
LINE
  5
D3DE
330
18
100
AcDbEntity
  8
DRAW2
100
AcDbLine
 10
1580.484494010723
 20
615.1677206908807
 30
0.0
 11
1586.484494010723
 21
615.1677206908807
 31
0.0
  0
LINE
  5
D3E0
330
18
100
AcDbEntity
  8
DRAW2
100
AcDbLine
 10
1550.484473972791
 20
644.167720969045
 30
0.0
 11
1525.484473972791
 21
644.167720969045
 31
0.0
  0
LINE
  5
D3E1
330
18
100
AcDbEntity
  8
DRAW2
100
AcDbLine
 10
1550.484473972791
 20
710.1676609690455
 30
0.0
 11
1525.484473972791
 21
710.1676609690455
 31
0.0
  0
LINE
  5
D3E2
330
18
100
AcDbEntity
  8
DRAW2
100
AcDbLine
 10
1550.484473972791
 20
736.1677209690456
 30
0.0
 11
1525.484473972791
 21
736.1677209690456
 31
0.0
  0
LINE
  5
D3E3
330
18
100
AcDbEntity
  8
DRAW2
100
AcDbLine
 10
1512.484493972791
 20
704.6677209690451
 30
0.0
 11
1580.484492581968
 21
704.6677209690454
 31
0.0
  0
LINE
  5
D3E4
330
18
100
AcDbEntity
  8
DRAW2
100
AcDbLine
 10
1512.484493972791
 20
649.6677209690456
 30
0.0
 11
1580.484494010723
 21
649.6677209690452
 31
0.0
  0
ARC
  5
D3E5
330
18
100
AcDbEntity
  8
DRAW2
100
AcDbCircle
 10
1512.484493972791
 20
648.6677209690456
 30
0.0
 40
1.0
100
AcDbArc
 50
90.0
 51
180.0
  0
ARC
  5
D3E7
330
18
100
AcDbEntity
  8
DRAW2
100
AcDbCircle
 10
1512.484493972791
 20
705.6677209690451
 30
0.0
 40
1.0
100
AcDbArc
 50
180.0
 51
270.0
  0
LINE
  5
D3E8
330
18
100
AcDbEntity
  8
DRAW2
100
AcDbLine
 10
1511.484493972791
 20
727.1277049562327
 30
0.0
 11
1525.484473972791
 21
727.1277049562327
 31
0.0
  0
LINE
  5
D3E9
330
18
100
AcDbEntity
  8
DRAW2
100
AcDbLine
 10
1550.484413972792
 20
644.1675409690451
 30
0.0
 11
1552.484413972791
 21
642.1676009690449
 31
0.0
  0
LINE
  5
D3EA
330
18
100
AcDbEntity
  8
DRAW2
100
AcDbLine
 10
1550.484473972791
 20
736.1677209690456
 30
0.0
 11
1550.484473972791
 21
710.1676609690455
 31
0.0
  0
LINE
  5
D3EB
330
18
100
AcDbEntity
  8
DRAW2
100
AcDbLine
 10
1552.484413972791
 20
734.1678409690455
 30
0.0
 11
1552.484413972791
 21
712.1676609690455
 31
0.0
  0
LINE
  5
D3EC
330
18
100
AcDbEntity
  8
DRAW2
100
AcDbLine
 10
1552.484533972791
 20
712.1675409690457
 30
0.0
 11
1550.484593972791
 21
710.1676009690455
 31
0.0
  0
LINE
  5
D3ED
330
18
100
AcDbEntity
  8
DRAW2
100
AcDbLine
 10
1550.484413972792
 20
736.1675409690457
 30
0.0
 11
1552.484413972791
 21
734.1676009690456
 31
0.0
  0
LINE
  5
D3EE
330
18
100
AcDbEntity
  8
DRAW2
100
AcDbLine
 10
1580.484492581968
 20
739.1677208426068
 30
0.0
 11
1586.484492581968
 21
739.1677208426068
 31
0.0
  0
LINE
  5
D3EF
330
18
100
AcDbEntity
  8
DRAW2
100
AcDbLine
 10
1606.484493972791
 20
614.6677209690452
 30
0.0
 11
1606.484493972791
 21
677.1677209690452
 31
0.0
  0
LINE
  5
D3F0
330
18
100
AcDbEntity
  8
DRAW2
100
AcDbLine
 10
1606.484493972791
 20
739.6677209690452
 30
0.0
 11
1606.484493972791
 21
677.1677209690452
 31
0.0
  0
LINE
  5
D3F2
330
18
100
AcDbEntity
  8
DRAW2
100
AcDbLine
 10
1550.484473972791
 20
756.1676609690453
 30
0.0
 11
1525.484473972791
 21
756.1676609690453
 31
0.0
  0
LINE
  5
D3F3
330
18
100
AcDbEntity
  8
DRAW2
100
AcDbLine
 10
1550.484473972791
 20
782.1677209690452
 30
0.0
 11
1525.484473972791
 21
782.1677209690452
 31
0.0
  0
LINE
  5
D3F4
330
18
100
AcDbEntity
  8
DRAW2
100
AcDbLine
 10
1510.484473972791
 20
787.1677209690454
 30
0.0
 11
1525.484473972791
 21
787.1677209690454
 31
0.0
  0
LINE
  5
D3F5
330
18
100
AcDbEntity
  8
DRAW2
100
AcDbLine
 10
1550.484473972791
 20
782.1677209690452
 30
0.0
 11
1550.484473972791
 21
756.1676609690453
 31
0.0
  0
LINE
  5
D3F6
330
18
100
AcDbEntity
  8
DRAW2
100
AcDbLine
 10
1552.484413972791
 20
780.1678409690453
 30
0.0
 11
1552.484413972791
 21
758.1676609690454
 31
0.0
  0
LINE
  5
D3F7
330
18
100
AcDbEntity
  8
DRAW2
100
AcDbLine
 10
1552.484533972791
 20
758.1675409690453
 30
0.0
 11
1550.484593972791
 21
756.1676009690454
 31
0.0
  0
LINE
  5
D3F8
330
18
100
AcDbEntity
  8
DRAW2
100
AcDbLine
 10
1550.484413972792
 20
782.1675409690453
 30
0.0
 11
1552.484413972791
 21
780.1676009690454
 31
0.0
  0
CIRCLE
  5
D3FE
330
18
100
AcDbEntity
  8
DRAW2
100
AcDbCircle
 10
2027.634494072793
 20
73.93245630507944
 30
0.0
 40
62.5
  0
LINE
  5
D400
330
18
100
AcDbEntity
  8
DRAW2
100
AcDbLine
 10
1986.316398030126
 20
41.93245630507941
 30
0.0
 11
2005.312979808673
 21
41.93245630507941
 31
0.0
  0
CIRCLE
  5
D401
330
18
100
AcDbEntity
  8
DRAW2
100
AcDbCircle
 10
1995.814688919399
 20
42.11265115168465
 30
0.0
 40
9.5
  0
LINE
  5
D404
330
18
100
AcDbEntity
  8
DRAW2
100
AcDbLine
 10
1984.134404072793
 20
6.932456305079425
 30
0.0
 11
2005.134464072793
 21
6.932456305079425
 31
0.0
  0
LINE
  5
D405
330
18
100
AcDbEntity
  8
DRAW2
100
AcDbLine
 10
1986.134314072794
 20
4.932486305079463
 30
0.0
 11
2003.134524072794
 21
4.932486305079463
 31
0.0
  0
LINE
  5
D406
330
18
100
AcDbEntity
  8
DRAW2
100
AcDbLine
 10
1917.634494072794
 20
41.93245630507941
 30
0.0
 11
1973.947903568273
 21
41.93245630507941
 31
0.0
  0
LINE
  5
D407
330
18
100
AcDbEntity
  8
DRAW2
100
AcDbLine
 10
1986.436799962564
 20
26.93245630507942
 30
0.0
 11
1917.634494072794
 21
26.93245630507942
 31
0.0
  0
LINE
  5
D408
330
18
100
AcDbEntity
  8
DRAW2
100
AcDbLine
 10
1917.634494072794
 20
26.93245630507942
 30
0.0
 11
1917.634494072794
 21
41.93245630507941
 31
0.0
  0
LINE
  5
D409
330
18
100
AcDbEntity
  8
DRAW2
100
AcDbLine
 10
1927.634494072793
 20
41.93245630507941
 30
0.0
 11
1927.634494072793
 21
26.93245630507942
 31
0.0
  0
LINE
  5
D40C
330
18
100
AcDbEntity
  8
DRAW2
100
AcDbLine
 10
1936.634584072793
 20
16.93245630507941
 30
0.0
 11
1966.634584072792
 21
16.93245630507941
 31
0.0
  0
LINE
  5
D40D
330
18
100
AcDbEntity
  8
DRAW2
100
AcDbLine
 10
1965.773254072793
 20
-3.067543694920573
 30
0.0
 11
1937.495604072793
 21
-3.067543694920573
 31
0.0
  0
LINE
  5
D40E
330
18
100
AcDbEntity
  8
DRAW2
100
AcDbLine
 10
1933.634554072794
 20
16.93251630507939
 30
0.0
 11
1936.506834072794
 21
-2.215923694920546
 31
0.0
  0
ARC
  5
D40F
330
18
100
AcDbEntity
  8
DRAW2
100
AcDbCircle
 10
1937.495664072794
 20
-2.067543694920573
 30
0.0
 40
1.0
100
AcDbArc
 50
188.5316099999993
 51
270.0000200000018
  0
LINE
  5
D410
330
18
100
AcDbEntity
  8
DRAW2
100
AcDbLine
 10
1933.634434072794
 20
16.93245630507941
 30
0.0
 11
1933.634434072794
 21
26.93245630507942
 31
0.0
  0
LINE
  5
D411
330
18
100
AcDbEntity
  8
DRAW2
100
AcDbLine
 10
1984.134494072794
 20
6.932456305079425
 30
0.0
 11
1984.134494072794
 21
26.93245630507942
 31
0.0
  0
LINE
  5
D412
330
18
100
AcDbEntity
  8
DRAW2
100
AcDbLine
 10
1966.762334072793
 20
-2.215853694920496
 30
0.0
 11
1969.634614072795
 21
16.93251630507939
 31
0.0
  0
ARC
  5
D414
330
18
100
AcDbEntity
  8
DRAW2
100
AcDbCircle
 10
1965.773344072793
 20
-2.067543694920573
 30
0.0
 40
1.0
100
AcDbArc
 50
270.0000200000018
 51
351.4683700000002
  0
LINE
  5
D415
330
18
100
AcDbEntity
  8
DRAW2
100
AcDbLine
 10
1984.134704072793
 20
6.932516305079387
 30
0.0
 11
1986.134614072795
 21
4.932516305079387
 31
0.0
  0
LINE
  5
D416
330
18
100
AcDbEntity
  8
DRAW2
100
AcDbLine
 10
1969.634494072794
 20
16.93245630507941
 30
0.0
 11
1969.634494072794
 21
26.93245630507942
 31
0.0
  0
LINE
  5
D417
330
18
100
AcDbEntity
  8
DRAW2
100
AcDbLine
 10
1962.134464072794
 20
61.93239630507946
 30
0.0
 11
1941.134404072793
 21
61.93239630507946
 31
0.0
  0
LINE
  5
D418
330
18
100
AcDbEntity
  8
DRAW2
100
AcDbLine
 10
1962.134584072793
 20
61.93254630507944
 30
0.0
 11
1960.134554072794
 21
63.9325163050794
 31
0.0
  0
LINE
  5
D419
330
18
100
AcDbEntity
  8
DRAW2
100
AcDbLine
 10
1960.134374072793
 20
63.93239630507945
 30
0.0
 11
1943.134374072793
 21
63.93239630507945
 31
0.0
  0
LINE
  5
D41A
330
18
100
AcDbEntity
  8
DRAW2
100
AcDbLine
 10
1943.134464072794
 20
63.93233630507939
 30
0.0
 11
1941.134494072794
 21
61.93236630507943
 31
0.0
  0
LINE
  5
D41B
330
18
100
AcDbEntity
  8
DRAW2
100
AcDbLine
 10
1941.134404072793
 20
61.93245630507941
 30
0.0
 11
1941.134404072793
 21
41.93245630507941
 31
0.0
  0
LINE
  5
D41C
330
18
100
AcDbEntity
  8
DRAW2
100
AcDbLine
 10
1962.134464072794
 20
61.93245630507941
 30
0.0
 11
1962.134464072794
 21
41.93245630507941
 31
0.0
  0
LINE
  5
D41D
330
18
100
AcDbEntity
  8
DRAW2
100
AcDbLine
 10
2081.321084577314
 20
41.93245630507941
 30
0.0
 11
2137.634494072794
 21
41.93245630507941
 31
0.0
  0
LINE
  5
D41E
330
18
100
AcDbEntity
  8
DRAW2
100
AcDbLine
 10
2137.634494072794
 20
26.93245630507942
 30
0.0
 11
2068.832188183022
 21
26.93245630507942
 31
0.0
  0
LINE
  5
D41F
330
18
100
AcDbEntity
  8
DRAW2
100
AcDbLine
 10
2049.956008336915
 20
41.93245630507941
 30
0.0
 11
2068.952590115462
 21
41.93245630507941
 31
0.0
  0
CIRCLE
  5
D422
330
18
100
AcDbEntity
  8
DRAW2
100
AcDbCircle
 10
2059.454299226188
 20
42.11265115168465
 30
0.0
 40
9.5
  0
LINE
  5
D423
330
18
100
AcDbEntity
  8
DRAW2
100
AcDbLine
 10
2050.134404072794
 20
6.932456305079425
 30
0.0
 11
2071.134464072794
 21
6.932456305079425
 31
0.0
  0
LINE
  5
D424
330
18
100
AcDbEntity
  8
DRAW2
100
AcDbLine
 10
2052.134284072792
 20
4.932486305079463
 30
0.0
 11
2069.134494072794
 21
4.932486305079463
 31
0.0
  0
LINE
  5
D425
330
18
100
AcDbEntity
  8
DRAW2
100
AcDbLine
 10
2005.134554072794
 20
6.932456305079425
 30
0.0
 11
2005.134554072794
 21
15.62291420435281
 31
0.0
  0
LINE
  5
D426
330
18
100
AcDbEntity
  8
DRAW2
100
AcDbLine
 10
2003.134644072793
 20
4.932396305079463
 30
0.0
 11
2005.134734072794
 21
6.932486305079463
 31
0.0
  0
LINE
  5
D427
330
18
100
AcDbEntity
  8
DRAW2
100
AcDbLine
 10
2050.134494072794
 20
6.932456305079425
 30
0.0
 11
2050.134494072794
 21
15.62293735662638
 31
0.0
  0
LINE
  5
D428
330
18
100
AcDbEntity
  8
DRAW2
100
AcDbLine
 10
2050.134754072793
 20
6.932486305079463
 30
0.0
 11
2052.134634072793
 21
4.932546305079539
 31
0.0
  0
CIRCLE
  5
D429
330
18
100
AcDbEntity
  8
DRAW2
100
AcDbCircle
 10
2027.634494072793
 20
73.93245630507944
 30
0.0
 40
12.5
  0
CIRCLE
  5
D42A
330
18
100
AcDbEntity
  8
DRAW2
100
AcDbCircle
 10
2027.634494072793
 20
73.93245630507944
 30
0.0
 40
13.5
  0
LINE
  5
D42C
330
18
100
AcDbEntity
  8
DRAW2
100
AcDbLine
 10
2118.634404072794
 20
16.93245630507941
 30
0.0
 11
2088.634404072794
 21
16.93245630507941
 31
0.0
  0
LINE
  5
D42D
330
18
100
AcDbEntity
  8
DRAW2
100
AcDbLine
 10
2117.773284072794
 20
-3.067543694920573
 30
0.0
 11
2089.495604072794
 21
-3.067543694920573
 31
0.0
  0
LINE
  5
D42E
330
18
100
AcDbEntity
  8
DRAW2
100
AcDbLine
 10
2085.634464072794
 20
16.93248630507946
 30
0.0
 11
2088.506764072794
 21
-2.215953694920471
 31
0.0
  0
LINE
  5
D42F
330
18
100
AcDbEntity
  8
DRAW2
100
AcDbLine
 10
2071.134554072794
 20
6.932456305079425
 30
0.0
 11
2071.134554072794
 21
26.93245630507942
 31
0.0
  0
LINE
  5
D431
330
18
100
AcDbEntity
  8
DRAW2
100
AcDbLine
 10
2069.134734072794
 20
4.932246305079387
 30
0.0
 11
2071.134814072793
 21
6.932306305079463
 31
0.0
  0
ARC
  5
D432
330
18
100
AcDbEntity
  8
DRAW2
100
AcDbCircle
 10
2089.495694072794
 20
-2.067543694920573
 30
0.0
 40
1.0
100
AcDbArc
 50
188.5316099999993
 51
270.0000200000018
  0
LINE
  5
D433
330
18
100
AcDbEntity
  8
DRAW2
100
AcDbLine
 10
2085.634464072794
 20
16.93245630507941
 30
0.0
 11
2085.634464072794
 21
26.93245630507942
 31
0.0
  0
LINE
  5
D434
330
18
100
AcDbEntity
  8
DRAW2
100
AcDbLine
 10
2118.762314072793
 20
-2.215883694920647
 30
0.0
 11
2121.634604072794
 21
16.93251630507939
 31
0.0
  0
ARC
  5
D435
330
18
100
AcDbEntity
  8
DRAW2
100
AcDbCircle
 10
2117.773344072793
 20
-2.067543694920573
 30
0.0
 40
1.0
100
AcDbArc
 50
270.0000200000018
 51
351.4683700000002
  0
LINE
  5
D436
330
18
100
AcDbEntity
  8
DRAW2
100
AcDbLine
 10
2121.634524072793
 20
16.93245630507941
 30
0.0
 11
2121.634524072793
 21
26.93245630507942
 31
0.0
  0
LINE
  5
D437
330
18
100
AcDbEntity
  8
DRAW2
100
AcDbLine
 10
2114.134464072793
 20
61.93245630507941
 30
0.0
 11
2093.134404072793
 21
61.93245630507941
 31
0.0
  0
LINE
  5
D438
330
18
100
AcDbEntity
  8
DRAW2
100
AcDbLine
 10
2095.134574072794
 20
63.93230630507947
 30
0.0
 11
2093.134614072793
 21
61.93236630507943
 31
0.0
  0
LINE
  5
D439
330
18
100
AcDbEntity
  8
DRAW2
100
AcDbLine
 10
2093.134434072794
 20
61.93245630507941
 30
0.0
 11
2093.134434072794
 21
41.93245630507941
 31
0.0
  0
LINE
  5
D43A
330
18
100
AcDbEntity
  8
DRAW2
100
AcDbLine
 10
2112.134404072794
 20
63.93245630507943
 30
0.0
 11
2095.134404072794
 21
63.93245630507943
 31
0.0
  0
LINE
  5
D43B
330
18
100
AcDbEntity
  8
DRAW2
100
AcDbLine
 10
2114.134644072794
 20
61.93260630507939
 30
0.0
 11
2112.134634072793
 21
63.93260630507938
 31
0.0
  0
LINE
  5
D43C
330
18
100
AcDbEntity
  8
DRAW2
100
AcDbLine
 10
2114.134494072794
 20
61.93245630507941
 30
0.0
 11
2114.134494072794
 21
41.93245630507941
 31
0.0
  0
LINE
  5
D43D
330
18
100
AcDbEntity
  8
DRAW2
100
AcDbLine
 10
2137.634494072794
 20
41.93245630507941
 30
0.0
 11
2137.634494072794
 21
26.93245630507942
 31
0.0
  0
LINE
  5
D43E
330
18
100
AcDbEntity
  8
DRAW2
100
AcDbLine
 10
2127.634494072794
 20
41.93245630507941
 30
0.0
 11
2127.634494072794
 21
26.93245630507942
 31
0.0
  0
SPLINE
  5
D440
330
18
100
AcDbEntity
  8
DRAW3
100
AcDbSpline
210
0.0
220
0.0
230
1.0
 70
     8
 71
     3
 72
    10
 73
     6
 74
     0
 42
0.0000000001
 43
0.0000000001
 40
5.438980427007956
 40
5.438980427007956
 40
5.438980427007956
 40
5.438980427007956
 40
6.821020915320962
 40
11.08660824925465
 40
12.77653598230922
 40
12.77653598230922
 40
12.77653598230922
 40
12.77653598230922
 10
2065.210974821695
 20
145.9324563050794
 30
0.0
 10
2065.223988454087
 20
144.671066768874
 30
0.0
 10
2064.926469790288
 20
143.0760353981751
 30
0.0
 10
2062.204876501722
 20
141.3481465241865
 30
0.0
 10
2060.842299804324
 20
139.0238232340439
 30
0.0
 10
2060.972292242472
 20
137.9324563050792
 30
0.0
  0
LINE
  5
D441
330
18
100
AcDbEntity
  8
DRAW2
100
AcDbLine
 10
1984.134404072793
 20
402.9324563050795
 30
0.0
 11
2005.134464072793
 21
402.9324563050795
 31
0.0
  0
LINE
  5
D442
330
18
100
AcDbEntity
  8
DRAW2
100
AcDbLine
 10
1986.134314072794
 20
404.9323963050794
 30
0.0
 11
2003.134524072794
 21
404.9323963050794
 31
0.0
  0
LINE
  5
D443
330
18
100
AcDbEntity
  8
DRAW2
100
AcDbLine
 10
1986.316398030126
 20
367.9324563050794
 30
0.0
 11
2005.312979808673
 21
367.9324563050794
 31
0.0
  0
CIRCLE
  5
D445
330
18
100
AcDbEntity
  8
DRAW2
100
AcDbCircle
 10
1995.814688919399
 20
367.7522614584741
 30
0.0
 40
9.5
  0
LINE
  5
D447
330
18
100
AcDbEntity
  8
DRAW2
100
AcDbLine
 10
1986.316398030126
 20
303.9324563050795
 30
0.0
 11
2005.312979808673
 21
303.9324563050795
 31
0.0
  0
CIRCLE
  5
D44B
330
18
100
AcDbEntity
  8
DRAW2
100
AcDbCircle
 10
1995.814688919399
 20
304.1126511516846
 30
0.0
 40
9.5
  0
CIRCLE
  5
D44E
330
18
100
AcDbEntity
  8
DRAW2
100
AcDbCircle
 10
2027.634494072793
 20
335.9324563050794
 30
0.0
 40
62.5
  0
LINE
  5
D44F
330
18
100
AcDbEntity
  8
DRAW2
100
AcDbLine
 10
1986.316398030126
 20
105.9324563050793
 30
0.0
 11
2005.312979808673
 21
105.9324563050793
 31
0.0
  0
CIRCLE
  5
D450
330
18
100
AcDbEntity
  8
DRAW2
100
AcDbCircle
 10
1995.814688919399
 20
105.7522614584739
 30
0.0
 40
9.5
  0
ARC
  5
D453
330
18
100
AcDbEntity
  8
DRAW2
100
AcDbCircle
 10
1854.942764344255
 20
286.1608357773516
 30
0.0
 40
20.0
100
AcDbArc
 50
59.99999999999997
 51
180.0
  0
ARC
  5
D454
330
18
100
AcDbEntity
  8
DRAW2
100
AcDbCircle
 10
1854.942764344255
 20
286.1608357773516
 30
0.0
 40
23.0
100
AcDbArc
 50
59.99999999999997
 51
180.0
  0
LINE
  5
D456
330
18
100
AcDbEntity
  8
DRAW2
100
AcDbLine
 10
1831.742784344256
 20
257.3140267571687
 30
0.0
 11
1831.742784344256
 21
247.8139667571686
 31
0.0
  0
LINE
  5
D457
330
18
100
AcDbEntity
  8
DRAW2
100
AcDbLine
 10
1835.142744344256
 20
257.3140267571687
 30
0.0
 11
1835.142744344256
 21
247.8139667571686
 31
0.0
  0
LINE
  5
D458
330
18
100
AcDbEntity
  8
DRAW2
100
AcDbLine
 10
1838.692764344255
 20
261.8139667571687
 30
0.0
 11
1838.692764344255
 21
247.8139667571686
 31
0.0
  0
LINE
  5
D459
330
18
100
AcDbEntity
  8
DRAW2
100
AcDbLine
 10
1828.192764344256
 20
261.8139667571687
 30
0.0
 11
1828.192764344256
 21
247.8139667571686
 31
0.0
  0
LINE
  5
D45B
330
18
100
AcDbEntity
  8
DRAW2
100
AcDbLine
 10
1828.192764344256
 20
247.8139667571686
 30
0.0
 11
1838.692764344255
 21
247.8139667571686
 31
0.0
  0
LINE
  5
D45C
330
18
100
AcDbEntity
  8
DRAW3
100
AcDbLine
 10
1839.938154344255
 20
269.7690467571686
 30
0.0
 11
1826.388814344256
 21
273.5906367571685
 31
0.0
  0
LINE
  5
D45D
330
18
100
AcDbEntity
  8
DRAW3
100
AcDbLine
 10
1840.175924344255
 20
272.9349367571687
 30
0.0
 11
1826.692274344256
 21
276.7380367571687
 31
0.0
  0
LINE
  5
D45E
330
18
100
AcDbEntity
  8
DRAW2
100
AcDbLine
 10
1828.192764344256
 20
261.8139667571687
 30
0.0
 11
1838.692764344255
 21
261.8139667571687
 31
0.0
  0
LINE
  5
D45F
330
18
100
AcDbEntity
  8
DRAW2
100
AcDbLine
 10
1834.942764344256
 20
286.1608316449796
 30
0.0
 11
1834.942764344256
 21
274.4109637080313
 31
0.0
  0
LINE
  5
D460
330
18
100
AcDbEntity
  8
DRAW2
100
AcDbLine
 10
1831.942764344256
 20
286.1608316449796
 30
0.0
 11
1831.942764344256
 21
275.2571218328713
 31
0.0
  0
LINE
  5
D461
330
18
100
AcDbEntity
  8
DRAW2
100
AcDbLine
 10
1831.742784344256
 20
257.3140267571687
 30
0.0
 11
1835.142744344256
 21
257.3140267571687
 31
0.0
  0
LINE
  5
D462
330
18
100
AcDbEntity
  8
DRAW2
100
AcDbLine
 10
1834.942764344256
 20
271.1779960100547
 30
0.0
 11
1834.942764344256
 21
261.8139667571687
 31
0.0
  0
LINE
  5
D463
330
18
100
AcDbEntity
  8
DRAW2
100
AcDbLine
 10
1831.942764344256
 20
272.0241457118116
 30
0.0
 11
1831.942764344256
 21
261.8139667571687
 31
0.0
  0
CIRCLE
  5
D465
330
18
100
AcDbEntity
  8
DRAW2
100
AcDbCircle
 10
1935.634494072793
 20
204.9324628659005
 30
0.0
 40
13.00003000000009
  0
CIRCLE
  5
D466
330
18
100
AcDbEntity
  8
DRAW2
100
AcDbCircle
 10
1935.634494072793
 20
204.9324628659005
 30
0.0
 40
11.15201890084368
  0
ARC
  5
D467
330
18
100
AcDbEntity
  8
DRAW2
100
AcDbCircle
 10
2027.634494072793
 20
204.9324563050794
 30
0.0
 40
110.0
100
AcDbArc
 50
118.3862947502527
 51
241.613705249747
  0
LINE
  5
D469
330
18
100
AcDbEntity
  8
DRAW2
100
AcDbLine
 10
1889.794494072793
 20
194.6823363051036
 30
0.0
 11
1918.113103285487
 21
194.6823363051024
 31
0.0
  0
LINE
  5
D46A
330
18
100
AcDbEntity
  8
DRAW2
100
AcDbLine
 10
1889.794494072792
 20
165.1823363051035
 30
0.0
 11
1925.067794018695
 21
165.1823363051023
 31
0.0
  0
LINE
  5
D46C
330
18
100
AcDbEntity
  8
DRAW2
100
AcDbLine
 10
1889.794494072793
 20
177.9323363051039
 30
0.0
 11
1889.794494072792
 21
165.1823363051036
 31
0.0
  0
LINE
  5
D46D
330
18
100
AcDbEntity
  8
DRAW2
100
AcDbLine
 10
1892.294494072793
 20
181.9323363051037
 30
0.0
 11
1892.294494072793
 21
177.9323363051036
 31
0.0
  0
LINE
  5
D46E
330
18
100
AcDbEntity
  8
DRAW2
100
AcDbLine
 10
1889.794494072793
 20
177.9323363051038
 30
0.0
 11
1892.294494072793
 21
177.9323363051036
 31
0.0
  0
LINE
  5
D46F
330
18
100
AcDbEntity
  8
DRAW2
100
AcDbLine
 10
1889.794494072793
 20
181.9323363051037
 30
0.0
 11
1892.294494072793
 21
181.9323363051036
 31
0.0
  0
LINE
  5
D470
330
18
100
AcDbEntity
  8
DRAW2
100
AcDbLine
 10
1889.794494072793
 20
194.6823363051036
 30
0.0
 11
1889.794494072793
 21
181.9323363051038
 31
0.0
  0
LINE
  5
D471
330
18
100
AcDbEntity
  8
DRAW3
100
AcDbLine
 10
1944.29592455517
 20
129.3121322392849
 30
0.0
 11
1946.215092875429
 21
131.0274587362035
 31
0.0
  0
LINE
  5
D472
330
18
100
AcDbEntity
  8
DRAW2
100
AcDbLine
 10
1943.249777050167
 20
127.598234927735
 30
0.0
 11
1946.615312113291
 21
130.6063043133876
 31
0.0
  0
LINE
  5
D473
330
18
100
AcDbEntity
  8
DRAW2
100
AcDbLine
 10
1936.821900953291
 20
135.25867935892
 30
0.0
 11
1940.36869003648
 21
138.0507386150056
 31
0.0
  0
LINE
  5
D474
330
18
100
AcDbEntity
  8
DRAW2
100
AcDbLine
 10
1944.669384156399
 20
128.8670604178335
 30
0.0
 11
1938.317962320169
 21
136.43639020924
 31
0.0
  0
LINE
  5
D475
330
18
100
AcDbEntity
  8
DRAW2
100
AcDbLine
 10
1938.107628816497
 20
131.115903977395
 30
0.0
 11
1935.536478377751
 21
134.1800817498709
 31
0.0
  0
LINE
  5
D476
330
18
100
AcDbEntity
  8
DRAW2
100
AcDbLine
 10
1941.691337365228
 20
131.5121779202172
 30
0.0
 11
1940.405762145855
 21
133.0442668064549
 31
0.0
  0
LINE
  5
D477
330
18
100
AcDbEntity
  8
DRAW2
100
AcDbLine
 10
1940.405762145855
 20
133.0442668064549
 30
0.0
 11
1938.107628816498
 21
131.1159039773952
 31
0.0
  0
LINE
  5
D478
330
18
100
AcDbEntity
  8
DRAW2
100
AcDbLine
 10
1941.691337365228
 20
131.5121779202172
 30
0.0
 11
1939.39320403587
 21
129.5838150911569
 31
0.0
  0
LINE
  5
D479
330
18
100
AcDbEntity
  8
DRAW3
100
AcDbLine
 10
1943.83782476259
 20
128.0535134033101
 30
0.0
 11
1944.29592455517
 21
129.3121322392849
 31
0.0
  0
LINE
  5
D47A
330
18
100
AcDbEntity
  8
DRAW2
100
AcDbLine
 10
1943.249777050167
 20
127.598234927735
 30
0.0
 11
1941.964354474617
 21
126.5196373186812
 31
0.0
  0
LINE
  5
D47B
330
18
100
AcDbEntity
  8
DRAW2
100
AcDbLine
 10
1936.821900953291
 20
135.25867935892
 30
0.0
 11
1935.536478377751
 21
134.1800817498709
 31
0.0
  0
LINE
  5
D47C
330
18
100
AcDbEntity
  8
DRAW2
100
AcDbLine
 10
1941.964354474617
 20
126.5196373186812
 30
0.0
 11
1939.393204035869
 21
129.5838150911569
 31
0.0
  0
LINE
  5
D47F
330
18
100
AcDbEntity
  8
DRAW3
100
AcDbLine
 10
1937.441609684281
 20
135.6762257018897
 30
0.0
 11
1938.536371871427
 21
135.8692618129429
 31
0.0
  0
LINE
  5
D480
330
18
100
AcDbEntity
  8
DRAW3
100
AcDbLine
 10
1938.536371871427
 20
135.8692618129429
 30
0.0
 11
1940.713948835961
 21
137.5834669086168
 31
0.0
  0
ARC
  5
D482
330
18
100
AcDbEntity
  8
DRAW2
100
AcDbCircle
 10
1981.634488390957
 20
125.2581224373219
 30
0.0
 40
13.00003000000009
100
AcDbArc
 50
7.442353351276343
 51
256.2934441754888
  0
ARC
  5
D483
330
18
100
AcDbEntity
  8
DRAW2
100
AcDbCircle
 10
1981.634488390957
 20
125.2581224373219
 30
0.0
 40
11.15201890084368
100
AcDbArc
 50
2.819065063565036
 51
260.9167324632159
  0
LINE
  5
D484
330
18
100
AcDbEntity
  8
DRAW2
100
AcDbLine
 10
1926.1040682756
 20
271.0565999102386
 30
0.0
 11
1931.300220698306
 21
268.0565999102386
 31
0.0
  0
LINE
  5
D486
330
18
100
AcDbEntity
  8
DRAW3
100
AcDbLine
 10
1928.920414419811
 20
260.489609945985
 30
0.0
 11
1930.730381776758
 21
260.489609945985
 31
0.0
  0
LINE
  5
D487
330
18
100
AcDbEntity
  8
DRAW2
100
AcDbLine
 10
1927.401751948306
 20
261.3042539635188
 30
0.0
 11
1931.806403253227
 21
258.9415019352028
 31
0.0
  0
LINE
  5
D488
330
18
100
AcDbEntity
  8
DRAW2
100
AcDbLine
 10
1929.740842771148
 20
255.1005042522711
 30
0.0
 11
1925.378163185754
 21
257.6192984852859
 31
0.0
  0
LINE
  5
D489
330
18
100
AcDbEntity
  8
DRAW2
100
AcDbLine
 10
1925.104068275599
 20
269.3245491026694
 30
0.0
 11
1930.300220698307
 21
266.3245491026695
 31
0.0
  0
LINE
  5
D48A
330
18
100
AcDbEntity
  8
DRAW2
100
AcDbLine
 10
1929.1040682756
 20
276.252752332945
 30
0.0
 11
1922.104068275601
 21
264.1283966799629
 31
0.0
  0
LINE
  5
D48B
330
18
100
AcDbEntity
  8
DRAW2
100
AcDbLine
 10
1934.300220698307
 20
273.2527523329451
 30
0.0
 11
1927.300220698306
 21
261.1283966799629
 31
0.0
  0
LINE
  5
D48E
330
18
100
AcDbEntity
  8
DRAW2
100
AcDbLine
 10
1924.558547943484
 20
257.3996832430153
 30
0.0
 11
1920.158547943484
 21
249.7786596897122
 31
0.0
  0
LINE
  5
D48F
330
18
100
AcDbEntity
  8
DRAW2
100
AcDbLine
 10
1925.378163185754
 20
257.6192984852859
 30
0.0
 11
1920.378163185755
 21
248.9590444474415
 31
0.0
  0
LINE
  5
D490
330
18
100
AcDbEntity
  8
DRAW2
100
AcDbLine
 10
1920.378163185755
 20
248.9590444474415
 30
0.0
 11
1920.158547943484
 21
249.7786596897122
 31
0.0
  0
LINE
  5
D491
330
18
100
AcDbEntity
  8
DRAW2
100
AcDbLine
 10
1920.378163185755
 20
248.9590444474415
 30
0.0
 11
1925.054700366191
 21
246.2590444474414
 31
0.0
  0
LINE
  5
D492
330
18
100
AcDbEntity
  8
DRAW2
100
AcDbLine
 10
1924.304700366191
 20
244.9600063417646
 30
0.0
 11
1925.016209520975
 21
244.5492163397184
 31
0.0
  0
LINE
  5
D493
330
18
100
AcDbEntity
  8
DRAW2
100
AcDbLine
 10
1920.844775867859
 20
233.9672386481693
 30
0.0
 11
1920.478750464074
 21
235.3332640519536
 31
0.0
  0
LINE
  5
D494
330
18
100
AcDbEntity
  8
DRAW2
100
AcDbLine
 10
1921.441838921813
 20
233.6225241332459
 30
0.0
 11
1920.844775867859
 21
233.9672386481693
 31
0.0
  0
LINE
  5
D495
330
18
100
AcDbEntity
  8
DRAW2
100
AcDbLine
 10
1920.478750464074
 20
235.3332640519536
 30
0.0
 11
1923.663443955165
 21
240.8493149850565
 31
0.0
  0
LINE
  5
D496
330
18
100
AcDbEntity
  8
DRAW2
100
AcDbLine
 10
1927.56663647388
 20
250.6098454113252
 30
0.0
 11
1925.054700366191
 21
246.2590444474414
 31
0.0
  0
LINE
  5
D497
330
18
100
AcDbEntity
  8
DRAW2
100
AcDbLine
 10
1924.304700366191
 20
244.9600063417646
 30
0.0
 11
1927.566636473877
 21
250.6098454113236
 31
0.0
  0
LINE
  5
D498
330
18
100
AcDbEntity
  8
DRAW2
100
AcDbLine
 10
1915.095720705896
 20
277.9896226121288
 30
0.0
 11
1866.442764344256
 21
306.0794200643936
 31
0.0
  0
LINE
  5
D499
330
18
100
AcDbEntity
  8
DRAW2
100
AcDbLine
 10
1913.595720705896
 20
275.3915464007754
 30
0.0
 11
1864.942764344256
 21
303.4813438530404
 31
0.0
  0
LINE
  5
D49A
330
18
100
AcDbEntity
  8
DRAW2
100
AcDbLine
 10
1916.595720705896
 20
280.587698823482
 30
0.0
 11
1912.095720705896
 21
272.7934701894223
 31
0.0
  0
LINE
  5
D49B
330
18
100
AcDbEntity
  8
DRAW2
100
AcDbLine
 10
1912.27873340779
 20
272.1104574875299
 30
0.0
 11
1917.27873340779
 21
280.7707115253744
 31
0.0
  0
LINE
  5
D49C
330
18
100
AcDbEntity
  8
DRAW2
100
AcDbLine
 10
1912.27873340779
 20
272.1104574875299
 30
0.0
 11
1920.072962041849
 21
267.6104574875299
 31
0.0
  0
LINE
  5
D49D
330
18
100
AcDbEntity
  8
DRAW2
100
AcDbLine
 10
1912.095720705896
 20
272.7934701894223
 30
0.0
 11
1912.27873340779
 21
272.1104574875299
 31
0.0
  0
LINE
  5
D49E
330
18
100
AcDbEntity
  8
DRAW2
100
AcDbLine
 10
1925.255974743742
 20
275.587698823482
 30
0.0
 11
1920.755974743742
 21
267.7934701894221
 31
0.0
  0
LINE
  5
D49F
330
18
100
AcDbEntity
  8
DRAW2
100
AcDbLine
 10
1925.07296204185
 20
276.2707115253744
 30
0.0
 11
1920.072962041849
 21
267.6104574875299
 31
0.0
  0
LINE
  5
D4A0
330
18
100
AcDbEntity
  8
DRAW2
100
AcDbLine
 10
1920.072962041849
 20
267.6104574875299
 30
0.0
 11
1920.755974743742
 21
267.7934701894221
 31
0.0
  0
LINE
  5
D4A1
330
18
100
AcDbEntity
  8
DRAW2
100
AcDbLine
 10
1924.1040682756
 20
267.5924982951006
 30
0.0
 11
1921.505974743742
 21
269.0925082950988
 31
0.0
  0
LINE
  5
D4A2
330
18
100
AcDbEntity
  8
DRAW2
100
AcDbLine
 10
1927.1040682756
 20
272.7886507178074
 30
0.0
 11
1924.505974743742
 21
274.2886607178056
 31
0.0
  0
LINE
  5
D4A3
330
18
100
AcDbEntity
  8
DRAW2
100
AcDbLine
 10
1917.27873340779
 20
280.7707115253744
 30
0.0
 11
1925.07296204185
 21
276.2707115253744
 31
0.0
  0
LINE
  5
D4A4
330
18
100
AcDbEntity
  8
DRAW2
100
AcDbLine
 10
1916.595720705896
 20
280.587698823482
 30
0.0
 11
1917.27873340779
 21
280.7707115253744
 31
0.0
  0
LINE
  5
D4A5
330
18
100
AcDbEntity
  8
DRAW2
100
AcDbLine
 10
1925.07296204185
 20
276.2707115253744
 30
0.0
 11
1925.255974743742
 21
275.587698823482
 31
0.0
  0
LINE
  5
D4A6
330
18
100
AcDbEntity
  8
DRAW2
100
AcDbLine
 10
1922.104068275601
 20
262.9736961415836
 30
0.0
 11
1926.300220698307
 21
260.5510464107732
 31
0.0
  0
LINE
  5
D4A7
330
18
100
AcDbEntity
  8
DRAW2
100
AcDbLine
 10
1922.104068275601
 20
264.1283966799629
 30
0.0
 11
1922.104068275601
 21
262.9736961415836
 31
0.0
  0
LINE
  5
D4A8
330
18
100
AcDbEntity
  8
DRAW2
100
AcDbLine
 10
1922.104068275601
 20
264.1283966799629
 30
0.0
 11
1927.300220698306
 21
261.1283966799629
 31
0.0
  0
LINE
  5
D4A9
330
18
100
AcDbEntity
  8
DRAW2
100
AcDbLine
 10
1927.300220698306
 20
261.1283966799629
 30
0.0
 11
1926.300220698307
 21
260.5510464107732
 31
0.0
  0
LINE
  5
D4AA
330
18
100
AcDbEntity
  8
DRAW2
100
AcDbLine
 10
1925.378163185754
 20
257.6192984852859
 30
0.0
 11
1924.558547943484
 21
257.3996832430153
 31
0.0
  0
ARC
  5
D4AB
330
18
100
AcDbEntity
  8
DRAW2
100
AcDbCircle
 10
2027.634494073184
 20
204.9324563048704
 30
0.0
 40
110.0000000004434
100
AcDbArc
 50
150.594239119297
 51
152.8659952841449
  0
LINE
  5
D4AC
330
18
100
AcDbEntity
  8
DRAW2
100
AcDbLine
 10
1941.128163185754
 20
284.8990987044961
 30
0.0
 11
1936.128163185754
 21
276.2388446666516
 31
0.0
  0
LINE
  5
D4AD
330
18
100
AcDbEntity
  8
DRAW2
100
AcDbLine
 10
1940.308547943484
 20
284.6794834622254
 30
0.0
 11
1935.908547943483
 21
277.0584599089223
 31
0.0
  0
LINE
  5
D4AE
330
18
100
AcDbEntity
  8
DRAW2
100
AcDbLine
 10
1945.804700366189
 20
282.1990987044961
 30
0.0
 11
1941.128163185754
 21
284.8990987044961
 31
0.0
  0
LINE
  5
D4AF
330
18
100
AcDbEntity
  8
DRAW2
100
AcDbLine
 10
1944.544056972985
 20
277.0155976251039
 30
0.0
 11
1947.728750464074
 21
282.5316485582056
 31
0.0
  0
LINE
  5
D4B0
330
18
100
AcDbEntity
  8
DRAW2
100
AcDbLine
 10
1940.054700366189
 20
272.2398065609746
 30
0.0
 11
1946.55470036619
 21
283.4981368101725
 31
0.0
  0
LINE
  5
D4B1
330
18
100
AcDbEntity
  8
DRAW2
100
AcDbLine
 10
1930.1040682756
 20
276.8301026021349
 30
0.0
 11
1934.300220698307
 21
274.4074528713244
 31
0.0
  0
LINE
  5
D4B2
330
18
100
AcDbEntity
  8
DRAW2
100
AcDbLine
 10
1929.1040682756
 20
276.252752332945
 30
0.0
 11
1934.300220698307
 21
273.2527523329451
 31
0.0
  0
LINE
  5
D4B3
330
18
100
AcDbEntity
  8
DRAW2
100
AcDbLine
 10
1936.128163185754
 20
276.2388446666516
 30
0.0
 11
1940.804700366189
 21
273.5388446666517
 31
0.0
  0
LINE
  5
D4B4
330
18
100
AcDbEntity
  8
DRAW3
100
AcDbLine
 10
1935.663523098284
 20
272.1690167780587
 30
0.0
 11
1936.568506776758
 21
270.601539066923
 31
0.0
  0
LINE
  5
D4B5
330
18
100
AcDbEntity
  8
DRAW2
100
AcDbLine
 10
1934.300220698307
 20
273.2527523329451
 30
0.0
 11
1934.300220698307
 21
274.4074528713244
 31
0.0
  0
LINE
  5
D4B6
330
18
100
AcDbEntity
  8
DRAW2
100
AcDbLine
 10
1940.054700366189
 20
272.2398065609746
 30
0.0
 11
1940.452957933187
 21
272.0098724474624
 31
0.0
  0
ARC
  5
D4B7
330
18
100
AcDbEntity
  8
DRAW2
100
AcDbCircle
 10
2027.634494072793
 20
204.9324563050796
 30
0.0
 40
110.0
100
AcDbArc
 50
142.4253406450702
 51
143.6741777700334
  0
LINE
  5
D4B8
330
18
100
AcDbEntity
  8
DRAW2
100
AcDbLine
 10
1929.1040682756
 20
276.252752332945
 30
0.0
 11
1930.1040682756
 21
276.8301026021349
 31
0.0
  0
LINE
  5
D4B9
330
18
100
AcDbEntity
  8
DRAW2
100
AcDbLine
 10
1936.128163185754
 20
276.2388446666516
 30
0.0
 11
1935.908547943483
 21
277.0584599089223
 31
0.0
  0
LINE
  5
D4BB
330
18
100
AcDbEntity
  8
DRAW3
100
AcDbLine
 10
1930.730381776758
 20
260.489609945985
 30
0.0
 11
1932.229512826899
 21
259.6854430132983
 31
0.0
  0
LINE
  5
D4BC
330
18
100
AcDbEntity
  8
DRAW2
100
AcDbLine
 10
1936.996506776758
 20
271.3428568125625
 30
0.0
 11
1930.302381776758
 21
259.7482922003456
 31
0.0
  0
LINE
  5
D4BD
330
18
100
AcDbEntity
  8
DRAW2
100
AcDbLine
 10
1934.198689448306
 20
273.0768950493891
 30
0.0
 11
1939.011739359377
 21
270.0938509111316
 31
0.0
  0
LINE
  5
D4BE
330
18
100
AcDbEntity
  8
DRAW3
100
AcDbLine
 10
1936.568506776758
 20
270.601539066923
 30
0.0
 11
1938.506173494906
 21
269.4006071314003
 31
0.0
  0
LINE
  5
D4BF
330
18
100
AcDbEntity
  8
DRAW2
100
AcDbLine
 10
1949.094775867859
 20
282.8976739619901
 30
0.0
 11
1947.728750464074
 21
282.5316485582056
 31
0.0
  0
LINE
  5
D4C0
330
18
100
AcDbEntity
  8
DRAW2
100
AcDbLine
 10
1949.691838921813
 20
282.5529594470665
 30
0.0
 11
1949.094775867859
 21
282.8976739619901
 31
0.0
  0
LINE
  5
D4C1
330
18
100
AcDbEntity
  8
DRAW2
100
AcDbLine
 10
1947.853738471867
 20
282.7481368101725
 30
0.0
 11
1946.603738471868
 21
280.5830733007114
 31
0.0
  0
LINE
  5
D4C2
330
18
100
AcDbEntity
  8
DRAW2
100
AcDbLine
 10
1946.55470036619
 20
283.4981368101725
 30
0.0
 11
1947.853738471867
 21
282.7481368101725
 31
0.0
  0
LINE
  5
D4C3
330
18
100
AcDbEntity
  8
DRAW2
100
AcDbLine
 10
1941.128163185754
 20
284.8990987044961
 30
0.0
 11
1940.308547943484
 21
284.6794834622254
 31
0.0
  0
ARC
  5
D4C4
330
18
100
AcDbEntity
  8
DRAW2
100
AcDbCircle
 10
1981.634499754632
 20
284.6067967336582
 30
0.0
 40
13.00003000000009
100
AcDbArc
 50
103.7066187436355
 51
352.5575905189916
  0
ARC
  5
D4C6
330
18
100
AcDbEntity
  8
DRAW2
100
AcDbCircle
 10
1981.634499754632
 20
284.6067967336582
 30
0.0
 40
11.15201890084368
100
AcDbArc
 50
99.08334501855271
 51
357.1808642440718
  0
LINE
  5
D4C8
330
18
100
AcDbEntity
  8
DRAW2
100
AcDbLine
 10
1984.134494072794
 20
402.9324563050795
 30
0.0
 11
1984.134494072794
 21
382.9324563050795
 31
0.0
  0
LINE
  5
D4C9
330
18
100
AcDbEntity
  8
DRAW2
100
AcDbLine
 10
1979.634494072793
 20
382.9324563050795
 30
0.0
 11
1979.634494072793
 21
375.9605714243302
 31
0.0
  0
LINE
  5
D4CA
330
18
100
AcDbEntity
  8
DRAW2
100
AcDbLine
 10
1986.436799962564
 20
382.9324563050795
 30
0.0
 11
1979.634494072793
 21
382.9324563050795
 31
0.0
  0
LINE
  5
D4CB
330
18
100
AcDbEntity
  8
DRAW2
100
AcDbLine
 10
1984.134764072793
 20
402.9320963050794
 30
0.0
 11
1986.134674072793
 21
404.9320963050794
 31
0.0
  0
CIRCLE
  5
D4CC
330
18
100
AcDbEntity
  8
DRAW2
100
AcDbCircle
 10
2059.454299226188
 20
304.1126511516846
 30
0.0
 40
9.5
  0
CIRCLE
  5
D4D0
330
18
100
AcDbEntity
  8
DRAW2
100
AcDbCircle
 10
2119.634494072794
 20
204.9324497442578
 30
0.0
 40
13.00003000000009
  0
CIRCLE
  5
D4D1
330
18
100
AcDbEntity
  8
DRAW2
100
AcDbCircle
 10
2119.634494072794
 20
204.9324497442578
 30
0.0
 40
11.15201890084368
  0
ARC
  5
D4D2
330
18
100
AcDbEntity
  8
DRAW2
100
AcDbCircle
 10
2027.634494072793
 20
204.9324563050794
 30
0.0
 40
110.0
100
AcDbArc
 50
298.3862947502529
 51
61.61370524974714
  0
LINE
  5
D4D5
330
18
100
AcDbEntity
  8
DRAW2
100
AcDbLine
 10
2049.956008336915
 20
105.9324563050793
 30
0.0
 11
2068.952590115462
 21
105.9324563050793
 31
0.0
  0
CIRCLE
  5
D4D6
330
18
100
AcDbEntity
  8
DRAW2
100
AcDbCircle
 10
2059.454299226188
 20
105.7522614584739
 30
0.0
 40
9.5
  0
LINE
  5
D4D8
330
18
100
AcDbEntity
  8
HIDDEN
100
AcDbLine
 10
2105.634494072794
 20
148.4981777497889
 30
0.0
 11
2105.634494072794
 21
152.9197679768568
 31
0.0
  0
LINE
  5
D4D9
330
18
100
AcDbEntity
  8
HIDDEN
100
AcDbLine
 10
2099.968326026968
 20
136.3742454887207
 30
0.0
 11
2090.634494072795
 21
136.665934298113
 31
0.0
  0
LINE
  5
D4DA
330
18
100
AcDbEntity
  8
HIDDEN
100
AcDbLine
 10
2099.968332584591
 20
147.4651167641066
 30
0.0
 11
2090.634494072795
 21
147.173434310613
 31
0.0
  0
ARC
  5
D4DC
330
18
100
AcDbEntity
  8
DRAW2
100
AcDbCircle
 10
2073.634488390955
 20
125.2581158765005
 30
0.0
 40
13.00003000000009
100
AcDbArc
 50
283.7066187436353
 51
172.5575905189915
  0
ARC
  5
D4DD
330
18
100
AcDbEntity
  8
DRAW2
100
AcDbCircle
 10
2073.634488390955
 20
125.2581158765005
 30
0.0
 40
11.15201890084368
100
AcDbArc
 50
279.0833450185526
 51
177.1808642440719
  0
LINE
  5
D4DE
330
18
100
AcDbEntity
  8
HIDDEN
100
AcDbLine
 10
2060.972292242472
 20
137.9324563050793
 30
0.0
 11
2089.910641169189
 21
137.9324563050793
 31
0.0
  0
LINE
  5
D4DF
330
18
100
AcDbEntity
  8
HIDDEN
100
AcDbLine
 10
2065.210974821695
 20
145.9324563050794
 30
0.0
 11
2089.910641169189
 21
145.9324563050794
 31
0.0
  0
LINE
  5
D4E0
330
18
100
AcDbEntity
  8
HIDDEN
100
AcDbLine
 10
2089.910641169189
 20
145.919684304363
 30
0.0
 11
2089.910641169189
 21
137.919684304363
 31
0.0
  0
LINE
  5
D4E1
330
18
100
AcDbEntity
  8
HIDDEN
100
AcDbLine
 10
2090.634494072795
 20
136.665934298113
 30
0.0
 11
2090.634494072795
 21
147.173434310613
 31
0.0
  0
LINE
  5
D4E2
330
18
100
AcDbEntity
  8
HIDDEN
100
AcDbLine
 10
2090.634494072795
 20
136.665934298113
 30
0.0
 11
2089.910641169189
 21
137.919684304363
 31
0.0
  0
LINE
  5
D4E3
330
18
100
AcDbEntity
  8
HIDDEN
100
AcDbLine
 10
2089.910641169189
 20
145.919684304363
 30
0.0
 11
2090.634494072795
 21
147.173434310613
 31
0.0
  0
LINE
  5
D4E4
330
18
100
AcDbEntity
  8
HIDDEN
100
AcDbLine
 10
2100.823908364099
 20
135.4915085406852
 30
0.0
 11
2096.234494072794
 21
135.6349342981131
 31
0.0
  0
LINE
  5
D4E5
330
18
100
AcDbEntity
  8
HIDDEN
100
AcDbLine
 10
2105.634494072794
 20
135.341184298113
 30
0.0
 11
2104.750881169568
 21
136.2247972013388
 31
0.0
  0
LINE
  5
D4E6
330
18
100
AcDbEntity
  8
HIDDEN
100
AcDbLine
 10
2094.667016361659
 20
136.539917976586
 30
0.0
 11
2096.234494072794
 21
135.6349342981131
 31
0.0
  0
LINE
  5
D4E7
330
18
100
AcDbEntity
  8
HIDDEN
100
AcDbLine
 10
2105.634494072794
 20
130.9197679768568
 30
0.0
 11
2109.010915513095
 21
130.9197679768568
 31
0.0
  0
LINE
  5
D4E8
330
18
100
AcDbEntity
  8
HIDDEN
100
AcDbLine
 10
2105.634494072794
 20
130.9197679768568
 30
0.0
 11
2105.634494072794
 21
135.3411777372887
 31
0.0
  0
LINE
  5
D4E9
330
18
100
AcDbEntity
  8
HIDDEN
100
AcDbLine
 10
2100.823908364099
 20
148.347846946392
 30
0.0
 11
2096.234494072794
 21
148.204434310613
 31
0.0
  0
LINE
  5
D4EA
330
18
100
AcDbEntity
  8
HIDDEN
100
AcDbLine
 10
2105.634494072794
 20
148.4981843106129
 30
0.0
 11
2104.750881169568
 21
147.6145714073872
 31
0.0
  0
LINE
  5
D4EB
330
18
100
AcDbEntity
  8
HIDDEN
100
AcDbLine
 10
2096.234494072794
 20
135.6349342981131
 30
0.0
 11
2096.234494072794
 21
148.204434310613
 31
0.0
  0
LINE
  5
D4EC
330
18
100
AcDbEntity
  8
HIDDEN
100
AcDbLine
 10
2094.667016361659
 20
147.2994506321399
 30
0.0
 11
2096.234494072794
 21
148.204434310613
 31
0.0
  0
LINE
  5
D4EE
330
18
100
AcDbEntity
  8
HIDDEN
100
AcDbLine
 10
2105.634494072794
 20
152.9197679768568
 30
0.0
 11
2124.56065283745
 21
152.9197679768568
 31
0.0
  0
LINE
  5
D4EF
330
18
100
AcDbEntity
  8
DRAW2
100
AcDbLine
 10
2049.956008336915
 20
303.9324563050795
 30
0.0
 11
2068.952590115462
 21
303.9324563050795
 31
0.0
  0
ARC
  5
D4F1
330
18
100
AcDbEntity
  8
DRAW2
100
AcDbCircle
 10
2073.634499754632
 20
284.6067901728366
 30
0.0
 40
13.00003000000009
100
AcDbArc
 50
187.4423533512701
 51
76.29344417551559
  0
ARC
  5
D4F3
330
18
100
AcDbEntity
  8
DRAW2
100
AcDbCircle
 10
2073.634499754632
 20
284.6067901728366
 30
0.0
 40
11.15201890084368
100
AcDbArc
 50
182.8190650635584
 51
80.9167324632159
  0
LINE
  5
D4F4
330
18
100
AcDbEntity
  8
DRAW2
100
AcDbLine
 10
2050.134404072794
 20
402.9324563050795
 30
0.0
 11
2071.134464072794
 21
402.9324563050795
 31
0.0
  0
LINE
  5
D4F5
330
18
100
AcDbEntity
  8
DRAW2
100
AcDbLine
 10
2052.134284072792
 20
404.9323963050794
 30
0.0
 11
2069.134494072794
 21
404.9323963050794
 31
0.0
  0
LINE
  5
D4F6
330
18
100
AcDbEntity
  8
DRAW2
100
AcDbLine
 10
2049.956008336915
 20
367.9324563050794
 30
0.0
 11
2068.952590115462
 21
367.9324563050794
 31
0.0
  0
CIRCLE
  5
D4F8
330
18
100
AcDbEntity
  8
DRAW2
100
AcDbCircle
 10
2059.454299226188
 20
367.7522614584741
 30
0.0
 40
9.5
  0
CIRCLE
  5
D4FA
330
18
100
AcDbEntity
  8
DRAW2
100
AcDbCircle
 10
2027.634494072793
 20
335.9324563050794
 30
0.0
 40
13.5
  0
CIRCLE
  5
D4FB
330
18
100
AcDbEntity
  8
DRAW2
100
AcDbCircle
 10
2027.634494072793
 20
335.9324563050794
 30
0.0
 40
12.5
  0
CIRCLE
  5
D4FC
330
18
100
AcDbEntity
  8
DRAW2
100
AcDbCircle
 10
2027.634494072793
 20
335.9324563050794
 30
0.0
 40
12.5
  0
LINE
  5
D4FD
330
18
100
AcDbEntity
  8
DRAW2
100
AcDbLine
 10
2003.134584072793
 20
404.9323363050793
 30
0.0
 11
2005.134674072793
 21
402.9322763050794
 31
0.0
  0
LINE
  5
D4FE
330
18
100
AcDbEntity
  8
DRAW2
100
AcDbLine
 10
2005.134554072794
 20
402.9324563050795
 30
0.0
 11
2005.134554072794
 21
394.2419984058062
 31
0.0
  0
LINE
  5
D4FF
330
18
100
AcDbEntity
  8
DRAW2
100
AcDbLine
 10
2050.134894072793
 20
402.9321563050793
 30
0.0
 11
2052.134794072793
 21
404.9321563050793
 31
0.0
  0
LINE
  5
D500
330
18
100
AcDbEntity
  8
DRAW2
100
AcDbLine
 10
2050.134494072794
 20
402.9324563050795
 30
0.0
 11
2050.134494072794
 21
394.2419752535324
 31
0.0
  0
LINE
  5
D502
330
18
100
AcDbEntity
  8
DRAW2
100
AcDbLine
 10
2071.134554072794
 20
402.9324563050795
 30
0.0
 11
2071.134554072794
 21
382.9324563050795
 31
0.0
  0
LINE
  5
D503
330
18
100
AcDbEntity
  8
DRAW2
100
AcDbLine
 10
2075.634494072794
 20
375.9605714243302
 30
0.0
 11
2075.634494072794
 21
382.9324563050795
 31
0.0
  0
LINE
  5
D504
330
18
100
AcDbEntity
  8
DRAW2
100
AcDbLine
 10
2075.634494072794
 20
382.9324563050795
 30
0.0
 11
2068.832188183022
 21
382.9324563050795
 31
0.0
  0
LINE
  5
D505
330
18
100
AcDbEntity
  8
DRAW2
100
AcDbLine
 10
2069.134534072794
 20
404.9323963050794
 30
0.0
 11
2071.134584072793
 21
402.9323963050793
 31
0.0
  0
LINE
  5
D6DF
330
18
100
AcDbEntity
  8
HIDDEN
100
AcDbLine
 10
2109.624493872793
 20
135.2164902435387
 30
0.0
 11
2100.823908364098
 21
135.4915085406854
 31
0.0
  0
LINE
  5
D6E0
330
18
100
AcDbEntity
  8
HIDDEN
100
AcDbLine
 10
2109.624493872793
 20
136.0724902435388
 30
0.0
 11
2099.968326026966
 21
136.3742454887207
 31
0.0
  0
LINE
  5
D6E1
330
18
100
AcDbEntity
  8
HIDDEN
100
AcDbLine
 10
2109.624493872793
 20
148.6228652435389
 30
0.0
 11
2100.823908364098
 21
148.347846946392
 31
0.0
  0
LINE
  5
D6E2
330
18
100
AcDbEntity
  8
HIDDEN
100
AcDbLine
 10
2109.624493872793
 20
147.7668652435388
 30
0.0
 11
2099.968326026968
 21
147.4651099983565
 31
0.0
  0
LINE
  5
D6E3
330
18
100
AcDbEntity
  8
HIDDEN
100
AcDbLine
 10
2099.624493872793
 20
147.1103652435388
 30
0.0
 11
2100.823908364098
 21
148.347846946392
 31
0.0
  0
LINE
  5
D6E4
330
18
100
AcDbEntity
  8
HIDDEN
100
AcDbLine
 10
2099.624493872793
 20
136.7289902435385
 30
0.0
 11
2100.823908364098
 21
135.4915085406853
 31
0.0
  0
ARC
  5
D6E5
330
18
100
AcDbEntity
  8
HIDDEN
100
AcDbCircle
 10
2094.147268297742
 20
141.9196777435386
 30
0.0
 40
6.5
100
AcDbArc
 50
327.4210296071905
 51
32.57897039280946
  0
LINE
  5
D6E6
330
18
100
AcDbEntity
  8
HIDDEN
100
AcDbLine
 10
2100.823908364098
 20
135.4915085406854
 30
0.0
 11
2100.823908364098
 21
148.347846946392
 31
0.0
  0
LINE
  5
D6E7
330
18
100
AcDbEntity
  8
HIDDEN
100
AcDbLine
 10
2099.624493872793
 20
136.7289902435385
 30
0.0
 11
2099.624493872793
 21
147.1103652435388
 31
0.0
  0
LINE
  5
D6E8
330
18
100
AcDbEntity
  8
HIDDEN
100
AcDbLine
 10
2109.624493872793
 20
135.2164902435388
 30
0.0
 11
2109.624493872793
 21
148.6228652435386
 31
0.0
  0
LINE
  5
D6E9
330
18
100
AcDbEntity
  8
HIDDEN
100
AcDbLine
 10
2109.624493872793
 20
146.5196777435386
 30
0.0
 11
2106.124493872794
 21
146.5196777435386
 31
0.0
  0
ARC
  5
D6EB
330
18
100
AcDbEntity
  8
HIDDEN
100
AcDbCircle
 10
2120.926182965597
 20
141.9196777435386
 30
0.0
 40
15.49999999999998
100
AcDbArc
 50
162.7360436771853
 51
197.2639563228145
  0
LINE
  5
D6EC
330
18
100
AcDbEntity
  8
HIDDEN
100
AcDbLine
 10
2109.624493872793
 20
137.3196777435387
 30
0.0
 11
2106.124493872794
 21
137.3196777435387
 31
0.0
  0
VIEWPORT
  5
37
330
15
100
AcDbEntity
 67
     1
  8
0
100
AcDbViewport
 10
420.4950122070313
 20
296.9950000476836
 30
0.0
 40
893.9779679990738
 41
598.5171102661597
 68
     1
 69
     1
 12
420.4950122070313
 22
296.9950000476836
 13
0.0
 23
0.0
 14
10.0
 24
10.0
 15
10.0
 25
10.0
 16
0.0
 26
0.0
 36
1.0
 17
0.0
 27
0.0
 37
0.0
 42
50.0
 43
0.0
 44
0.0
 45
598.5171102661597
 50
0.0
 51
0.0
 72
   100
 90
    32768
  1

281
     0
 71
     1
 74
     0
110
0.0
120
0.0
130
0.0
111
1.0
121
0.0
131
0.0
112
0.0
122
1.0
132
0.0
 79
     0
146
0.0
  0
ENDSEC
  0
SECTION
  2
OBJECTS
  0
DICTIONARY
  5
C
330
0
100
AcDbDictionary
281
     1
  3
ACAD_GROUP
350
D
  3
ACAD_IMAGE_VARS
350
7A9
  3
ACAD_LAYOUT
350
1AD
  3
ACAD_MLINESTYLE
350
1B
  3
ACAD_PLOTSETTINGS
350
1AE
  3
ACAD_PLOTSTYLENAME
350
1AB
  0
DICTIONARY
  5
D
102
{ACAD_REACTORS
330
C
102
}
330
C
100
AcDbDictionary
281
     1
  3
*A1
350
1485
  0
RASTERVARIABLES
  5
7A9
102
{ACAD_REACTORS
330
C
102
}
330
C
100
AcDbRasterVariables
 90
        0
 70
     1
 71
     1
 72
     0
  0
DICTIONARY
  5
1AD
102
{ACAD_REACTORS
330
C
102
}
330
C
100
AcDbDictionary
281
     1
  3
Model
350
1AF
  3
ﾚｲｱｳﾄ1
350
1B0
  0
DICTIONARY
  5
1B
102
{ACAD_REACTORS
330
C
102
}
330
C
100
AcDbDictionary
281
     1
  3
STANDARD
350
1C
  0
DICTIONARY
  5
1AE
102
{ACAD_REACTORS
330
C
102
}
330
C
100
AcDbDictionary
281
     1
  3
AdobePDF_A1
350
AD47
  3
普通紙Ａ３_XL-5800_WinNT40
350
298B
  3
普通紙Ａ３からＡ４_XL-5800_WinNT40
350
298C
  0
ACDBDICTIONARYWDFLT
  5
1AB
102
{ACAD_REACTORS
330
C
102
}
330
C
100
AcDbDictionary
281
     1
  3
Normal
350
1AC
100
AcDbDictionaryWithDefault
340
1AC
  0
GROUP
  5
1485
102
{ACAD_REACTORS
330
D
102
}
330
D
100
AcDbGroup
300

 70
     1
 71
     1
  0
LAYOUT
  5
1AF
102
{ACAD_REACTORS
330
1AD
102
}
330
1AD
100
AcDbPlotSettings
  1

  2
FUJITSU XL-5800
  4
A4
  6

 40
5.873749732971191
 41
5.704405784606932
 42
5.873748779296875
 43
5.873748779296875
 44
210.0579986572264
 45
296.9259948730469
 46
-934.06
 47
-482.3299999999998
 48
0.0
 49
0.0
140
0.0
141
0.0
142
1.0
143
1.0
 70
 11956
 72
     1
 73
     0
 74
     0
  7
LineScale_10.ctb
 75
    16
147
1.0
148
1033.210332103321
149
625.0
100
AcDbLayout
  1
Model
 70
     1
 71
     0
 10
0.0
 20
0.0
 11
12.0
 21
9.0
 12
0.0
 22
0.0
 32
0.0
 14
0.0
 24
0.0
 34
0.0
 15
0.0
 25
0.0
 35
0.0
146
0.0
 13
0.0
 23
0.0
 33
0.0
 16
1.0
 26
0.0
 36
0.0
 17
0.0
 27
1.0
 37
0.0
 76
     0
330
18
  0
LAYOUT
  5
1B0
102
{ACAD_REACTORS
330
1AD
102
}
330
1AD
100
AcDbPlotSettings
  1
AdobePDF_A1
  2
Adobe PDF
  4
User120
  6
A1
 40
3.174999952316283
 41
3.174999952316283
 42
3.17498779296875
 43
3.17498779296875
 44
594.0
 45
841.0
 46
-3.169999999999998
 47
-3.169999999999998
 48
0.0
 49
0.0
140
841.0
141
594.0
142
1.0
143
1.0
 70
   692
 72
     1
 73
     1
 74
     4
  7
LineScale_10.ctb
 75
    16
147
1.0
148
0.0
149
0.0
100
AcDbLayout
  1
ﾚｲｱｳﾄ1
 70
     1
 71
     1
 10
-0.0049877929687501
 20
-0.0049999523162843
 11
840.9950122070311
 21
593.9950000476836
 12
0.0
 22
0.0
 32
0.0
 14
1.000000000000000E+20
 24
1.000000000000000E+20
 34
1.000000000000000E+20
 15
-1.000000000000000E+20
 25
-1.000000000000000E+20
 35
-1.000000000000000E+20
146
0.0
 13
0.0
 23
0.0
 33
0.0
 16
1.0
 26
0.0
 36
0.0
 17
0.0
 27
1.0
 37
0.0
 76
     0
330
15
331
37
  0
MLINESTYLE
  5
1C
102
{ACAD_REACTORS
330
1B
102
}
330
1B
100
AcDbMlineStyle
  2
STANDARD
 70
     0
  3

 62
   256
 51
90.0
 52
90.0
 71
     2
 49
0.5
 62
   256
  6
BYLAYER
 49
-0.5
 62
   256
  6
BYLAYER
  0
PLOTSETTINGS
  5
AD47
102
{ACAD_REACTORS
330
1AE
102
}
330
1AE
100
AcDbPlotSettings
  1
AdobePDF_A1
  2
Adobe PDF
  4
User120
  6
A1
 40
3.174999952316283
 41
3.174999952316283
 42
3.17498779296875
 43
3.17498779296875
 44
594.0
 45
841.0
 46
-3.169999999999998
 47
-3.169999999999998
 48
0.0
 49
0.0
140
841.0
141
594.0
142
1.0
143
1.0
 70
   692
 72
     1
 73
     1
 74
     4
  7
LineScale_10.ctb
 75
    16
147
1.0
148
0.0
149
0.0
  0
PLOTSETTINGS
  5
298B
102
{ACAD_REACTORS
330
1AE
102
}
330
1AE
100
AcDbPlotSettings
  1
普通紙Ａ３_XL-5800_WinNT40
  2
FUJITSU XL-5800
  4
A3
  6
A1
 40
5.873749732971191
 41
5.873747825622557
 42
5.70440673828125
 43
5.873748779296875
 44
296.9259948730469
 45
420.1159973144531
 46
-5.009999999999998
 47
-6.7
 48
0.0
 49
0.0
140
420.0
141
297.0
142
1.0
143
1.0
 70
   688
 72
     1
 73
     1
 74
     4
  7
LineScale_10.ctb
 75
    16
147
1.0
148
0.0
149
0.0
  0
PLOTSETTINGS
  5
298C
102
{ACAD_REACTORS
330
1AE
102
}
330
1AE
100
AcDbPlotSettings
  1
普通紙Ａ３からＡ４_XL-5800_WinNT40
  2
FUJITSU XL-5800
  4
A4
  6
A1
 40
5.873749732971191
 41
5.704405784606932
 42
5.873748779296875
 43
5.873748779296875
 44
210.0579986572264
 45
296.9259948730469
 46
-6.4
 47
-5.459999999999999
 48
0.0
 49
0.0
140
420.0
141
297.0
142
0.7071066999999999
143
1.0
 70
   672
 72
     1
 73
     1
 74
     4
  7
LineScale_07.ctb
 75
     0
147
0.7071066999999999
148
0.0
149
0.0
  0
ACDBPLACEHOLDER
  5
1AC
102
{ACAD_REACTORS
330
1AB
102
}
330
1AB
  0
ENDSEC
  0
EOF
