  0
SECTION
  2
HEADER
  9
$ACADVER
  1
AC1015
  9
$ACADMAINTVER
 70
     6
  9
$DWGCODEPAGE
  3
ANSI_932
  9
$INSBASE
 10
0.0
 20
0.0
 30
0.0
  9
$EXTMIN
 10
1221.317448731954
 20
-13.74961100395251
 30
-0.00000001
  9
$EXTMAX
 10
2211.058527652852
 20
787.8961420324082
 30
0.00000001
  9
$LIMMIN
 10
-841.0
 20
-594.0
  9
$LIMMAX
 10
841.0
 20
594.0
  9
$ORTHOMODE
 70
     0
  9
$REGENMODE
 70
     1
  9
$FILLMODE
 70
     1
  9
$QTEXTMODE
 70
     0
  9
$MIRRTEXT
 70
     0
  9
$LTSCALE
 40
7.0
  9
$ATTMODE
 70
     1
  9
$TEXTSIZE
 40
4.799999999999999
  9
$TRACEWID
 40
1.0
  9
$TEXTSTYLE
  7
DIMFONT
  9
$CLAYER
  8
DRAW2
  9
$CELTYPE
  6
BYLAYER
  9
$CECOLOR
 62
   256
  9
$CELTSCALE
 40
1.0
  9
$DISPSILH
 70
     0
  9
$DIMSCALE
 40
3.0
  9
$DIMASZ
 40
3.0
  9
$DIMEXO
 40
0.0
  9
$DIMDLI
 40
10.0
  9
$DIMRND
 40
0.0
  9
$DIMDLE
 40
0.0
  9
$DIMEXE
 40
1.0
  9
$DIMTP
 40
0.0
  9
$DIMTM
 40
0.0
  9
$DIMTXT
 40
3.2
  9
$DIMCEN
 40
0.0
  9
$DIMTSZ
 40
0.0
  9
$DIMTOL
 70
     0
  9
$DIMLIM
 70
     0
  9
$DIMTIH
 70
     0
  9
$DIMTOH
 70
     0
  9
$DIMSE1
 70
     0
  9
$DIMSE2
 70
     0
  9
$DIMTAD
 70
     3
  9
$DIMZIN
 70
     8
  9
$DIMBLK
  1

  9
$DIMASO
 70
     1
  9
$DIMSHO
 70
     1
  9
$DIMPOST
  1

  9
$DIMAPOST
  1

  9
$DIMALT
 70
     0
  9
$DIMALTD
 70
     2
  9
$DIMALTF
 40
25.4
  9
$DIMLFAC
 40
1.0
  9
$DIMTOFL
 70
     1
  9
$DIMTVP
 40
0.0
  9
$DIMTIX
 70
     0
  9
$DIMSOXD
 70
     0
  9
$DIMSAH
 70
     1
  9
$DIMBLK1
  1
OPEN
  9
$DIMBLK2
  1
OPEN
  9
$DIMSTYLE
  2
1_3
  9
$DIMCLRD
 70
     0
  9
$DIMCLRE
 70
     0
  9
$DIMCLRT
 70
     0
  9
$DIMTFAC
 40
0.75
  9
$DIMGAP
 40
1.0
  9
$DIMJUST
 70
     0
  9
$DIMSD1
 70
     0
  9
$DIMSD2
 70
     0
  9
$DIMTOLJ
 70
     1
  9
$DIMTZIN
 70
     8
  9
$DIMALTZ
 70
     0
  9
$DIMALTTZ
 70
     0
  9
$DIMUPT
 70
     0
  9
$DIMDEC
 70
     0
  9
$DIMTDEC
 70
     0
  9
$DIMALTU
 70
     2
  9
$DIMALTTD
 70
     2
  9
$DIMTXSTY
  7
DIMFONT
  9
$DIMAUNIT
 70
     0
  9
$DIMADEC
 70
     2
  9
$DIMALTRND
 40
0.0
  9
$DIMAZIN
 70
     2
  9
$DIMDSEP
 70
    46
  9
$DIMATFIT
 70
     1
  9
$DIMFRAC
 70
     0
  9
$DIMLDRBLK
  1
OPEN
  9
$DIMLUNIT
 70
     2
  9
$DIMLWD
 70
    -2
  9
$DIMLWE
 70
    -2
  9
$DIMTMOVE
 70
     0
  9
$LUNITS
 70
     2
  9
$LUPREC
 70
     4
  9
$SKETCHINC
 40
1.0
  9
$FILLETRAD
 40
0.0
  9
$AUNITS
 70
     0
  9
$AUPREC
 70
     4
  9
$MENU
  1
acad
  9
$ELEVATION
 40
0.0
  9
$PELEVATION
 40
0.0
  9
$THICKNESS
 40
0.0
  9
$LIMCHECK
 70
     0
  9
$CHAMFERA
 40
0.0
  9
$CHAMFERB
 40
0.0
  9
$CHAMFERC
 40
0.0
  9
$CHAMFERD
 40
0.0
  9
$SKPOLY
 70
     0
  9
$TDCREATE
 40
2452311.864408912
  9
$TDUCREATE
 40
2452311.489408912
  9
$TDUPDATE
 40
2454973.417779224
  9
$TDUUPDATE
 40
2454973.042779224
  9
$TDINDWG
 40
0.8735353241
  9
$TDUSRTIMER
 40
0.8735352083
  9
$USRTIMER
 70
     1
  9
$ANGBASE
 50
0.0
  9
$ANGDIR
 70
     0
  9
$PDMODE
 70
    35
  9
$PDSIZE
 40
0.5
  9
$PLINEWID
 40
0.0
  9
$SPLFRAME
 70
     0
  9
$SPLINETYPE
 70
     6
  9
$SPLINESEGS
 70
     8
  9
$HANDSEED
  5
CF09
  9
$SURFTAB1
 70
     6
  9
$SURFTAB2
 70
     6
  9
$SURFTYPE
 70
     6
  9
$SURFU
 70
     6
  9
$SURFV
 70
     6
  9
$UCSBASE
  2

  9
$UCSNAME
  2

  9
$UCSORG
 10
0.0
 20
0.0
 30
0.0
  9
$UCSXDIR
 10
1.0
 20
0.0
 30
0.0
  9
$UCSYDIR
 10
0.0
 20
1.0
 30
0.0
  9
$UCSORTHOREF
  2

  9
$UCSORTHOVIEW
 70
     0
  9
$UCSORGTOP
 10
0.0
 20
0.0
 30
0.0
  9
$UCSORGBOTTOM
 10
0.0
 20
0.0
 30
0.0
  9
$UCSORGLEFT
 10
0.0
 20
0.0
 30
0.0
  9
$UCSORGRIGHT
 10
0.0
 20
0.0
 30
0.0
  9
$UCSORGFRONT
 10
0.0
 20
0.0
 30
0.0
  9
$UCSORGBACK
 10
0.0
 20
0.0
 30
0.0
  9
$PUCSBASE
  2

  9
$PUCSNAME
  2

  9
$PUCSORG
 10
0.0
 20
0.0
 30
0.0
  9
$PUCSXDIR
 10
1.0
 20
0.0
 30
0.0
  9
$PUCSYDIR
 10
0.0
 20
1.0
 30
0.0
  9
$PUCSORTHOREF
  2

  9
$PUCSORTHOVIEW
 70
     0
  9
$PUCSORGTOP
 10
0.0
 20
0.0
 30
0.0
  9
$PUCSORGBOTTOM
 10
0.0
 20
0.0
 30
0.0
  9
$PUCSORGLEFT
 10
0.0
 20
0.0
 30
0.0
  9
$PUCSORGRIGHT
 10
0.0
 20
0.0
 30
0.0
  9
$PUCSORGFRONT
 10
0.0
 20
0.0
 30
0.0
  9
$PUCSORGBACK
 10
0.0
 20
0.0
 30
0.0
  9
$USERI1
 70
     0
  9
$USERI2
 70
     0
  9
$USERI3
 70
     0
  9
$USERI4
 70
     0
  9
$USERI5
 70
     0
  9
$USERR1
 40
0.0
  9
$USERR2
 40
0.0
  9
$USERR3
 40
0.0
  9
$USERR4
 40
0.0
  9
$USERR5
 40
0.0
  9
$WORLDVIEW
 70
     1
  9
$SHADEDGE
 70
     3
  9
$SHADEDIF
 70
    70
  9
$TILEMODE
 70
     1
  9
$MAXACTVP
 70
    48
  9
$PINSBASE
 10
0.0
 20
0.0
 30
0.0
  9
$PLIMCHECK
 70
     0
  9
$PEXTMIN
 10
1.000000000000000E+20
 20
1.000000000000000E+20
 30
1.000000000000000E+20
  9
$PEXTMAX
 10
-1.000000000000000E+20
 20
-1.000000000000000E+20
 30
-1.000000000000000E+20
  9
$PLIMMIN
 10
-0.0049877929687501
 20
-0.0049999523162843
  9
$PLIMMAX
 10
840.9950122070311
 20
593.9950000476836
  9
$UNITMODE
 70
     0
  9
$VISRETAIN
 70
     0
  9
$PLINEGEN
 70
     1
  9
$PSLTSCALE
 70
     1
  9
$TREEDEPTH
 70
  3020
  9
$CMLSTYLE
  2
STANDARD
  9
$CMLJUST
 70
     0
  9
$CMLSCALE
 40
20.0
  9
$PROXYGRAPHICS
 70
     1
  9
$MEASUREMENT
 70
     1
  9
$CELWEIGHT
370
    -1
  9
$ENDCAPS
280
     0
  9
$JOINSTYLE
280
     0
  9
$LWDISPLAY
290
     0
  9
$INSUNITS
 70
     0
  9
$HYPERLINKBASE
  1

  9
$STYLESHEET
  1

  9
$XEDIT
290
     1
  9
$CEPSNTYPE
380
     0
  9
$PSTYLEMODE
290
     1
  9
$FINGERPRINTGUID
  2
{7FD28A7C-F8BA-11D3-9BCC-00A0C977751D}
  9
$VERSIONGUID
  2
{7EE5044C-C97C-47E1-8A06-1D7962538BB5}
  9
$EXTNAMES
290
     1
  9
$PSVPSCALE
 40
0.0
  9
$OLESTARTUP
290
     0
  0
ENDSEC
  0
SECTION
  2
CLASSES
  0
CLASS
  1
LWPOLYLINE
  2
AcDbPolyline
  3
AutoCAD 2000
 90
    32768
280
     0
281
     1
  0
CLASS
  1
ACDBDICTIONARYWDFLT
  2
AcDbDictionaryWithDefault
  3
AutoCAD 2000
 90
        0
280
     0
281
     0
  0
CLASS
  1
ACDBPLACEHOLDER
  2
AcDbPlaceHolder
  3
AutoCAD 2000
 90
        0
280
     0
281
     0
  0
CLASS
  1
LAYOUT
  2
AcDbLayout
  3
AutoCAD 2000
 90
        0
280
     0
281
     0
  0
CLASS
  1
PLOTSETTINGS
  2
AcDbPlotSettings
  3
AutoCAD 2000
 90
        0
280
     0
281
     0
  0
CLASS
  1
RASTERVARIABLES
  2
AcDbRasterVariables
  3
ISM
 90
        0
280
     0
281
     0
  0
ENDSEC
  0
SECTION
  2
TABLES
  0
TABLE
  2
VPORT
  5
8
330
0
100
AcDbSymbolTable
 70
     3
  0
VPORT
  5
CF08
330
8
100
AcDbSymbolTableRecord
100
AcDbViewportTableRecord
  2
*Active
 70
     0
 10
0.0
 20
0.0
 11
1.0
 21
1.0
 12
1716.182995312949
 22
387.0687579662224
 13
0.0
 23
0.0
 14
5.0
 24
5.0
 15
10.0
 25
10.0
 16
0.0
 26
0.0
 36
1.0
 17
0.0
 27
0.0
 37
0.0
 40
807.8480890076606
 41
1.493654822335025
 42
50.0
 43
0.0
 44
0.0
 50
0.0
 51
0.0
 71
     0
 72
   100
 73
     1
 74
     0
 75
     0
 76
     0
 77
     0
 78
     1
281
     0
 65
     1
110
0.0
120
0.0
130
0.0
111
1.0
121
0.0
131
0.0
112
0.0
122
1.0
132
0.0
 79
     0
146
0.0
  0
ENDTAB
  0
TABLE
  2
LTYPE
  5
5
330
0
100
AcDbSymbolTable
 70
     6
  0
LTYPE
  5
12
330
5
100
AcDbSymbolTableRecord
100
AcDbLinetypeTableRecord
  2
BYBLOCK
 70
     0
  3

 72
    65
 73
     0
 40
0.0
  0
LTYPE
  5
13
330
5
100
AcDbSymbolTableRecord
100
AcDbLinetypeTableRecord
  2
BYLAYER
 70
     0
  3

 72
    65
 73
     0
 40
0.0
  0
LTYPE
  5
14
330
5
100
AcDbSymbolTableRecord
100
AcDbLinetypeTableRecord
  2
CONTINUOUS
 70
     0
  3
Solid line
 72
    65
 73
     0
 40
0.0
  0
LTYPE
  5
23
330
5
100
AcDbSymbolTableRecord
100
AcDbLinetypeTableRecord
  2
HIDDEN
 70
     0
  3
__ __ __ __ __ __ __ __ __ __ __ __ __ __ __ __
 72
    65
 73
     2
 40
0.375
 49
0.25
 74
     0
 49
-0.125
 74
     0
  0
ENDTAB
  0
TABLE
  2
LAYER
  5
2
330
0
100
AcDbSymbolTable
 70
    18
  0
LAYER
  5
E
330
2
100
AcDbSymbolTableRecord
100
AcDbLayerTableRecord
  2
0
 70
     0
 62
     7
  6
CONTINUOUS
370
    -3
390
1AC
  0
LAYER
  5
29
330
2
100
AcDbSymbolTableRecord
100
AcDbLayerTableRecord
  2
DRAW2
 70
     0
 62
     4
  6
CONTINUOUS
370
    -3
390
1AC
  0
LAYER
  5
2A
330
2
100
AcDbSymbolTableRecord
100
AcDbLayerTableRecord
  2
DRAW3
 70
     0
 62
     1
  6
CONTINUOUS
370
    -3
390
1AC
  0
LAYER
  5
2B
330
2
100
AcDbSymbolTableRecord
100
AcDbLayerTableRecord
  2
DRAW4
 70
     0
 62
     2
  6
CONTINUOUS
370
    -3
390
1AC
  0
LAYER
  5
2C
330
2
100
AcDbSymbolTableRecord
100
AcDbLayerTableRecord
  2
HIDDEN
 70
     0
 62
     7
  6
HIDDEN
370
    -3
390
1AC
  0
LAYER
  5
133
330
2
100
AcDbSymbolTableRecord
100
AcDbLayerTableRecord
  2
DEFPOINTS
 70
     0
 62
     7
  6
CONTINUOUS
290
     0
370
    -3
390
1AC
  0
ENDTAB
  0
TABLE
  2
STYLE
  5
3
330
0
100
AcDbSymbolTable
 70
     4
  0
STYLE
  5
F
330
3
100
AcDbSymbolTableRecord
100
AcDbTextStyleTableRecord
  2
STANDARD
 70
     0
 40
0.0
 41
1.0
 50
0.0
 71
     0
 42
2.5
  3
txt
  4

  0
STYLE
  5
30
330
3
100
AcDbSymbolTableRecord
100
AcDbTextStyleTableRecord
  2
DIMFONT
 70
     0
 40
0.0
 41
1.0
 50
10.0
 71
     0
 42
4.799999999999999
  3
romans.shx
  4
extfont.shx
  0
ENDTAB
  0
TABLE
  2
VIEW
  5
6
330
0
100
AcDbSymbolTable
 70
     5
  0
VIEW
  5
C27
330
6
100
AcDbSymbolTableRecord
100
AcDbViewTableRecord
  2
View1
 70
     0
 40
1250.0
 10
0.0
 20
0.0
 41
2066.420664206642
 11
0.0
 21
0.0
 31
1.0
 12
0.0
 22
0.0
 32
0.0
 42
50.0
 43
0.0
 44
0.0
 50
0.0
 71
     0
281
     0
 72
     1
110
0.0
120
0.0
130
0.0
111
1.0
121
0.0
131
0.0
112
0.0
122
1.0
132
0.0
 79
     0
146
0.0
  0
VIEW
  5
C2A
330
6
100
AcDbSymbolTableRecord
100
AcDbViewTableRecord
  2
A4
 70
     1
 40
314.2148930664062
 10
103.8222427368164
 20
144.5197510242462
 41
519.4401184271217
 11
0.0
 21
0.0
 31
1.0
 12
0.0
 22
0.0
 32
0.0
 42
50.0
 43
0.0
 44
0.0
 50
0.0
 71
     0
281
     0
 72
     1
110
0.0
120
0.0
130
0.0
111
1.0
121
0.0
131
0.0
112
0.0
122
1.0
132
0.0
 79
     0
146
0.0
  0
VIEW
  5
C2B
330
6
100
AcDbSymbolTableRecord
100
AcDbViewTableRecord
  2
A3
 70
     1
 40
314.2148930664062
 10
205.8194916248321
 20
151.3197510242462
 41
519.4401184271217
 11
0.0
 21
0.0
 31
1.0
 12
0.0
 22
0.0
 32
0.0
 42
50.0
 43
0.0
 44
0.0
 50
0.0
 71
     0
281
     0
 72
     1
110
0.0
120
0.0
130
0.0
111
1.0
121
0.0
131
0.0
112
0.0
122
1.0
132
0.0
 79
     0
146
0.0
  0
VIEW
  5
C2C
330
6
100
AcDbSymbolTableRecord
100
AcDbViewTableRecord
  2
A2
 70
     1
 40
444.3483441772461
 10
293.3145020008087
 20
213.3194916248321
 41
734.5684804110931
 11
0.0
 21
0.0
 31
1.0
 12
0.0
 22
0.0
 32
0.0
 42
50.0
 43
0.0
 44
0.0
 50
0.0
 71
     0
281
     0
 72
     1
110
0.0
120
0.0
130
0.0
111
1.0
121
0.0
131
0.0
112
0.0
122
1.0
132
0.0
 79
     0
146
0.0
  0
VIEW
  5
C2D
330
6
100
AcDbSymbolTableRecord
100
AcDbViewTableRecord
  2
A1
 70
     1
 40
628.2954051513671
 10
422.5084997558593
 20
293.4384954071044
 41
1038.658086744695
 11
0.0
 21
0.0
 31
1.0
 12
0.0
 22
0.0
 32
0.0
 42
50.0
 43
0.0
 44
0.0
 50
0.0
 71
     0
281
     0
 72
     1
110
0.0
120
0.0
130
0.0
111
1.0
121
0.0
131
0.0
112
0.0
122
1.0
132
0.0
 79
     0
146
0.0
  0
ENDTAB
  0
TABLE
  2
UCS
  5
7
330
0
100
AcDbSymbolTable
 70
     0
  0
ENDTAB
  0
TABLE
  2
APPID
  5
9
330
0
100
AcDbSymbolTable
 70
     1
  0
APPID
  5
10
330
9
100
AcDbSymbolTableRecord
100
AcDbRegAppTableRecord
  2
ACAD
 70
     0
  0
ENDTAB
  0
TABLE
  2
DIMSTYLE
  5
A
330
0
100
AcDbSymbolTable
 70
    12
100
AcDbDimStyleTable
 71
     1
340
4D
  0
DIMSTYLE
105
4D
102
{ACAD_REACTORS
330
CEC3
330
CD8A
330
9B67
330
900D
330
5F4F
330
5B4A
330
5B49
330
5AB6
330
5AB7
330
6F1C
330
6F32
330
5C02
330
5BB6
330
6F4D
330
601B
330
5B4B
330
CE1D
330
CE03
102
}
330
A
100
AcDbSymbolTableRecord
100
AcDbDimStyleTableRecord
  2
1_3
 70
     0
 40
3.0
 41
3.0
 42
0.0
 43
10.0
 44
1.0
 73
     0
 74
     0
 77
     3
 78
     8
 79
     2
140
3.2
141
0.0
146
0.75
147
1.0
172
     1
173
     1
179
     2
271
     0
272
     0
284
     8
289
     1
340
30
341
125
343
125
344
125
  0
DIMSTYLE
105
26A3
330
A
100
AcDbSymbolTableRecord
100
AcDbDimStyleTableRecord
  2
STANDARD
 70
     0
340
F
  0
ENDTAB
  0
TABLE
  2
BLOCK_RECORD
  5
1
330
0
100
AcDbSymbolTable
 70
   197
  0
BLOCK_RECORD
  5
18
330
1
100
AcDbSymbolTableRecord
100
AcDbBlockTableRecord
  2
*MODEL_SPACE
340
1AF
  0
BLOCK_RECORD
  5
15
330
1
100
AcDbSymbolTableRecord
100
AcDbBlockTableRecord
  2
*PAPER_SPACE
340
1B0
  0
BLOCK_RECORD
  5
125
330
1
100
AcDbSymbolTableRecord
100
AcDbBlockTableRecord
  2
_OPEN
340
0
102
{BLKREFS
331
2665
331
2666
331
2671
331
2672
331
267D
331
267E
331
C599
331
C59A
331
C5A2
331
C5A3
331
C5AB
331
C5AC
331
C5B4
331
C5B5
331
CD9A
331
CD9B
331
CDAC
331
CDAD
331
CDC7
331
CDC8
331
CDD0
331
CDD1
331
CDE2
331
CDE3
331
CDFD
331
CDFE
331
CE63
331
CE64
331
CE6C
331
CE6D
331
CE7E
331
CE7F
331
CE90
331
CE91
331
CE99
331
CE9A
331
CEA2
331
CEA3
331
CEAB
331
CEAC
331
CEE5
331
CEE6
102
}
  0
ENDTAB
  0
ENDSEC
  0
SECTION
  2
BLOCKS
  0
BLOCK
  5
19
330
18
100
AcDbEntity
  8
0
100
AcDbBlockBegin
  2
*MODEL_SPACE
 70
     0
 10
0.0
 20
0.0
 30
0.0
  3
*MODEL_SPACE
  1

  0
ENDBLK
  5
1A
330
18
100
AcDbEntity
  8
0
100
AcDbBlockEnd
  0
BLOCK
  5
16
330
15
100
AcDbEntity
 67
     1
  8
0
100
AcDbBlockBegin
  2
*PAPER_SPACE
 70
     0
 10
0.0
 20
0.0
 30
0.0
  3
*PAPER_SPACE
  1

  0
ENDBLK
  5
17
330
15
100
AcDbEntity
 67
     1
  8
0
100
AcDbBlockEnd
  0
BLOCK
  5
126
330
125
100
AcDbEntity
  8
0
100
AcDbBlockBegin
  2
_OPEN
 70
     0
 10
0.0
 20
0.0
 30
0.0
  3
_OPEN
  1

  0
LINE
  5
127
330
125
100
AcDbEntity
  8
0
  6
ByBlock
 62
     0
100
AcDbLine
 10
-1.0
 20
0.1666666666666666
 30
0.0
 11
0.0
 21
0.0
 31
0.0
  0
LINE
  5
128
330
125
100
AcDbEntity
  8
0
  6
ByBlock
 62
     0
100
AcDbLine
 10
0.0
 20
0.0
 30
0.0
 11
-1.0
 21
-0.1666666666666666
 31
0.0
  0
LINE
  5
129
330
125
100
AcDbEntity
  8
0
  6
ByBlock
 62
     0
100
AcDbLine
 10
0.0
 20
0.0
 30
0.0
 11
-1.0
 21
0.0
 31
0.0
  0
ENDBLK
  5
12A
330
125
100
AcDbEntity
  8
0
100
AcDbBlockEnd
  0
ENDSEC
  0
SECTION
  2
ENTITIES
  0
TEXT
  5
2783
330
18
100
AcDbEntity
  8
0
100
AcDbText
 10
289.9791188454981
 20
596.53434424429
 30
0.0
 40
3.2
  1

 51
10.0
  7
DIMFONT
100
AcDbText
  0
TEXT
  5
2791
330
18
100
AcDbEntity
  8
0
100
AcDbText
 10
399.046620988657
 20
559.3598774521149
 30
0.0
 40
3.2
  1

 51
10.0
  7
DIMFONT
100
AcDbText
  0
ARC
  5
C95C
330
18
100
AcDbEntity
  8
DRAW2
100
AcDbCircle
 10
1821.271336539615
 20
272.0537807847581
 30
0.0
 40
25.0
100
AcDbArc
 50
90.0
 51
180.0
  0
ARC
  5
C95D
330
18
100
AcDbEntity
  8
DRAW2
100
AcDbCircle
 10
1821.271336539615
 20
272.0537807847581
 30
0.0
 40
26.25
100
AcDbArc
 50
90.0
 51
180.0
  0
LINE
  5
C95E
330
18
100
AcDbEntity
  8
DRAW2
100
AcDbLine
 10
1791.646336539614
 20
218.3283543316743
 30
0.0
 11
1806.646336539614
 21
218.3283543316747
 31
0.0
  0
LINE
  5
C95F
330
18
100
AcDbEntity
  8
DRAW2
100
AcDbLine
 10
1793.046336539614
 20
209.8283543316747
 30
0.0
 11
1798.246336539613
 21
209.8283543316747
 31
0.0
  0
LINE
  5
C960
330
18
100
AcDbEntity
  8
DRAW2
100
AcDbLine
 10
1793.046336539614
 20
209.8283543316747
 30
0.0
 11
1794.446336539613
 21
207.3283543316747
 31
0.0
  0
LINE
  5
C961
330
18
100
AcDbEntity
  8
DRAW2
100
AcDbLine
 10
1793.046336539614
 20
213.8283543316747
 30
0.0
 11
1798.246336539613
 21
213.8283543316747
 31
0.0
  0
LINE
  5
C962
330
18
100
AcDbEntity
  8
DRAW2
100
AcDbLine
 10
1791.646336539614
 20
214.3283543316747
 30
0.0
 11
1798.396336539614
 21
214.3283543316742
 31
0.0
  0
LINE
  5
C963
330
18
100
AcDbEntity
  8
DRAW2
100
AcDbLine
 10
1668.610915672593
 20
135.7503889960471
 30
0.0
 11
1668.610915672593
 21
10.75038899604726
 31
0.0
  0
LINE
  5
C964
330
18
100
AcDbEntity
  8
DRAW2
100
AcDbLine
 10
1648.610915672593
 20
135.7503889960471
 30
0.0
 11
1648.610915672593
 21
10.75038899604726
 31
0.0
  0
LINE
  5
C965
330
18
100
AcDbEntity
  8
DRAW2
100
AcDbLine
 10
1642.610925672592
 20
135.2503889960481
 30
0.0
 11
1642.610927101347
 21
11.25038884432217
 31
0.0
  0
LINE
  5
C966
330
18
100
AcDbEntity
  8
DRAW2
100
AcDbLine
 10
1645.610925672592
 20
135.2503889960481
 30
0.0
 11
1645.610927101347
 21
11.25038884432217
 31
0.0
  0
LINE
  5
C967
330
18
100
AcDbEntity
  8
DRAW2
100
AcDbLine
 10
1364.710915672593
 20
105.2503889960471
 30
0.0
 11
1364.710915672593
 21
41.25038899604738
 31
0.0
  0
LINE
  5
C968
330
18
100
AcDbEntity
  8
DRAW2
100
AcDbLine
 10
1573.710915672593
 20
105.2503889960471
 30
0.0
 11
1573.710915672593
 21
41.25038899604726
 31
0.0
  0
LINE
  5
C969
330
18
100
AcDbEntity
  8
DRAW2
100
AcDbLine
 10
1486.710915672593
 20
105.2503889960471
 30
0.0
 11
1486.710915672593
 21
41.25038899604726
 31
0.0
  0
LINE
  5
C96C
330
18
100
AcDbEntity
  8
DRAW2
100
AcDbLine
 10
1277.710915672593
 20
105.2503889960471
 30
0.0
 11
1277.710915672593
 21
41.25038899604738
 31
0.0
  0
LINE
  5
C96E
330
18
100
AcDbEntity
  8
DRAW2
100
AcDbLine
 10
1517.710915672592
 20
26.25038899604737
 30
0.0
 11
1553.710915672592
 21
26.25038899604737
 31
0.0
  0
LINE
  5
C96F
330
18
100
AcDbEntity
  8
DRAW2
100
AcDbLine
 10
1573.710915672593
 20
41.25038899604624
 30
0.0
 11
1486.710915672593
 21
41.25038899604658
 31
0.0
  0
LINE
  5
C970
330
18
100
AcDbEntity
  8
DRAW2
100
AcDbLine
 10
1521.5721030934
 20
-3.749611003952509
 30
0.0
 11
1549.849728251783
 21
-3.749611003952509
 31
0.0
  0
LINE
  5
C971
330
18
100
AcDbEntity
  8
DRAW2
100
AcDbLine
 10
1550.710915672592
 20
16.25038899604749
 30
0.0
 11
1520.710915672592
 21
16.25038899604726
 31
0.0
  0
LINE
  5
C972
330
18
100
AcDbEntity
  8
DRAW2
100
AcDbLine
 10
1277.71091567259
 20
26.25038899604737
 30
0.0
 11
1573.710915672591
 21
26.25038899604737
 31
0.0
  0
LINE
  5
C973
330
18
100
AcDbEntity
  8
DRAW2
100
AcDbLine
 10
1573.710915672591
 20
41.25038899604738
 30
0.0
 11
1277.71091567259
 21
41.25038899604738
 31
0.0
  0
LINE
  5
C974
330
18
100
AcDbEntity
  8
DRAW2
100
AcDbLine
 10
1365.710915672593
 20
50.75038899604703
 30
0.0
 11
1485.710915672593
 21
50.75038899604715
 31
0.0
  0
LINE
  5
C976
330
18
100
AcDbEntity
  8
DRAW2
100
AcDbLine
 10
1364.710915672593
 20
41.25038899604738
 30
0.0
 11
1277.710915672593
 21
41.25038899604738
 31
0.0
  0
LINE
  5
C977
330
18
100
AcDbEntity
  8
DRAW2
100
AcDbLine
 10
1277.71091567259
 20
41.25038899604738
 30
0.0
 11
1277.71091567259
 21
26.25038899604737
 31
0.0
  0
LINE
  5
C978
330
18
100
AcDbEntity
  8
DRAW2
100
AcDbLine
 10
1297.710915672591
 20
26.25038899604726
 30
0.0
 11
1333.710915672591
 21
26.25038899604726
 31
0.0
  0
ARC
  5
C979
330
18
100
AcDbEntity
  8
DRAW2
100
AcDbCircle
 10
1301.572103093399
 20
-2.749611003952509
 30
0.0
 40
1.0
100
AcDbArc
 50
188.5307656099492
 51
270.0
  0
LINE
  5
C97A
330
18
100
AcDbEntity
  8
DRAW2
100
AcDbLine
 10
1330.710915672591
 20
16.25038899604749
 30
0.0
 11
1300.710915672591
 21
16.25038899604726
 31
0.0
  0
LINE
  5
C97B
330
18
100
AcDbEntity
  8
DRAW2
100
AcDbLine
 10
1297.710915672591
 20
16.25038899604726
 30
0.0
 11
1300.583166740531
 21
-2.897951456882879
 31
0.0
  0
LINE
  5
C97C
330
18
100
AcDbEntity
  8
DRAW2
100
AcDbLine
 10
1297.710915672591
 20
26.25038899604726
 30
0.0
 11
1297.710915672591
 21
16.25038899604726
 31
0.0
  0
LINE
  5
C97D
330
18
100
AcDbEntity
  8
DRAW2
100
AcDbLine
 10
1330.838664604651
 20
-2.897951456882879
 30
0.0
 11
1333.710915672591
 21
16.25038899604726
 31
0.0
  0
LINE
  5
C97E
330
18
100
AcDbEntity
  8
DRAW2
100
AcDbLine
 10
1301.572103093399
 20
-3.749611003952509
 30
0.0
 11
1329.849728251783
 21
-3.749611003952736
 31
0.0
  0
ARC
  5
C97F
330
18
100
AcDbEntity
  8
DRAW2
100
AcDbCircle
 10
1329.849728251783
 20
-2.749611003952736
 30
0.0
 40
1.0
100
AcDbArc
 50
270.0
 51
351.4692343900506
  0
LINE
  5
C980
330
18
100
AcDbEntity
  8
DRAW2
100
AcDbLine
 10
1333.710915672591
 20
26.25038899604726
 30
0.0
 11
1333.710915672591
 21
16.25038899604726
 31
0.0
  0
ARC
  5
C981
330
18
100
AcDbEntity
  8
DRAW2
100
AcDbCircle
 10
1365.710915672593
 20
49.75038899604704
 30
0.0
 40
1.0
100
AcDbArc
 50
90.0
 51
180.0
  0
LINE
  5
C982
330
18
100
AcDbEntity
  8
DRAW2
100
AcDbLine
 10
1517.710915672592
 20
16.25038899604749
 30
0.0
 11
1520.583166740531
 21
-2.897951456882651
 31
0.0
  0
ARC
  5
C983
330
18
100
AcDbEntity
  8
DRAW2
100
AcDbCircle
 10
1521.5721030934
 20
-2.749611003952509
 30
0.0
 40
1.0
100
AcDbArc
 50
188.5307656099492
 51
270.0
  0
LINE
  5
C984
330
18
100
AcDbEntity
  8
DRAW2
100
AcDbLine
 10
1517.710915672592
 20
26.25038899604737
 30
0.0
 11
1517.710915672592
 21
16.25038899604749
 31
0.0
  0
ARC
  5
C985
330
18
100
AcDbEntity
  8
DRAW2
100
AcDbCircle
 10
1485.710915672593
 20
49.75038899604715
 30
0.0
 40
1.0
100
AcDbArc
 50
0.0
 51
90.0
  0
LINE
  5
C986
330
18
100
AcDbEntity
  8
DRAW2
100
AcDbLine
 10
1648.610915672593
 20
10.75038899604726
 30
0.0
 11
1668.610915672593
 21
10.75038899604726
 31
0.0
  0
LINE
  5
C989
330
18
100
AcDbEntity
  8
DRAW2
100
AcDbLine
 10
1574.710915672593
 20
45.75038899604715
 30
0.0
 11
1642.61092670383
 21
45.75038899604715
 31
0.0
  0
LINE
  5
C98A
330
18
100
AcDbEntity
  8
DRAW2
100
AcDbLine
 10
1573.710915672591
 20
26.25038899604737
 30
0.0
 11
1573.710915672591
 21
41.25038899604738
 31
0.0
  0
LINE
  5
C98B
330
18
100
AcDbEntity
  8
DRAW2
100
AcDbLine
 10
1550.838664604651
 20
-2.897951456882879
 30
0.0
 11
1553.710915672592
 21
16.25038899604749
 31
0.0
  0
ARC
  5
C98C
330
18
100
AcDbEntity
  8
DRAW2
100
AcDbCircle
 10
1549.849728251783
 20
-2.749611003952509
 30
0.0
 40
1.0
100
AcDbArc
 50
270.0
 51
351.4692343900506
  0
LINE
  5
C98D
330
18
100
AcDbEntity
  8
DRAW2
100
AcDbLine
 10
1553.710915672592
 20
26.25038899604737
 30
0.0
 11
1553.710915672592
 21
16.25038899604749
 31
0.0
  0
ARC
  5
C98E
330
18
100
AcDbEntity
  8
DRAW2
100
AcDbCircle
 10
1574.710915672593
 20
44.75038899604714
 30
0.0
 40
1.0
100
AcDbArc
 50
90.0
 51
180.0
  0
LINE
  5
C98F
330
18
100
AcDbEntity
  8
DRAW2
100
AcDbLine
 10
1642.610927101347
 20
11.25038884432217
 30
0.0
 11
1648.610927101346
 21
11.25038884432217
 31
0.0
  0
SPLINE
  5
C990
330
18
100
AcDbEntity
  8
DRAW3
100
AcDbSpline
210
0.0
220
0.0
230
1.0
 70
     8
 71
     3
 72
    10
 73
     6
 74
     0
 42
0.0000000001
 43
0.0000000001
 40
3.060451119082275
 40
3.060451119082275
 40
3.060451119082275
 40
3.060451119082275
 40
4.43112521805202
 40
8.108365865294601
 40
10.73000606709278
 40
10.73000606709278
 40
10.73000606709278
 40
10.73000606709278
 10
1422.71089567263
 20
528.1731237938714
 30
0.0
 10
1423.133771438701
 20
528.2468268209099
 30
0.0
 10
1424.633089519543
 20
528.131224559862
 30
0.0
 10
1426.440808396772
 20
524.8200220439481
 30
0.0
 10
1428.037715566939
 20
525.8770040582228
 30
0.0
 10
1428.710895672589
 20
526.6040750272835
 30
0.0
  0
ELLIPSE
  5
C991
330
18
100
AcDbEntity
  8
DRAW2
100
AcDbEllipse
 10
1425.710895672589
 20
560.7147513368714
 30
0.0
 11
-3.0
 21
0.0
 31
0.0
210
0.0
220
0.0
230
1.0
 40
0.5
 41
3.141592653589793
 42
6.283185307179586
  0
ELLIPSE
  5
C992
330
18
100
AcDbEntity
  8
DRAW2
100
AcDbEllipse
 10
1425.710895672589
 20
579.3653864314816
 30
0.0
 11
-26.25
 21
0.0
 31
0.0
210
0.0
220
0.0
230
1.0
 40
0.5047619047618961
 41
1.801406338081289
 42
2.53681868570958
  0
ELLIPSE
  5
C993
330
18
100
AcDbEntity
  8
DRAW2
100
AcDbEllipse
 10
1425.710895672589
 20
582.3653864314813
 30
0.0
 11
-4.864937500000053
 21
0.0
 31
0.0
210
0.0
220
0.0
230
1.0
 40
0.4999036472719311
 41
3.141592653589793
 42
6.283185307179586
  0
ELLIPSE
  5
C994
330
18
100
AcDbEntity
  8
DRAW2
100
AcDbEllipse
 10
1425.710895672588
 20
572.8391069898533
 30
0.0
 11
-3.5
 21
0.0
 31
0.0
210
0.0
220
0.0
230
1.0
 40
0.5
 41
3.141592653589793
 42
6.283185307179586
  0
ELLIPSE
  5
C995
330
18
100
AcDbEntity
  8
DRAW2
100
AcDbEllipse
 10
1425.710895672588
 20
562.4468021444398
 30
0.0
 11
-6.000000000000227
 21
0.0
 31
0.0
210
0.0
220
0.0
230
1.0
 40
0.4999999999999811
 41
3.141592653589793
 42
6.283185307179586
  0
ELLIPSE
  5
C996
330
18
100
AcDbEntity
  8
DRAW2
100
AcDbEllipse
 10
1425.710895672588
 20
560.7147513368714
 30
0.0
 11
-6.000000000000227
 21
0.0
 31
0.0
210
0.0
220
0.0
230
1.0
 40
0.500000000000019
 41
2.094395102393303
 42
7.330382858376335
  0
ELLIPSE
  5
C997
330
18
100
AcDbEntity
  8
DRAW2
100
AcDbEllipse
 10
1425.710895672589
 20
579.3653864314816
 30
0.0
 11
-26.25
 21
0.0
 31
0.0
210
0.0
220
0.0
230
1.0
 40
0.5047619047618961
 41
2.690928481611642
 42
6.733849479154297
  0
ELLIPSE
  5
C998
330
18
100
AcDbEntity
  8
DRAW2
100
AcDbEllipse
 10
1443.897429152062
 20
574.8564183412407
 30
0.0
 11
5.0
 21
0.0
 31
0.0
210
0.0
220
0.0
230
-1.0
 40
0.5000020055531195
 41
6.152917670934929
 42
9.555045597013986
  0
ELLIPSE
  5
C999
330
18
100
AcDbEntity
  8
DRAW2
100
AcDbEllipse
 10
1443.897429152062
 20
573.9903864314817
 30
0.0
 11
5.5
 21
0.0
 31
0.0
210
0.0
220
0.0
230
-1.0
 40
0.5
 41
0.0
 42
6.283185307179586
  0
ELLIPSE
  5
C99A
330
18
100
AcDbEntity
  8
DRAW2
100
AcDbEllipse
 10
1407.524362193115
 20
573.9903864314817
 30
0.0
 11
-5.5
 21
0.0
 31
0.0
210
0.0
220
0.0
230
1.0
 40
0.5
 41
0.0
 42
6.283185307179586
  0
ELLIPSE
  5
C99B
330
18
100
AcDbEntity
  8
DRAW2
100
AcDbEllipse
 10
1407.524362193115
 20
574.8564183412407
 30
0.0
 11
-5.0
 21
0.0
 31
0.0
210
0.0
220
0.0
230
1.0
 40
0.5000020055531195
 41
6.152917670934929
 42
9.555045597013986
  0
ELLIPSE
  5
C99C
330
18
100
AcDbEntity
  8
DRAW2
100
AcDbEllipse
 10
1425.710895672589
 20
590.7314183412402
 30
0.0
 11
-5.0
 21
0.0
 31
0.0
210
0.0
220
0.0
230
1.0
 40
0.5000020055531195
 41
6.152917670934929
 42
9.555045597013986
  0
ELLIPSE
  5
C99D
330
18
100
AcDbEntity
  8
DRAW2
100
AcDbEllipse
 10
1425.710895672589
 20
589.8653864314813
 30
0.0
 11
-5.5
 21
0.0
 31
0.0
210
0.0
220
0.0
230
1.0
 40
0.5
 41
0.0
 42
6.283185307179586
  0
ELLIPSE
  5
C99E
330
18
100
AcDbEntity
  8
DRAW2
100
AcDbEllipse
 10
1425.710895672589
 20
580.8862826517469
 30
0.0
 11
-28.5
 21
0.0
 31
0.0
210
0.0
220
0.0
230
1.0
 40
0.4999997185682373
 41
2.323686865993122
 42
7.101091094776231
  0
ELLIPSE
  5
C99F
330
18
100
AcDbEntity
  8
DRAW2
100
AcDbEllipse
 10
1425.710895672589
 20
581.0974372390506
 30
0.0
 11
-28.25
 21
0.0
 31
0.0
210
0.0
220
0.0
230
1.0
 40
0.5044247787610539
 41
3.617583134509624
 42
5.807194826259755
  0
ELLIPSE
  5
C9A0
330
18
100
AcDbEntity
  8
DRAW2
100
AcDbEllipse
 10
1425.710895672589
 20
579.3653864314816
 30
0.0
 11
-26.25
 21
0.0
 31
0.0
210
0.0
220
0.0
230
1.0
 40
0.5047619047618961
 41
0.6047739678801929
 42
1.340186315508751
  0
SPLINE
  5
C9A1
330
18
100
AcDbEntity
  8
DRAW3
100
AcDbSpline
210
0.0
220
0.0
230
1.0
 70
     8
 71
     3
 72
    10
 73
     6
 74
     0
 42
0.0000000001
 43
0.0000000001
 40
3.060451119082275
 40
3.060451119082275
 40
3.060451119082275
 40
3.060451119082275
 40
4.43112521805202
 40
8.108365865294601
 40
10.73000606709278
 40
10.73000606709278
 40
10.73000606709278
 40
10.73000606709278
 10
1422.710915672592
 20
301.2328671059181
 30
0.0
 10
1423.133791438663
 20
301.3065701329566
 30
0.0
 10
1424.633109519505
 20
301.1909678719086
 30
0.0
 10
1426.440828396733
 20
297.8797653559947
 30
0.0
 10
1428.037735566901
 20
298.9367473702694
 30
0.0
 10
1428.71091567255
 20
299.6638183393301
 30
0.0
  0
ELLIPSE
  5
C9A2
330
18
100
AcDbEntity
  8
DRAW2
100
AcDbEllipse
 10
1425.710915673166
 20
257.2503712208196
 30
0.0
 11
-28.25
 21
0.0
 31
0.0
210
0.0
220
0.0
230
1.0
 40
0.8736893568710332
 41
4.818784288889658
 42
7.140010651320426
  0
ELLIPSE
  5
C9A3
330
18
100
AcDbEntity
  8
DRAW2
100
AcDbEllipse
 10
1425.710915673166
 20
258.2503708970695
 30
0.0
 11
-26.25
 21
0.0
 31
0.0
210
0.0
220
0.0
230
1.0
 40
0.8742732647728665
 41
4.82692495363897
 42
6.733849479153382
  0
ELLIPSE
  5
C9A4
330
18
100
AcDbEntity
  8
DRAW2
100
AcDbEllipse
 10
1425.710915672592
 20
275.9465233197764
 30
0.0
 11
-3.0
 21
0.0
 31
0.0
210
0.0
220
0.0
230
1.0
 40
0.8660254037844387
 41
0.0
 42
3.141592653589793
  0
ELLIPSE
  5
C9A5
330
18
100
AcDbEntity
  8
DRAW2
100
AcDbEllipse
 10
1425.710915673165
 20
265.9465233197755
 30
0.0
 11
-5.02118750000136
 21
0.0
 31
0.0
210
0.0
220
0.0
230
1.0
 40
0.8660254037842063
 41
1.794413078455494
 42
2.394377126335865
  0
ELLIPSE
  5
C9A6
330
18
100
AcDbEntity
  8
DRAW2
100
AcDbEllipse
 10
1425.710915673166
 20
263.4465233197761
 30
0.0
 11
-4.864937499999996
 21
0.0
 31
0.0
210
0.0
220
0.0
230
1.0
 40
0.86602540378443
 41
6.283185307179586
 42
9.424777960769379
  0
ELLIPSE
  5
C9A7
330
18
100
AcDbEntity
  8
DRAW2
100
AcDbEllipse
 10
1425.710915673165
 20
265.9465233197755
 30
0.0
 11
-5.02118750000136
 21
0.0
 31
0.0
210
0.0
220
0.0
230
1.0
 40
0.8660254037842063
 41
0.7472155272541943
 42
1.347179575134622
  0
ELLIPSE
  5
C9A8
330
18
100
AcDbEntity
  8
DRAW2
100
AcDbEllipse
 10
1425.710915673166
 20
268.946523319776
 30
0.0
 11
-5.021187499999768
 21
0.0
 31
0.0
210
0.0
220
0.0
230
1.0
 40
0.8660254037844355
 41
0.3922003184143743
 42
2.749392335175316
  0
ELLIPSE
  5
C9A9
330
18
100
AcDbEntity
  8
DRAW2
100
AcDbEllipse
 10
1425.710915673166
 20
274.9465233197761
 30
0.0
 11
-6.000000000000227
 21
0.0
 31
0.0
210
0.0
220
0.0
230
1.0
 40
0.8660254037844248
 41
6.283185307179586
 42
9.424777960769379
  0
ELLIPSE
  5
C9AA
330
18
100
AcDbEntity
  8
DRAW2
100
AcDbEllipse
 10
1425.710915673166
 20
275.9465233197762
 30
0.0
 11
-6.000000000000227
 21
0.0
 31
0.0
210
0.0
220
0.0
230
1.0
 40
0.8660254037844437
 41
5.235987756093282
 42
10.47197551207631
  0
ELLIPSE
  5
C9AB
330
18
100
AcDbEntity
  8
DRAW2
100
AcDbEllipse
 10
1425.710915673166
 20
258.2503708970695
 30
0.0
 11
-26.25
 21
0.0
 31
0.0
210
0.0
220
0.0
230
1.0
 40
0.8742732647728665
 41
2.690928481611642
 42
4.59785300717437
  0
ELLIPSE
  5
C9AC
330
18
100
AcDbEntity
  8
DRAW2
100
AcDbEllipse
 10
1443.897449152639
 20
248.9405978063869
 30
0.0
 11
5.5
 21
0.0
 31
0.0
210
0.0
220
0.0
230
-1.0
 40
0.86602540378443
 41
0.0
 42
6.283185307179586
  0
ELLIPSE
  5
C9AD
330
18
100
AcDbEntity
  8
DRAW2
100
AcDbEllipse
 10
1443.897449152639
 20
248.4405983622947
 30
0.0
 11
5.0
 21
0.0
 31
0.0
210
0.0
220
0.0
230
-1.0
 40
0.8660207764386996
 41
2.122503745982039
 42
7.302274214787177
  0
ELLIPSE
  5
C9AE
330
18
100
AcDbEntity
  8
DRAW2
100
AcDbEllipse
 10
1407.524382193692
 20
248.4405983622947
 30
0.0
 11
-5.0
 21
0.0
 31
0.0
210
0.0
220
0.0
230
1.0
 40
0.8660207764386996
 41
2.122503745982039
 42
7.302274214787177
  0
ELLIPSE
  5
C9AF
330
18
100
AcDbEntity
  8
DRAW2
100
AcDbEllipse
 10
1407.524382193692
 20
248.9405978063869
 30
0.0
 11
-5.5
 21
0.0
 31
0.0
210
0.0
220
0.0
230
1.0
 40
0.86602540378443
 41
0.0
 42
6.283185307179586
  0
ELLIPSE
  5
C9B0
330
18
100
AcDbEntity
  8
DRAW2
100
AcDbEllipse
 10
1425.710915673166
 20
257.3722787529386
 30
0.0
 11
-28.5
 21
0.0
 31
0.0
210
0.0
220
0.0
230
1.0
 40
0.8660254591771627
 41
4.817847505804232
 42
10.89011576218518
  0
ELLIPSE
  5
C9B1
330
18
100
AcDbEntity
  8
DRAW2
100
AcDbEllipse
 10
1425.710915673166
 20
257.2503712208196
 30
0.0
 11
-28.25
 21
0.0
 31
0.0
210
0.0
220
0.0
230
1.0
 40
0.8736893568710332
 41
2.284767309449469
 42
4.605993671920532
  0
ELLIPSE
  5
C9B2
330
18
100
AcDbEntity
  8
DRAW2
100
AcDbEllipse
 10
1425.710915673166
 20
258.2503708970695
 30
0.0
 11
-26.25
 21
0.0
 31
0.0
210
0.0
220
0.0
230
1.0
 40
0.8742732647728665
 41
0.6047739678801674
 42
2.536818685709618
  0
ELLIPSE
  5
C9B3
330
18
100
AcDbEntity
  8
DRAW2
100
AcDbEllipse
 10
1440.710917732824
 20
133.5437519305286
 30
0.0
 11
-4.864002410451128
 21
0.0000051446181327
 31
0.0
210
0.0
220
0.0
230
1.0
 40
0.7863728371571654
 41
3.141593998615605
 42
6.283186652206899
  0
ELLIPSE
  5
C9B4
330
18
100
AcDbEntity
  8
DRAW2
100
AcDbEllipse
 10
1440.710915672592
 20
131.5958958955228
 30
0.0
 11
-4.958687499996767
 21
0.0000052447652379
 31
0.0
210
0.0
220
0.0
230
1.0
 40
0.7713572140709201
 41
0.0
 42
6.283185307179586
  0
ELLIPSE
  5
C9B5
330
18
100
AcDbEntity
  8
DRAW2
100
AcDbEllipse
 10
1410.710925347502
 20
133.5437519305286
 30
0.0
 11
-4.864002410451128
 21
0.0000051446181327
 31
0.0
210
0.0
220
0.0
230
1.0
 40
0.7863728371571654
 41
3.141593998615605
 42
6.283186652206899
  0
ELLIPSE
  5
C9B6
330
18
100
AcDbEntity
  8
DRAW2
100
AcDbEllipse
 10
1410.71092328727
 20
131.5958958955228
 30
0.0
 11
-4.958687499996767
 21
0.0000052447652379
 31
0.0
210
0.0
220
0.0
230
1.0
 40
0.7713572140709201
 41
0.0
 42
6.283185307179586
  0
LINE
  5
C9B8
330
18
100
AcDbEntity
  8
DRAW2
100
AcDbLine
 10
1278.710895672588
 20
782.896142032408
 30
0.0
 11
1263.710895672588
 21
782.896142032408
 31
0.0
  0
LINE
  5
C9B9
330
18
100
AcDbEntity
  8
DRAW2
100
AcDbLine
 10
1263.710895672588
 20
562.896142032408
 30
0.0
 11
1278.710895672588
 21
562.896142032408
 31
0.0
  0
LINE
  5
C9BA
330
18
100
AcDbEntity
  8
DRAW2
100
AcDbLine
 10
1277.710915672589
 20
722.8561260195955
 30
0.0
 11
1263.710895672588
 21
722.8561260195955
 31
0.0
  0
LINE
  5
C9BB
330
18
100
AcDbEntity
  8
DRAW2
100
AcDbLine
 10
1263.710895672588
 20
622.9361580452206
 30
0.0
 11
1277.710915672589
 21
622.9361580452206
 31
0.0
  0
LINE
  5
C9C0
330
18
100
AcDbEntity
  8
DRAW2
100
AcDbLine
 10
1278.210915672592
 20
302.2503889960484
 30
0.0
 11
1263.210915672592
 21
302.2503889960484
 31
0.0
  0
LINE
  5
C9C3
330
18
100
AcDbEntity
  8
DRAW2
100
AcDbLine
 10
1263.210915672592
 20
106.2503889960483
 30
0.0
 11
1278.210915672592
 21
106.2503889960483
 31
0.0
  0
LINE
  5
C9C6
330
18
100
AcDbEntity
  8
DRAW2
100
AcDbLine
 10
1263.210915672592
 20
217.250358996048
 30
0.0
 11
1263.210915672592
 21
191.250358996048
 31
0.0
  0
LINE
  5
C9C7
330
18
100
AcDbEntity
  8
DRAW2
100
AcDbLine
 10
1236.210915672592
 20
215.250358996048
 30
0.0
 11
1236.210915672592
 21
193.2502989960481
 31
0.0
  0
LINE
  5
C9C8
330
18
100
AcDbEntity
  8
DRAW2
100
AcDbLine
 10
1238.210915672592
 20
217.250358996048
 30
0.0
 11
1238.210915672592
 21
191.250358996048
 31
0.0
  0
LINE
  5
C9C9
330
18
100
AcDbEntity
  8
DRAW2
100
AcDbLine
 10
1263.210915672592
 20
302.2503889960484
 30
0.0
 11
1263.210915672592
 21
106.2503889960483
 31
0.0
  0
LINE
  5
C9CA
330
18
100
AcDbEntity
  8
DRAW2
100
AcDbLine
 10
1263.210915672592
 20
137.5760518478797
 30
0.0
 11
1263.210915672592
 21
111.5760518478797
 31
0.0
  0
LINE
  5
C9CB
330
18
100
AcDbEntity
  8
DRAW2
100
AcDbLine
 10
1236.210915672592
 20
135.5760518478797
 30
0.0
 11
1236.210915672592
 21
113.5759918478796
 31
0.0
  0
LINE
  5
C9CC
330
18
100
AcDbEntity
  8
DRAW2
100
AcDbLine
 10
1238.210915672592
 20
137.5760518478797
 30
0.0
 11
1238.210915672592
 21
111.5760518478797
 31
0.0
  0
LINE
  5
C9CD
330
18
100
AcDbEntity
  8
DRAW2
100
AcDbLine
 10
1263.210915672592
 20
111.5760518478797
 30
0.0
 11
1238.210915672592
 21
111.5760518478797
 31
0.0
  0
LINE
  5
C9CE
330
18
100
AcDbEntity
  8
DRAW2
100
AcDbLine
 10
1236.210915672592
 20
113.5759918478796
 30
0.0
 11
1238.210915672592
 21
111.5760518478797
 31
0.0
  0
LINE
  5
C9CF
330
18
100
AcDbEntity
  8
DRAW2
100
AcDbLine
 10
1263.210915672592
 20
137.5760518478797
 30
0.0
 11
1238.210915672592
 21
137.5760518478797
 31
0.0
  0
LINE
  5
C9D0
330
18
100
AcDbEntity
  8
DRAW2
100
AcDbLine
 10
1236.210915672592
 20
135.5760518478797
 30
0.0
 11
1238.210915672592
 21
137.5760518478797
 31
0.0
  0
LINE
  5
C9D1
330
18
100
AcDbEntity
  8
DRAW2
100
AcDbLine
 10
1263.210915672592
 20
191.250358996048
 30
0.0
 11
1238.210915672592
 21
191.250358996048
 31
0.0
  0
LINE
  5
C9D2
330
18
100
AcDbEntity
  8
DRAW2
100
AcDbLine
 10
1236.210915672592
 20
193.2502989960481
 30
0.0
 11
1238.210915672592
 21
191.250358996048
 31
0.0
  0
LINE
  5
C9D3
330
18
100
AcDbEntity
  8
DRAW2
100
AcDbLine
 10
1263.210915672592
 20
217.250358996048
 30
0.0
 11
1238.210915672592
 21
217.250358996048
 31
0.0
  0
LINE
  5
C9D4
330
18
100
AcDbEntity
  8
DRAW2
100
AcDbLine
 10
1236.210915672592
 20
215.250358996048
 30
0.0
 11
1238.210915672592
 21
217.250358996048
 31
0.0
  0
LINE
  5
C9D5
330
18
100
AcDbEntity
  8
DRAW2
100
AcDbLine
 10
1263.210915672592
 20
296.9246961442162
 30
0.0
 11
1263.210915672592
 21
270.9246961442163
 31
0.0
  0
LINE
  5
C9D6
330
18
100
AcDbEntity
  8
DRAW2
100
AcDbLine
 10
1238.210915672592
 20
296.9246961442162
 30
0.0
 11
1238.210915672592
 21
270.9246961442163
 31
0.0
  0
LINE
  5
C9D7
330
18
100
AcDbEntity
  8
DRAW2
100
AcDbLine
 10
1236.210915672592
 20
294.9246961442162
 30
0.0
 11
1236.210915672592
 21
272.9246361442163
 31
0.0
  0
LINE
  5
C9D8
330
18
100
AcDbEntity
  8
DRAW2
100
AcDbLine
 10
1263.210915672592
 20
270.9246961442163
 30
0.0
 11
1238.210915672592
 21
270.9246961442163
 31
0.0
  0
LINE
  5
C9D9
330
18
100
AcDbEntity
  8
DRAW2
100
AcDbLine
 10
1236.210915672592
 20
272.9246361442163
 30
0.0
 11
1238.210915672592
 21
270.9246961442163
 31
0.0
  0
LINE
  5
C9DA
330
18
100
AcDbEntity
  8
DRAW2
100
AcDbLine
 10
1263.210915672592
 20
296.9246961442162
 30
0.0
 11
1238.210915672592
 21
296.9246961442162
 31
0.0
  0
LINE
  5
C9DB
330
18
100
AcDbEntity
  8
DRAW2
100
AcDbLine
 10
1236.210915672592
 20
294.9246961442162
 30
0.0
 11
1238.210915672592
 21
296.9246961442162
 31
0.0
  0
LINE
  5
C9DC
330
18
100
AcDbEntity
  8
DRAW2
100
AcDbLine
 10
1263.710895672588
 20
782.896142032408
 30
0.0
 11
1263.710895672588
 21
562.896142032408
 31
0.0
  0
LINE
  5
C9DD
330
18
100
AcDbEntity
  8
DRAW2
100
AcDbLine
 10
1236.710955672588
 20
637.8962620324077
 30
0.0
 11
1236.710955672588
 21
615.8960820324077
 31
0.0
  0
LINE
  5
C9DE
330
18
100
AcDbEntity
  8
DRAW2
100
AcDbLine
 10
1238.710895672589
 20
639.8961420324077
 30
0.0
 11
1238.710895672589
 21
613.8960820324077
 31
0.0
  0
LINE
  5
C9DF
330
18
100
AcDbEntity
  8
DRAW2
100
AcDbLine
 10
1238.710895672589
 20
593.8961420324083
 30
0.0
 11
1238.710895672589
 21
567.8960820324083
 31
0.0
  0
LINE
  5
C9E0
330
18
100
AcDbEntity
  8
DRAW2
100
AcDbLine
 10
1236.710955672588
 20
591.8962620324083
 30
0.0
 11
1236.710955672588
 21
569.8960820324083
 31
0.0
  0
LINE
  5
C9E1
330
18
100
AcDbEntity
  8
DRAW2
100
AcDbLine
 10
1238.710895672589
 20
567.8960820324083
 30
0.0
 11
1263.710895672589
 21
567.8960820324083
 31
0.0
  0
LINE
  5
C9E2
330
18
100
AcDbEntity
  8
DRAW2
100
AcDbLine
 10
1236.710835672589
 20
569.8959620324083
 30
0.0
 11
1238.710775672588
 21
567.8960220324084
 31
0.0
  0
LINE
  5
C9E3
330
18
100
AcDbEntity
  8
DRAW2
100
AcDbLine
 10
1238.710895672589
 20
593.8961420324083
 30
0.0
 11
1263.710895672589
 21
593.8961420324083
 31
0.0
  0
LINE
  5
C9E4
330
18
100
AcDbEntity
  8
DRAW2
100
AcDbLine
 10
1238.710955672588
 20
593.8959620324084
 30
0.0
 11
1236.710955672588
 21
591.8960220324083
 31
0.0
  0
LINE
  5
C9E5
330
18
100
AcDbEntity
  8
DRAW2
100
AcDbLine
 10
1238.710895672589
 20
613.8960820324077
 30
0.0
 11
1263.710895672589
 21
613.8960820324077
 31
0.0
  0
LINE
  5
C9E6
330
18
100
AcDbEntity
  8
DRAW2
100
AcDbLine
 10
1236.710835672589
 20
615.8959620324078
 30
0.0
 11
1238.710775672588
 21
613.8960220324078
 31
0.0
  0
LINE
  5
C9E7
330
18
100
AcDbEntity
  8
DRAW2
100
AcDbLine
 10
1238.710895672589
 20
639.8961420324077
 30
0.0
 11
1263.710895672589
 21
639.8961420324077
 31
0.0
  0
LINE
  5
C9E8
330
18
100
AcDbEntity
  8
DRAW2
100
AcDbLine
 10
1238.710955672588
 20
639.8959620324078
 30
0.0
 11
1236.710955672588
 21
637.8960220324078
 31
0.0
  0
LINE
  5
C9E9
330
18
100
AcDbEntity
  8
DRAW2
100
AcDbLine
 10
1236.710955672588
 20
729.8962620324083
 30
0.0
 11
1236.710955672588
 21
707.8960820324083
 31
0.0
  0
LINE
  5
C9EA
330
18
100
AcDbEntity
  8
DRAW2
100
AcDbLine
 10
1238.710895672589
 20
731.8961420324082
 30
0.0
 11
1238.710895672589
 21
705.8960820324083
 31
0.0
  0
LINE
  5
C9EB
330
18
100
AcDbEntity
  8
DRAW2
100
AcDbLine
 10
1238.710895672589
 20
705.8960820324083
 30
0.0
 11
1263.710895672589
 21
705.8960820324083
 31
0.0
  0
LINE
  5
C9EC
330
18
100
AcDbEntity
  8
DRAW2
100
AcDbLine
 10
1236.710835672589
 20
707.8959620324084
 30
0.0
 11
1238.710775672588
 21
705.8960220324084
 31
0.0
  0
LINE
  5
C9ED
330
18
100
AcDbEntity
  8
DRAW2
100
AcDbLine
 10
1238.710895672589
 20
731.8961420324082
 30
0.0
 11
1263.710895672589
 21
731.8961420324082
 31
0.0
  0
LINE
  5
C9EE
330
18
100
AcDbEntity
  8
DRAW2
100
AcDbLine
 10
1238.710955672588
 20
731.8959620324084
 30
0.0
 11
1236.710955672588
 21
729.8960220324083
 31
0.0
  0
LINE
  5
C9EF
330
18
100
AcDbEntity
  8
DRAW2
100
AcDbLine
 10
1236.710955672588
 20
775.8962620324081
 30
0.0
 11
1236.710955672588
 21
753.896082032408
 31
0.0
  0
LINE
  5
C9F0
330
18
100
AcDbEntity
  8
DRAW2
100
AcDbLine
 10
1238.710895672589
 20
777.8961420324081
 30
0.0
 11
1238.710895672589
 21
751.8960820324081
 31
0.0
  0
LINE
  5
C9F1
330
18
100
AcDbEntity
  8
DRAW2
100
AcDbLine
 10
1238.710895672589
 20
751.8960820324081
 30
0.0
 11
1263.710895672589
 21
751.8960820324081
 31
0.0
  0
LINE
  5
C9F2
330
18
100
AcDbEntity
  8
DRAW2
100
AcDbLine
 10
1236.710835672589
 20
753.8959620324082
 30
0.0
 11
1238.710775672588
 21
751.8960220324081
 31
0.0
  0
LINE
  5
C9F3
330
18
100
AcDbEntity
  8
DRAW2
100
AcDbLine
 10
1238.710895672589
 20
777.8961420324081
 30
0.0
 11
1263.710895672589
 21
777.8961420324081
 31
0.0
  0
LINE
  5
C9F4
330
18
100
AcDbEntity
  8
DRAW2
100
AcDbLine
 10
1238.710955672588
 20
777.8959620324082
 30
0.0
 11
1236.710955672588
 21
775.8960220324081
 31
0.0
  0
LINE
  5
C9F5
330
18
100
AcDbEntity
  8
DRAW2
100
AcDbLine
 10
1428.710895672589
 20
560.7147513368714
 30
0.0
 11
1428.710895672589
 21
526.6040750272837
 31
0.0
  0
LINE
  5
C9F7
330
18
100
AcDbEntity
  8
DRAW2
100
AcDbLine
 10
1528.210915672592
 20
404.2503889960482
 30
0.0
 11
1545.210915672591
 21
404.2503889960482
 31
0.0
  0
LINE
  5
C9F8
330
18
100
AcDbEntity
  8
DRAW2
100
AcDbLine
 10
1526.210915672591
 20
402.2503889960481
 30
0.0
 11
1547.210915672591
 21
402.2503889960481
 31
0.0
  0
LINE
  5
C9F9
330
18
100
AcDbEntity
  8
DRAW2
100
AcDbLine
 10
1486.710915672591
 20
382.2503889960478
 30
0.0
 11
1573.710915672592
 21
382.2503889960478
 31
0.0
  0
LINE
  5
C9FA
330
18
100
AcDbEntity
  8
DRAW2
100
AcDbLine
 10
1573.710915672588
 20
367.2503889960482
 30
0.0
 11
1486.710915672588
 21
367.2503889960479
 31
0.0
  0
LINE
  5
C9FB
330
18
100
AcDbEntity
  8
DRAW2
100
AcDbLine
 10
1573.210915672591
 20
303.2503889960477
 30
0.0
 11
1486.210915672592
 21
303.2503889960481
 31
0.0
  0
LINE
  5
C9FC
330
18
100
AcDbEntity
  8
DRAW2
100
AcDbLine
 10
1486.710915672588
 20
303.2503889960473
 30
0.0
 11
1573.710915672588
 21
303.2503889960473
 31
0.0
  0
LINE
  5
C9FD
330
18
100
AcDbEntity
  8
DRAW2
100
AcDbLine
 10
1573.210915672591
 20
105.2503889960478
 30
0.0
 11
1486.210915672591
 21
105.2503889960481
 31
0.0
  0
LINE
  5
C9FE
330
18
100
AcDbEntity
  8
DRAW2
100
AcDbLine
 10
1486.710915672593
 20
105.2503889960471
 30
0.0
 11
1573.710915672593
 21
105.2503889960471
 31
0.0
  0
LINE
  5
C9FF
330
18
100
AcDbEntity
  8
DRAW2
100
AcDbLine
 10
1486.710915672588
 20
303.2503889960473
 30
0.0
 11
1486.710915672588
 21
367.2503889960472
 31
0.0
  0
LINE
  5
CA00
330
18
100
AcDbEntity
  8
DRAW2
100
AcDbLine
 10
1364.710915672588
 20
303.2503889960473
 30
0.0
 11
1364.710915672588
 21
367.2503889960471
 31
0.0
  0
LINE
  5
CA01
330
18
100
AcDbEntity
  8
DRAW2
100
AcDbLine
 10
1277.710915672589
 20
303.2503889960473
 30
0.0
 11
1277.710915672588
 21
367.2503889960471
 31
0.0
  0
LINE
  5
CA03
330
18
100
AcDbEntity
  8
DRAW2
100
AcDbLine
 10
1484.710915672592
 20
302.2503889960481
 30
0.0
 11
1366.710915672592
 21
302.2503889960481
 31
0.0
  0
LINE
  5
CA04
330
18
100
AcDbEntity
  8
DRAW2
100
AcDbLine
 10
1365.710915672593
 20
95.75038899604738
 30
0.0
 11
1485.710915672593
 21
95.75038899604715
 31
0.0
  0
LINE
  5
CA05
330
18
100
AcDbEntity
  8
DRAW2
100
AcDbLine
 10
1484.710915672592
 20
106.250388996048
 30
0.0
 11
1366.710915672592
 21
106.2503889960481
 31
0.0
  0
CIRCLE
  5
CA06
330
18
100
AcDbEntity
  8
DRAW2
100
AcDbCircle
 10
1395.710805672592
 20
179.2503261687687
 30
0.0
 40
9.3
  0
CIRCLE
  5
CA07
330
18
100
AcDbEntity
  8
DRAW2
100
AcDbCircle
 10
1395.710805672592
 20
179.2503261687687
 30
0.0
 40
6.0
  0
CIRCLE
  5
CA09
330
18
100
AcDbEntity
  8
DRAW3
100
AcDbCircle
 10
1395.710805672592
 20
179.2503261687687
 30
0.0
 40
10.475
  0
CIRCLE
  5
CA0A
330
18
100
AcDbEntity
  8
DRAW2
100
AcDbCircle
 10
1395.710805672592
 20
179.2503261687687
 30
0.0
 40
11.5
  0
CIRCLE
  5
CA0B
330
18
100
AcDbEntity
  8
DRAW2
100
AcDbCircle
 10
1395.710805672592
 20
179.2503261687687
 30
0.0
 40
14.75
  0
LINE
  5
CA0C
330
18
100
AcDbEntity
  8
DRAW2
100
AcDbLine
 10
1365.210915672592
 20
303.250388996048
 30
0.0
 11
1365.210935672592
 21
105.2503889960479
 31
0.0
  0
LINE
  5
CA0D
330
18
100
AcDbEntity
  8
DRAW2
100
AcDbLine
 10
1278.210915672592
 20
303.2503889960483
 30
0.0
 11
1278.210915672592
 21
105.2503889960483
 31
0.0
  0
LINE
  5
CA0F
330
18
100
AcDbEntity
  8
DRAW2
100
AcDbLine
 10
1366.710915672592
 20
302.2503889960481
 30
0.0
 11
1366.710915672592
 21
106.2503889960481
 31
0.0
  0
LINE
  5
CA10
330
18
100
AcDbEntity
  8
DRAW2
100
AcDbLine
 10
1365.210935672592
 20
105.2503889960479
 30
0.0
 11
1278.210935672591
 21
105.2503889960479
 31
0.0
  0
LINE
  5
CA11
330
18
100
AcDbEntity
  8
DRAW2
100
AcDbLine
 10
1278.210915672592
 20
105.2503889960483
 30
0.0
 11
1365.210915672591
 21
105.250388996048
 31
0.0
  0
LINE
  5
CA12
330
18
100
AcDbEntity
  8
DRAW2
100
AcDbLine
 10
1364.710915672593
 20
105.2503889960471
 30
0.0
 11
1277.710915672593
 21
105.2503889960471
 31
0.0
  0
ARC
  5
CA13
330
18
100
AcDbEntity
  8
DRAW2
100
AcDbCircle
 10
1365.710915672593
 20
96.75038899604738
 30
0.0
 40
1.0
100
AcDbArc
 50
180.0
 51
270.0
  0
LINE
  5
CA15
330
18
100
AcDbEntity
  8
DRAW2
100
AcDbLine
 10
1384.386054019686
 20
177.2503261687686
 30
0.0
 11
1381.097027926917
 21
177.2503261687686
 31
0.0
  0
LINE
  5
CA16
330
18
100
AcDbEntity
  8
DRAW2
100
AcDbLine
 10
1384.386054019686
 20
181.2503261687688
 30
0.0
 11
1381.097027926917
 21
181.2503261687688
 31
0.0
  0
LINE
  5
CA17
330
18
100
AcDbEntity
  8
DRAW2
100
AcDbLine
 10
1278.210915672592
 20
303.2503889960483
 30
0.0
 11
1365.210915672592
 21
303.250388996048
 31
0.0
  0
LINE
  5
CA18
330
18
100
AcDbEntity
  8
DRAW2
100
AcDbLine
 10
1364.710915672588
 20
303.2503889960473
 30
0.0
 11
1277.710915672589
 21
303.2503889960473
 31
0.0
  0
LINE
  5
CA19
330
18
100
AcDbEntity
  8
DRAW2
100
AcDbLine
 10
1397.460915673165
 20
254.1102814566197
 30
0.0
 11
1397.460915673165
 21
257.2503712208196
 31
0.0
  0
LINE
  5
CA1A
330
18
100
AcDbEntity
  8
DRAW2
100
AcDbLine
 10
1366.710915672592
 20
289.7503889960481
 30
0.0
 11
1365.210915672592
 21
289.7503889960481
 31
0.0
  0
LINE
  5
CA1B
330
18
100
AcDbEntity
  8
DRAW2
100
AcDbLine
 10
1486.210915672591
 20
105.2503889960481
 30
0.0
 11
1486.210915672592
 21
303.2503889960481
 31
0.0
  0
LINE
  5
CA1C
330
18
100
AcDbEntity
  8
DRAW2
100
AcDbLine
 10
1484.710915672592
 20
302.2503889960481
 30
0.0
 11
1484.710915672592
 21
106.250388996048
 31
0.0
  0
CIRCLE
  5
CA1E
330
18
100
AcDbEntity
  8
DRAW2
100
AcDbCircle
 10
1455.710805672592
 20
179.2503261687687
 30
0.0
 40
11.5
  0
CIRCLE
  5
CA1F
330
18
100
AcDbEntity
  8
DRAW3
100
AcDbCircle
 10
1455.710805672592
 20
179.2503261687687
 30
0.0
 40
10.475
  0
CIRCLE
  5
CA20
330
18
100
AcDbEntity
  8
DRAW2
100
AcDbCircle
 10
1455.710805672592
 20
179.2503261687687
 30
0.0
 40
14.75
  0
LINE
  5
CA23
330
18
100
AcDbEntity
  8
DRAW2
100
AcDbLine
 10
1415.584147414993
 20
130.8887891143363
 30
0.0
 11
1405.837715407089
 21
130.8887891143363
 31
0.0
  0
LINE
  5
CA24
330
18
100
AcDbEntity
  8
DRAW2
100
AcDbLine
 10
1415.584146396807
 20
132.3030026767094
 30
0.0
 11
1405.837714388903
 21
132.3030026767094
 31
0.0
  0
LINE
  5
CA26
330
18
100
AcDbEntity
  8
DRAW2
100
AcDbLine
 10
1415.66961078727
 20
131.5958958955227
 30
0.0
 11
1415.574927757954
 21
133.5437519305286
 31
0.0
  0
LINE
  5
CA27
330
18
100
AcDbEntity
  8
DRAW2
100
AcDbLine
 10
1405.75223578727
 20
131.595895895523
 30
0.0
 11
1405.84692293705
 21
133.5437519305286
 31
0.0
  0
LINE
  5
CA28
330
18
100
AcDbEntity
  8
DRAW2
100
AcDbLine
 10
1445.584132185636
 20
130.8887891143363
 30
0.0
 11
1435.837700177733
 21
130.8887891143363
 31
0.0
  0
LINE
  5
CA29
330
18
100
AcDbEntity
  8
DRAW2
100
AcDbLine
 10
1445.584131167451
 20
132.3030026767094
 30
0.0
 11
1435.837699159547
 21
132.3030026767094
 31
0.0
  0
LINE
  5
CA2B
330
18
100
AcDbEntity
  8
DRAW2
100
AcDbLine
 10
1435.752228172592
 20
131.595895895523
 30
0.0
 11
1435.846915322372
 21
133.5437519305286
 31
0.0
  0
LINE
  5
CA2C
330
18
100
AcDbEntity
  8
DRAW2
100
AcDbLine
 10
1445.669603172592
 20
131.5958958955227
 30
0.0
 11
1445.574920143276
 21
133.5437519305286
 31
0.0
  0
LINE
  5
CA2E
330
18
100
AcDbEntity
  8
DRAW2
100
AcDbLine
 10
1410.324583418268
 20
177.2503261687686
 30
0.0
 11
1407.035557325498
 21
177.2503261687686
 31
0.0
  0
LINE
  5
CA2F
330
18
100
AcDbEntity
  8
DRAW2
100
AcDbLine
 10
1410.324583418268
 20
181.2503261687688
 30
0.0
 11
1407.035557325498
 21
181.2503261687688
 31
0.0
  0
CIRCLE
  5
CA30
330
18
100
AcDbEntity
  8
DRAW2
100
AcDbCircle
 10
1455.710805672592
 20
179.2503261687687
 30
0.0
 40
9.3
  0
CIRCLE
  5
CA31
330
18
100
AcDbEntity
  8
DRAW2
100
AcDbCircle
 10
1455.710805672592
 20
179.2503261687687
 30
0.0
 40
6.0
  0
LINE
  5
CA33
330
18
100
AcDbEntity
  8
DRAW2
100
AcDbLine
 10
1441.097027926917
 20
177.2503261687686
 30
0.0
 11
1444.386054019686
 21
177.2503261687686
 31
0.0
  0
LINE
  5
CA34
330
18
100
AcDbEntity
  8
DRAW2
100
AcDbLine
 10
1441.097027926917
 20
181.2503261687688
 30
0.0
 11
1444.386054019686
 21
181.2503261687688
 31
0.0
  0
ARC
  5
CA35
330
18
100
AcDbEntity
  8
DRAW2
100
AcDbCircle
 10
1485.710915672593
 20
96.75038899604714
 30
0.0
 40
1.0
100
AcDbArc
 50
270.0
 51
0.0
  0
LINE
  5
CA36
330
18
100
AcDbEntity
  8
DRAW2
100
AcDbLine
 10
1467.035557325498
 20
177.2503261687686
 30
0.0
 11
1470.324583418268
 21
177.2503261687686
 31
0.0
  0
LINE
  5
CA37
330
18
100
AcDbEntity
  8
DRAW2
100
AcDbLine
 10
1467.035557325498
 20
181.2503261687688
 30
0.0
 11
1470.324583418268
 21
181.2503261687688
 31
0.0
  0
LINE
  5
CA38
330
18
100
AcDbEntity
  8
DRAW2
100
AcDbLine
 10
1453.960915673165
 20
254.1102814566197
 30
0.0
 11
1453.960915673165
 21
257.2503712208196
 31
0.0
  0
LINE
  5
CA39
330
18
100
AcDbEntity
  8
DRAW2
100
AcDbLine
 10
1405.024382193692
 20
249.6906096794087
 30
0.0
 11
1407.524382193692
 21
250.9406116342789
 31
0.0
  0
LINE
  5
CA3A
330
18
100
AcDbEntity
  8
DRAW2
100
AcDbLine
 10
1407.524382193692
 20
250.9406116342789
 30
0.0
 11
1410.024382193692
 21
249.6906096794087
 31
0.0
  0
LINE
  5
CA3B
330
18
100
AcDbEntity
  8
DRAW2
100
AcDbLine
 10
1405.024382193692
 20
247.190605769668
 30
0.0
 11
1407.524382193692
 21
245.9406038147977
 31
0.0
  0
LINE
  5
CA3C
330
18
100
AcDbEntity
  8
DRAW2
100
AcDbLine
 10
1407.524382193692
 20
245.9406038147977
 30
0.0
 11
1410.024382193692
 21
247.190605769668
 31
0.0
  0
LINE
  5
CA3D
330
18
100
AcDbEntity
  8
DRAW2
100
AcDbLine
 10
1405.024382193692
 20
249.6906096794087
 30
0.0
 11
1405.024382193692
 21
247.190605769668
 31
0.0
  0
LINE
  5
CA3E
330
18
100
AcDbEntity
  8
DRAW2
100
AcDbLine
 10
1410.024382193692
 20
247.190605769668
 30
0.0
 11
1410.024382193692
 21
249.6906096794087
 31
0.0
  0
LINE
  5
CA3F
330
18
100
AcDbEntity
  8
DRAW2
100
AcDbLine
 10
1441.397449152639
 20
247.190605769668
 30
0.0
 11
1441.397449152639
 21
249.6906096794087
 31
0.0
  0
LINE
  5
CA40
330
18
100
AcDbEntity
  8
DRAW2
100
AcDbLine
 10
1446.397449152639
 20
249.6906096794087
 30
0.0
 11
1446.397449152639
 21
247.190605769668
 31
0.0
  0
LINE
  5
CA41
330
18
100
AcDbEntity
  8
DRAW2
100
AcDbLine
 10
1443.897449152639
 20
245.9406038147977
 30
0.0
 11
1441.397449152639
 21
247.190605769668
 31
0.0
  0
LINE
  5
CA42
330
18
100
AcDbEntity
  8
DRAW2
100
AcDbLine
 10
1446.397449152639
 20
247.190605769668
 30
0.0
 11
1443.897449152639
 21
245.9406038147977
 31
0.0
  0
LINE
  5
CA43
330
18
100
AcDbEntity
  8
DRAW2
100
AcDbLine
 10
1443.897449152639
 20
250.9406116342789
 30
0.0
 11
1441.397449152639
 21
249.6906096794087
 31
0.0
  0
LINE
  5
CA44
330
18
100
AcDbEntity
  8
DRAW2
100
AcDbLine
 10
1446.397449152639
 20
249.6906096794087
 30
0.0
 11
1443.897449152639
 21
250.9406116342789
 31
0.0
  0
LINE
  5
CA45
330
18
100
AcDbEntity
  8
DRAW2
100
AcDbLine
 10
1428.710915672592
 20
275.9465233197764
 30
0.0
 11
1428.710915672592
 21
299.6638183393753
 31
0.0
  0
LINE
  5
CA46
330
18
100
AcDbEntity
  8
DRAW2
100
AcDbLine
 10
1422.710915672592
 20
275.9465233197764
 30
0.0
 11
1422.710915672592
 21
301.2328671059181
 31
0.0
  0
LINE
  5
CA47
330
18
100
AcDbEntity
  8
DRAW2
100
AcDbLine
 10
1430.584596298281
 20
263.586413321625
 30
0.0
 11
1430.575853173165
 21
263.4465233197761
 31
0.0
  0
LINE
  5
CA48
330
18
100
AcDbEntity
  8
DRAW2
100
AcDbLine
 10
1420.83723504805
 20
263.586413321623
 30
0.0
 11
1420.845978173166
 21
263.4465233197761
 31
0.0
  0
LINE
  5
CA49
330
18
100
AcDbEntity
  8
DRAW2
100
AcDbLine
 10
1430.732103173164
 20
266.2116923804985
 30
0.0
 11
1430.732103173164
 21
263.6601667590671
 31
0.0
  0
LINE
  5
CA4A
330
18
100
AcDbEntity
  8
DRAW2
100
AcDbLine
 10
1420.689728173163
 20
266.2116923804985
 30
0.0
 11
1420.689728173163
 21
263.6601667590671
 31
0.0
  0
LINE
  5
CA4B
330
18
100
AcDbEntity
  8
DRAW2
100
AcDbLine
 10
1420.689728173163
 20
263.6601667590671
 30
0.0
 11
1425.710915673166
 21
261.149573009054
 31
0.0
  0
LINE
  5
CA4C
330
18
100
AcDbEntity
  8
DRAW2
100
AcDbLine
 10
1425.710915673166
 20
261.149573009054
 30
0.0
 11
1430.732103173164
 21
263.6601667590671
 31
0.0
  0
LINE
  5
CA4D
330
18
100
AcDbEntity
  8
DRAW2
100
AcDbLine
 10
1425.710915673166
 20
263.7010986304854
 30
0.0
 11
1430.732103173164
 21
266.2116923804985
 31
0.0
  0
LINE
  5
CA4E
330
18
100
AcDbEntity
  8
DRAW2
100
AcDbLine
 10
1420.689728173163
 20
266.2116923804985
 30
0.0
 11
1425.710915673166
 21
263.7010986304854
 31
0.0
  0
LINE
  5
CA4F
330
18
100
AcDbEntity
  8
DRAW2
100
AcDbLine
 10
1430.732103173164
 20
267.4750662622088
 30
0.0
 11
1430.732103173164
 21
266.2116923804985
 31
0.0
  0
LINE
  5
CA50
330
18
100
AcDbEntity
  8
DRAW2
100
AcDbLine
 10
1420.689728173163
 20
267.4750662622111
 30
0.0
 11
1420.689728173163
 21
266.2116923804985
 31
0.0
  0
LINE
  5
CA51
330
18
100
AcDbEntity
  8
DRAW2
100
AcDbLine
 10
1431.710915673166
 20
271.6785741273447
 30
0.0
 11
1431.710915673166
 21
267.9644725122102
 31
0.0
  0
LINE
  5
CA52
330
18
100
AcDbEntity
  8
DRAW2
100
AcDbLine
 10
1419.710915673166
 20
271.6785741273447
 30
0.0
 11
1419.710915673166
 21
267.9644725122102
 31
0.0
  0
LINE
  5
CA53
330
18
100
AcDbEntity
  8
DRAW2
100
AcDbLine
 10
1425.710915673166
 20
264.9644725122077
 30
0.0
 11
1431.710915673166
 21
267.9644725122102
 31
0.0
  0
LINE
  5
CA54
330
18
100
AcDbEntity
  8
DRAW2
100
AcDbLine
 10
1419.710915673166
 20
267.9644725122102
 30
0.0
 11
1425.710915673166
 21
264.9644725122077
 31
0.0
  0
LINE
  5
CA55
330
18
100
AcDbEntity
  8
DRAW2
100
AcDbLine
 10
1425.710915673166
 20
268.6785741273423
 30
0.0
 11
1431.710915673166
 21
271.6785741273447
 31
0.0
  0
LINE
  5
CA56
330
18
100
AcDbEntity
  8
DRAW2
100
AcDbLine
 10
1419.710915673166
 20
271.6785741273447
 30
0.0
 11
1425.710915673166
 21
268.6785741273423
 31
0.0
  0
LINE
  5
CA57
330
18
100
AcDbEntity
  8
DRAW2
100
AcDbLine
 10
1431.271588376096
 20
277.8982377758796
 30
0.0
 11
1431.710915673166
 21
277.6785741273448
 31
0.0
  0
LINE
  5
CA58
330
18
100
AcDbEntity
  8
DRAW2
100
AcDbLine
 10
1419.710915673166
 20
277.6785741273448
 30
0.0
 11
1420.150242970234
 21
277.898237775879
 31
0.0
  0
LINE
  5
CA59
330
18
100
AcDbEntity
  8
DRAW2
100
AcDbLine
 10
1431.710915673166
 20
271.6785741273447
 30
0.0
 11
1431.710915673166
 21
277.6785741273448
 31
0.0
  0
LINE
  5
CA5A
330
18
100
AcDbEntity
  8
DRAW2
100
AcDbLine
 10
1419.710915673166
 20
277.6785741273448
 30
0.0
 11
1419.710915673166
 21
271.6785741273447
 31
0.0
  0
LINE
  5
CA5B
330
18
100
AcDbEntity
  8
DRAW2
100
AcDbLine
 10
1431.710915673166
 20
274.9465233197761
 30
0.0
 11
1431.710915673166
 21
275.9465233197762
 31
0.0
  0
LINE
  5
CA5C
330
18
100
AcDbEntity
  8
DRAW2
100
AcDbLine
 10
1419.710915673165
 20
274.9465233197761
 30
0.0
 11
1419.710915673165
 21
275.9465233197762
 31
0.0
  0
LINE
  5
CA5D
330
18
100
AcDbEntity
  8
DRAW2
100
AcDbLine
 10
1486.210915672592
 20
276.2682385530316
 30
0.0
 11
1486.210915672592
 21
289.7503889960481
 31
0.0
  0
LINE
  5
CA5E
330
18
100
AcDbEntity
  8
DRAW2
100
AcDbLine
 10
1484.710915672592
 20
289.7503889960481
 30
0.0
 11
1486.210915672592
 21
289.7503889960481
 31
0.0
  0
LINE
  5
CA5F
330
18
100
AcDbEntity
  8
DRAW2
100
AcDbLine
 10
1365.710915672588
 20
312.7503889960471
 30
0.0
 11
1485.710915672588
 21
312.7503889960473
 31
0.0
  0
LINE
  5
CA60
330
18
100
AcDbEntity
  8
DRAW2
100
AcDbLine
 10
1365.710915672589
 20
357.7503889960475
 30
0.0
 11
1485.710915672588
 21
357.7503889960473
 31
0.0
  0
LINE
  5
CA61
330
18
100
AcDbEntity
  8
DRAW2
100
AcDbLine
 10
1364.710915672589
 20
367.2503889960477
 30
0.0
 11
1277.710915672589
 21
367.2503889960474
 31
0.0
  0
LINE
  5
CA62
330
18
100
AcDbEntity
  8
DRAW2
100
AcDbLine
 10
1277.710915672592
 20
382.2503889960477
 30
0.0
 11
1364.710915672592
 21
382.2503889960477
 31
0.0
  0
LINE
  5
CA63
330
18
100
AcDbEntity
  8
DRAW2
100
AcDbLine
 10
1277.710915672592
 20
367.2503889960477
 30
0.0
 11
1277.710915672592
 21
382.2503889960477
 31
0.0
  0
LINE
  5
CA64
330
18
100
AcDbEntity
  8
DRAW2
100
AcDbLine
 10
1325.210915672592
 20
402.2503889960478
 30
0.0
 11
1325.210915672592
 21
382.2503889960477
 31
0.0
  0
LINE
  5
CA65
330
18
100
AcDbEntity
  8
DRAW2
100
AcDbLine
 10
1304.210915672592
 20
382.2503889960477
 30
0.0
 11
1304.210915672592
 21
402.2503889960478
 31
0.0
  0
LINE
  5
CA66
330
18
100
AcDbEntity
  8
DRAW2
100
AcDbLine
 10
1325.210915472595
 20
382.2503889960475
 30
0.0
 11
1304.210915472594
 21
382.2503889960475
 31
0.0
  0
LINE
  5
CA67
330
18
100
AcDbEntity
  8
DRAW2
100
AcDbLine
 10
1325.210915672592
 20
382.2503889960477
 30
0.0
 11
1304.210915672592
 21
382.2503889960477
 31
0.0
  0
LINE
  5
CA68
330
18
100
AcDbEntity
  8
DRAW2
100
AcDbLine
 10
1306.210915672592
 20
404.2503889960477
 30
0.0
 11
1323.210915672592
 21
404.2503889960477
 31
0.0
  0
LINE
  5
CA69
330
18
100
AcDbEntity
  8
DRAW2
100
AcDbLine
 10
1304.210915672592
 20
402.2503889960478
 30
0.0
 11
1325.210915672592
 21
402.2503889960478
 31
0.0
  0
LINE
  5
CA6A
330
18
100
AcDbEntity
  8
DRAW2
100
AcDbLine
 10
1304.210915672592
 20
402.2503889960478
 30
0.0
 11
1306.210915672592
 21
404.2503889960477
 31
0.0
  0
LINE
  5
CA6B
330
18
100
AcDbEntity
  8
DRAW2
100
AcDbLine
 10
1323.210915672592
 20
404.2503889960477
 30
0.0
 11
1325.210915672592
 21
402.2503889960478
 31
0.0
  0
ARC
  5
CA6C
330
18
100
AcDbEntity
  8
DRAW2
100
AcDbCircle
 10
1365.710915672588
 20
311.7503889960471
 30
0.0
 40
1.0
100
AcDbArc
 50
90.0
 51
180.0
  0
ARC
  5
CA6D
330
18
100
AcDbEntity
  8
DRAW2
100
AcDbCircle
 10
1365.710915672589
 20
358.7503889960474
 30
0.0
 40
1.0
100
AcDbArc
 50
180.0
 51
270.0
  0
LINE
  5
CA6E
330
18
100
AcDbEntity
  8
DRAW2
100
AcDbLine
 10
1364.710915672592
 20
382.2503889960477
 30
0.0
 11
1364.710915672592
 21
367.2503889960477
 31
0.0
  0
ARC
  5
CA6F
330
18
100
AcDbEntity
  8
DRAW2
100
AcDbCircle
 10
1485.710915672588
 20
311.7503889960473
 30
0.0
 40
1.0
100
AcDbArc
 50
0.0
 51
90.0
  0
ARC
  5
CA70
330
18
100
AcDbEntity
  8
DRAW2
100
AcDbCircle
 10
1485.710915672588
 20
358.7503889960473
 30
0.0
 40
1.0
100
AcDbArc
 50
270.0
 51
0.0
  0
LINE
  5
CA71
330
18
100
AcDbEntity
  8
DRAW2
100
AcDbLine
 10
1486.710915672591
 20
367.2503889960478
 30
0.0
 11
1486.710915672591
 21
382.2503889960478
 31
0.0
  0
LINE
  5
CA72
330
18
100
AcDbEntity
  8
DRAW2
100
AcDbLine
 10
1526.210915672591
 20
382.2503889960481
 30
0.0
 11
1526.210915672591
 21
402.2503889960481
 31
0.0
  0
LINE
  5
CA73
330
18
100
AcDbEntity
  8
DRAW2
100
AcDbLine
 10
1526.210915672591
 20
402.2503889960481
 30
0.0
 11
1528.210915672592
 21
404.2503889960482
 31
0.0
  0
LINE
  5
CA74
330
18
100
AcDbEntity
  8
DRAW2
100
AcDbLine
 10
1645.710924281769
 20
397.2503888696093
 30
0.0
 11
1645.710925710524
 21
273.2503887178834
 31
0.0
  0
LINE
  5
CA75
330
18
100
AcDbEntity
  8
DRAW2
100
AcDbLine
 10
1642.710924281769
 20
397.2503888696093
 30
0.0
 11
1642.710925710524
 21
273.2503887178834
 31
0.0
  0
LINE
  5
CA76
330
18
100
AcDbEntity
  8
DRAW2
100
AcDbLine
 10
1668.710915672589
 20
272.7503889960473
 30
0.0
 11
1668.710915672589
 21
397.7503889960473
 31
0.0
  0
LINE
  5
CA77
330
18
100
AcDbEntity
  8
DRAW2
100
AcDbLine
 10
1648.710915672588
 20
272.7503889960473
 30
0.0
 11
1648.710915672588
 21
397.7503889960473
 31
0.0
  0
LINE
  5
CA78
330
18
100
AcDbEntity
  8
DRAW2
100
AcDbLine
 10
1573.710915672592
 20
367.2503889960482
 30
0.0
 11
1573.710915672588
 21
303.2503889960473
 31
0.0
  0
LINE
  5
CA7B
330
18
100
AcDbEntity
  8
DRAW2
100
AcDbLine
 10
1648.610915672593
 20
135.7503889960471
 30
0.0
 11
1668.610915672593
 21
135.7503889960471
 31
0.0
  0
LINE
  5
CA7C
330
18
100
AcDbEntity
  8
DRAW2
100
AcDbLine
 10
1648.710915672588
 20
272.7503889960473
 30
0.0
 11
1668.710915672589
 21
272.7503889960473
 31
0.0
  0
LINE
  5
CA7E
330
18
100
AcDbEntity
  8
DRAW2
100
AcDbLine
 10
1615.210915672591
 20
193.2503889960481
 30
0.0
 11
1615.210915672591
 21
215.2504489960481
 31
0.0
  0
LINE
  5
CA7F
330
18
100
AcDbEntity
  8
DRAW2
100
AcDbLine
 10
1613.210915672591
 20
191.2503889960481
 30
0.0
 11
1613.210915672591
 21
217.2503889960481
 31
0.0
  0
LINE
  5
CA80
330
18
100
AcDbEntity
  8
DRAW2
100
AcDbLine
 10
1588.210915672591
 20
302.2503889960477
 30
0.0
 11
1588.210915672591
 21
106.2503889960477
 31
0.0
  0
LINE
  5
CA82
330
18
100
AcDbEntity
  8
DRAW2
100
AcDbLine
 10
1573.210915672591
 20
105.2503889960478
 30
0.0
 11
1573.210915672591
 21
303.2503889960477
 31
0.0
  0
LINE
  5
CA83
330
18
100
AcDbEntity
  8
DRAW2
100
AcDbLine
 10
1574.710915672593
 20
100.750388996047
 30
0.0
 11
1642.610926070109
 21
100.7503889960471
 31
0.0
  0
LINE
  5
CA84
330
18
100
AcDbEntity
  8
DRAW2
100
AcDbLine
 10
1588.210915672591
 20
111.5760518478776
 30
0.0
 11
1613.210915672591
 21
111.5760518478776
 31
0.0
  0
LINE
  5
CA85
330
18
100
AcDbEntity
  8
DRAW2
100
AcDbLine
 10
1588.210915672591
 20
137.5760518478776
 30
0.0
 11
1613.210915672591
 21
137.5760518478776
 31
0.0
  0
LINE
  5
CA87
330
18
100
AcDbEntity
  8
DRAW2
100
AcDbLine
 10
1588.210915672591
 20
191.2503889960481
 30
0.0
 11
1613.210915672591
 21
191.2503889960481
 31
0.0
  0
LINE
  5
CA88
330
18
100
AcDbEntity
  8
DRAW2
100
AcDbLine
 10
1588.210915672591
 20
111.5760518478776
 30
0.0
 11
1588.210915672591
 21
137.5760518478776
 31
0.0
  0
LINE
  5
CA89
330
18
100
AcDbEntity
  8
DRAW2
100
AcDbLine
 10
1588.210915672591
 20
106.2503889960477
 30
0.0
 11
1573.210915672591
 21
106.2503889960478
 31
0.0
  0
ARC
  5
CA8A
330
18
100
AcDbEntity
  8
DRAW2
100
AcDbCircle
 10
1574.710915672593
 20
101.750388996047
 30
0.0
 40
1.0
100
AcDbArc
 50
180.0
 51
270.0
  0
LINE
  5
CA8B
330
18
100
AcDbEntity
  8
DRAW2
100
AcDbLine
 10
1615.210915672591
 20
113.5760518478776
 30
0.0
 11
1615.210915672591
 21
135.5761118478775
 31
0.0
  0
LINE
  5
CA8C
330
18
100
AcDbEntity
  8
DRAW2
100
AcDbLine
 10
1613.210915672591
 20
111.5760518478776
 30
0.0
 11
1613.210915672591
 21
137.5760518478776
 31
0.0
  0
LINE
  5
CA8D
330
18
100
AcDbEntity
  8
DRAW2
100
AcDbLine
 10
1615.210915672591
 20
113.5760518478776
 30
0.0
 11
1613.210915672591
 21
111.5760518478776
 31
0.0
  0
LINE
  5
CA8E
330
18
100
AcDbEntity
  8
DRAW2
100
AcDbLine
 10
1615.210915672591
 20
135.5761118478775
 30
0.0
 11
1613.210915672591
 21
137.5760518478776
 31
0.0
  0
LINE
  5
CA8F
330
18
100
AcDbEntity
  8
DRAW2
100
AcDbLine
 10
1642.610925672592
 20
135.2503889960481
 30
0.0
 11
1648.610925672592
 21
135.2503889960481
 31
0.0
  0
LINE
  5
CA90
330
18
100
AcDbEntity
  8
DRAW2
100
AcDbLine
 10
1615.210915672591
 20
193.2503889960481
 30
0.0
 11
1613.210915672591
 21
191.2503889960481
 31
0.0
  0
LINE
  5
CA91
330
18
100
AcDbEntity
  8
DRAW2
100
AcDbLine
 10
1588.210915672591
 20
270.9247261442145
 30
0.0
 11
1613.210915672591
 21
270.9247261442145
 31
0.0
  0
LINE
  5
CA92
330
18
100
AcDbEntity
  8
DRAW2
100
AcDbLine
 10
1588.210915672591
 20
296.9247261442145
 30
0.0
 11
1613.210915672591
 21
296.9247261442145
 31
0.0
  0
LINE
  5
CA94
330
18
100
AcDbEntity
  8
DRAW2
100
AcDbLine
 10
1574.710915672588
 20
307.7503889960475
 30
0.0
 11
1642.710925313007
 21
307.7503889960473
 31
0.0
  0
LINE
  5
CA95
330
18
100
AcDbEntity
  8
DRAW2
100
AcDbLine
 10
1588.210915672591
 20
217.2503889960481
 30
0.0
 11
1613.210915672591
 21
217.2503889960481
 31
0.0
  0
LINE
  5
CA96
330
18
100
AcDbEntity
  8
DRAW2
100
AcDbLine
 10
1588.210915672591
 20
270.9247261442145
 30
0.0
 11
1588.210915672591
 21
296.9247261442145
 31
0.0
  0
LINE
  5
CA97
330
18
100
AcDbEntity
  8
DRAW2
100
AcDbLine
 10
1573.210915672591
 20
302.2503889960477
 30
0.0
 11
1588.210915672591
 21
302.2503889960477
 31
0.0
  0
ARC
  5
CA98
330
18
100
AcDbEntity
  8
DRAW2
100
AcDbCircle
 10
1574.710915672588
 20
306.7503889960474
 30
0.0
 40
1.0
100
AcDbArc
 50
90.0
 51
180.0
  0
LINE
  5
CA99
330
18
100
AcDbEntity
  8
DRAW2
100
AcDbLine
 10
1615.210915672591
 20
215.2504489960481
 30
0.0
 11
1613.210915672591
 21
217.2503889960481
 31
0.0
  0
LINE
  5
CA9A
330
18
100
AcDbEntity
  8
DRAW2
100
AcDbLine
 10
1615.210915672591
 20
272.9247261442145
 30
0.0
 11
1615.210915672591
 21
294.9247861442144
 31
0.0
  0
LINE
  5
CA9B
330
18
100
AcDbEntity
  8
DRAW2
100
AcDbLine
 10
1613.210915672591
 20
270.9247261442145
 30
0.0
 11
1613.210915672591
 21
296.9247261442145
 31
0.0
  0
LINE
  5
CA9C
330
18
100
AcDbEntity
  8
DRAW2
100
AcDbLine
 10
1615.210915672591
 20
272.9247261442145
 30
0.0
 11
1613.210915672591
 21
270.9247261442145
 31
0.0
  0
LINE
  5
CA9D
330
18
100
AcDbEntity
  8
DRAW2
100
AcDbLine
 10
1615.210915672591
 20
294.9247861442144
 30
0.0
 11
1613.210915672591
 21
296.9247261442145
 31
0.0
  0
LINE
  5
CA9E
330
18
100
AcDbEntity
  8
DRAW2
100
AcDbLine
 10
1642.710925710524
 20
273.2503887178834
 30
0.0
 11
1648.710925710523
 21
273.2503887178834
 31
0.0
  0
LINE
  5
CA9F
330
18
100
AcDbEntity
  8
DRAW2
100
AcDbLine
 10
1791.646336539614
 20
214.3283543316747
 30
0.0
 11
1791.646336539614
 21
218.3283543316743
 31
0.0
  0
LINE
  5
CAA0
330
18
100
AcDbEntity
  8
DRAW2
100
AcDbLine
 10
1793.046336539614
 20
209.8283543316747
 30
0.0
 11
1793.046336539614
 21
213.8283543316747
 31
0.0
  0
LINE
  5
CAA1
330
18
100
AcDbEntity
  8
DRAW2
100
AcDbLine
 10
1648.710915672588
 20
397.7503889960473
 30
0.0
 11
1668.710915672589
 21
397.7503889960473
 31
0.0
  0
LINE
  5
CAA3
330
18
100
AcDbEntity
  8
DRAW2
100
AcDbLine
 10
1574.710915672588
 20
362.7503889960473
 30
0.0
 11
1642.710924281769
 21
362.7503889960473
 31
0.0
  0
ARC
  5
CAA4
330
18
100
AcDbEntity
  8
DRAW2
100
AcDbCircle
 10
1574.710915672588
 20
363.7503889960473
 30
0.0
 40
1.0
100
AcDbArc
 50
180.0
 51
270.0
  0
LINE
  5
CAA5
330
18
100
AcDbEntity
  8
DRAW2
100
AcDbLine
 10
1547.210915672591
 20
402.2503889960481
 30
0.0
 11
1547.210915672591
 21
382.2503889960481
 31
0.0
  0
LINE
  5
CAA6
330
18
100
AcDbEntity
  8
DRAW2
100
AcDbLine
 10
1545.210915672591
 20
404.2503889960482
 30
0.0
 11
1547.210915672591
 21
402.2503889960481
 31
0.0
  0
LINE
  5
CAA7
330
18
100
AcDbEntity
  8
DRAW2
100
AcDbLine
 10
1573.710915672592
 20
382.2503889960478
 30
0.0
 11
1573.710915672592
 21
367.2503889960478
 31
0.0
  0
LINE
  5
CAA8
330
18
100
AcDbEntity
  8
DRAW2
100
AcDbLine
 10
1642.710924281769
 20
397.2503888696093
 30
0.0
 11
1648.710924281769
 21
397.2503888696093
 31
0.0
  0
LINE
  5
CAA9
330
18
100
AcDbEntity
  8
DRAW2
100
AcDbLine
 10
1486.710915672588
 20
624.896142032408
 30
0.0
 11
1573.710915672588
 21
624.896142032408
 31
0.0
  0
LINE
  5
CAAA
330
18
100
AcDbEntity
  8
DRAW2
100
AcDbLine
 10
1573.710915672588
 20
720.896142032408
 30
0.0
 11
1486.710915672588
 21
720.896142032408
 31
0.0
  0
LINE
  5
CAAB
330
18
100
AcDbEntity
  8
DRAW2
100
AcDbLine
 10
1573.710915672588
 20
615.3961420324081
 30
0.0
 11
1486.710915672588
 21
615.3961420324081
 31
0.0
  0
LINE
  5
CAAC
330
18
100
AcDbEntity
  8
DRAW2
100
AcDbLine
 10
1573.710915672588
 20
730.396142032408
 30
0.0
 11
1486.710915672588
 21
730.396142032408
 31
0.0
  0
CIRCLE
  5
CAAD
330
18
100
AcDbEntity
  8
DRAW2
100
AcDbCircle
 10
1536.710875672588
 20
639.8961420324081
 30
0.0
 40
10.5
  0
CIRCLE
  5
CAAE
330
18
100
AcDbEntity
  8
DRAW2
100
AcDbCircle
 10
1536.710875672588
 20
639.8961420324081
 30
0.0
 40
8.5
  0
CIRCLE
  5
CAAF
330
18
100
AcDbEntity
  8
DRAW2
100
AcDbCircle
 10
1536.710875672588
 20
705.8961420324081
 30
0.0
 40
8.5
  0
CIRCLE
  5
CAB0
330
18
100
AcDbEntity
  8
DRAW2
100
AcDbCircle
 10
1536.710875672588
 20
705.8961420324081
 30
0.0
 40
10.5
  0
LINE
  5
CAB3
330
18
100
AcDbEntity
  8
DRAW2
100
AcDbLine
 10
1485.710895672587
 20
562.896142032408
 30
0.0
 11
1572.710895672587
 21
562.896142032408
 31
0.0
  0
LINE
  5
CAB4
330
18
100
AcDbEntity
  8
DRAW2
100
AcDbLine
 10
1485.710895672587
 20
782.896142032408
 30
0.0
 11
1572.710895672587
 21
782.896142032408
 31
0.0
  0
LINE
  5
CAB5
330
18
100
AcDbEntity
  8
DRAW2
100
AcDbLine
 10
1278.710895672588
 20
782.896142032408
 30
0.0
 11
1278.710895672588
 21
730.396142032408
 31
0.0
  0
LINE
  5
CAB6
330
18
100
AcDbEntity
  8
DRAW2
100
AcDbLine
 10
1366.710895672588
 20
695.3961420324083
 30
0.0
 11
1366.710895672588
 21
782.8961420324081
 31
0.0
  0
LINE
  5
CAB7
330
18
100
AcDbEntity
  8
DRAW2
100
AcDbLine
 10
1484.710895672589
 20
695.396142032408
 30
0.0
 11
1484.710895672589
 21
782.8961420324081
 31
0.0
  0
LINE
  5
CAB8
330
18
100
AcDbEntity
  8
DRAW2
100
AcDbLine
 10
1485.710895672587
 20
782.896142032408
 30
0.0
 11
1485.710895672587
 21
695.396142032408
 31
0.0
  0
LINE
  5
CAB9
330
18
100
AcDbEntity
  8
DRAW2
100
AcDbLine
 10
1365.710895672588
 20
782.896142032408
 30
0.0
 11
1365.710895672588
 21
695.3961420326082
 31
0.0
  0
LINE
  5
CABA
330
18
100
AcDbEntity
  8
DRAW2
100
AcDbLine
 10
1278.710895672588
 20
782.896142032408
 30
0.0
 11
1278.710895672588
 21
730.3961420324082
 31
0.0
  0
LINE
  5
CABB
330
18
100
AcDbEntity
  8
DRAW2
100
AcDbLine
 10
1419.710895672588
 20
562.8961420324079
 30
0.0
 11
1366.710895672588
 21
562.896142032408
 31
0.0
  0
LINE
  5
CABC
330
18
100
AcDbEntity
  8
DRAW2
100
AcDbLine
 10
1365.710915672588
 20
695.3961420324083
 30
0.0
 11
1485.710915672588
 21
695.396142032408
 31
0.0
  0
LINE
  5
CABD
330
18
100
AcDbEntity
  8
DRAW2
100
AcDbLine
 10
1365.710915672588
 20
650.3961420324078
 30
0.0
 11
1485.710915672588
 21
650.3961420324083
 31
0.0
  0
LINE
  5
CABE
330
18
100
AcDbEntity
  8
DRAW2
100
AcDbLine
 10
1484.710895672589
 20
722.8561260195954
 30
0.0
 11
1366.710895672588
 21
722.8561260195954
 31
0.0
  0
LINE
  5
CABF
330
18
100
AcDbEntity
  8
DRAW2
100
AcDbLine
 10
1484.710895672589
 20
622.9361580452207
 30
0.0
 11
1366.710895672588
 21
622.9361580452207
 31
0.0
  0
CIRCLE
  5
CAC1
330
18
100
AcDbEntity
  8
DRAW2
100
AcDbCircle
 10
1314.710915672589
 20
639.8961420324081
 30
0.0
 40
8.5
  0
CIRCLE
  5
CAC2
330
18
100
AcDbEntity
  8
DRAW2
100
AcDbCircle
 10
1314.710915672589
 20
639.8961420324081
 30
0.0
 40
10.5
  0
LINE
  5
CAC3
330
18
100
AcDbEntity
  8
DRAW2
100
AcDbLine
 10
1277.710915672589
 20
720.896142032408
 30
0.0
 11
1277.710915672589
 21
624.896142032408
 31
0.0
  0
LINE
  5
CAC4
330
18
100
AcDbEntity
  8
DRAW2
100
AcDbLine
 10
1364.710915672588
 20
624.896142032408
 30
0.0
 11
1364.710915672588
 21
720.896142032408
 31
0.0
  0
LINE
  5
CAC6
330
18
100
AcDbEntity
  8
DRAW2
100
AcDbLine
 10
1277.710915672589
 20
615.3961420324081
 30
0.0
 11
1277.710915672589
 21
730.396142032408
 31
0.0
  0
LINE
  5
CAC7
330
18
100
AcDbEntity
  8
DRAW2
100
AcDbLine
 10
1364.710915672588
 20
615.3961420324081
 30
0.0
 11
1364.710915672588
 21
730.396142032408
 31
0.0
  0
LINE
  5
CAC8
330
18
100
AcDbEntity
  8
DRAW2
100
AcDbLine
 10
1366.710895672588
 20
562.896142032408
 30
0.0
 11
1366.710895672588
 21
650.3961420324079
 31
0.0
  0
LINE
  5
CAC9
330
18
100
AcDbEntity
  8
DRAW2
100
AcDbLine
 10
1365.710895672588
 20
650.3961420322078
 30
0.0
 11
1365.710895672588
 21
562.896142032408
 31
0.0
  0
LINE
  5
CACA
330
18
100
AcDbEntity
  8
DRAW2
100
AcDbLine
 10
1277.710915672589
 20
624.896142032408
 30
0.0
 11
1364.710915672588
 21
624.896142032408
 31
0.0
  0
LINE
  5
CACB
330
18
100
AcDbEntity
  8
DRAW2
100
AcDbLine
 10
1364.710915672588
 20
615.3961420324081
 30
0.0
 11
1277.710915672589
 21
615.3961420324081
 31
0.0
  0
LINE
  5
CACC
330
18
100
AcDbEntity
  8
DRAW2
100
AcDbLine
 10
1278.710895672588
 20
562.896142032408
 30
0.0
 11
1365.710895672588
 21
562.896142032408
 31
0.0
  0
LINE
  5
CACD
330
18
100
AcDbEntity
  8
DRAW2
100
AcDbLine
 10
1278.710895672588
 20
615.3961420324081
 30
0.0
 11
1278.710895672588
 21
562.896142032408
 31
0.0
  0
LINE
  5
CACE
330
18
100
AcDbEntity
  8
DRAW2
100
AcDbLine
 10
1278.710895672588
 20
615.3961420324081
 30
0.0
 11
1278.710895672588
 21
562.896142032408
 31
0.0
  0
LINE
  5
CACF
330
18
100
AcDbEntity
  8
DRAW2
100
AcDbLine
 10
1365.710895672587
 20
588.3961417813016
 30
0.0
 11
1366.71094547259
 21
588.3961417813016
 31
0.0
  0
LINE
  5
CAD0
330
18
100
AcDbEntity
  8
DRAW2
100
AcDbLine
 10
1365.710895672588
 20
624.9482536534606
 30
0.0
 11
1364.710915672588
 21
624.9482536534606
 31
0.0
  0
LINE
  5
CAD1
330
18
100
AcDbEntity
  8
DRAW2
100
AcDbLine
 10
1364.710915672588
 20
720.896142032408
 30
0.0
 11
1277.710915672589
 21
720.896142032408
 31
0.0
  0
LINE
  5
CAD2
330
18
100
AcDbEntity
  8
DRAW2
100
AcDbLine
 10
1364.710915672588
 20
730.396142032408
 30
0.0
 11
1277.710915672589
 21
730.396142032408
 31
0.0
  0
CIRCLE
  5
CAD6
330
18
100
AcDbEntity
  8
DRAW2
100
AcDbCircle
 10
1314.710915672589
 20
705.8961420324081
 30
0.0
 40
10.5
  0
CIRCLE
  5
CAD7
330
18
100
AcDbEntity
  8
DRAW2
100
AcDbCircle
 10
1314.710915672589
 20
705.8961420324081
 30
0.0
 40
8.5
  0
ARC
  5
CAD8
330
18
100
AcDbEntity
  8
DRAW2
100
AcDbCircle
 10
1365.710915672588
 20
649.3961420324078
 30
0.0
 40
1.0
100
AcDbArc
 50
90.0
 51
180.0
  0
ARC
  5
CAD9
330
18
100
AcDbEntity
  8
DRAW2
100
AcDbCircle
 10
1365.710915672588
 20
696.3961420324083
 30
0.0
 40
1.0
100
AcDbArc
 50
180.0
 51
270.0
  0
LINE
  5
CADA
330
18
100
AcDbEntity
  8
DRAW2
100
AcDbLine
 10
1365.710895672588
 20
720.8440304113556
 30
0.0
 11
1364.710915672588
 21
720.8440304113556
 31
0.0
  0
LINE
  5
CADB
330
18
100
AcDbEntity
  8
DRAW2
100
AcDbLine
 10
1486.710915672588
 20
720.896142032408
 30
0.0
 11
1486.710915672588
 21
624.896142032408
 31
0.0
  0
LINE
  5
CADC
330
18
100
AcDbEntity
  8
DRAW2
100
AcDbLine
 10
1486.710915672588
 20
615.3961420324081
 30
0.0
 11
1486.710915672588
 21
730.396142032408
 31
0.0
  0
LINE
  5
CADD
330
18
100
AcDbEntity
  8
DRAW2
100
AcDbLine
 10
1484.710895672589
 20
562.896142032408
 30
0.0
 11
1484.710895672589
 21
650.3961420324083
 31
0.0
  0
LINE
  5
CADE
330
18
100
AcDbEntity
  8
DRAW2
100
AcDbLine
 10
1485.710895672587
 20
650.3961420324083
 30
0.0
 11
1485.710895672587
 21
562.896142032408
 31
0.0
  0
LINE
  5
CADF
330
18
100
AcDbEntity
  8
DRAW2
100
AcDbLine
 10
1484.710895672589
 20
562.896142032408
 30
0.0
 11
1431.710895672588
 21
562.896142032408
 31
0.0
  0
LINE
  5
CAE0
330
18
100
AcDbEntity
  8
DRAW2
100
AcDbLine
 10
1430.575833172589
 20
582.3653864314813
 30
0.0
 11
1430.69339091612
 21
579.1075306775142
 31
0.0
  0
LINE
  5
CAE1
330
18
100
AcDbEntity
  8
DRAW2
100
AcDbLine
 10
1420.728400429053
 20
579.1075306775143
 30
0.0
 11
1420.845958172589
 21
582.3653864314813
 31
0.0
  0
LINE
  5
CAE2
330
18
100
AcDbEntity
  8
DRAW2
100
AcDbLine
 10
1422.710895672589
 20
560.7147513368714
 30
0.0
 11
1422.710895672589
 21
528.1731237938641
 31
0.0
  0
LINE
  5
CAE3
330
18
100
AcDbEntity
  8
DRAW2
100
AcDbLine
 10
1407.524362193115
 20
576.1747641440898
 30
0.0
 11
1410.024362193115
 21
575.4530796935376
 31
0.0
  0
LINE
  5
CAE4
330
18
100
AcDbEntity
  8
DRAW2
100
AcDbLine
 10
1407.524362193115
 20
573.2880263418805
 30
0.0
 11
1410.024362193115
 21
574.0097107924328
 31
0.0
  0
LINE
  5
CAE5
330
18
100
AcDbEntity
  8
DRAW2
100
AcDbLine
 10
1410.024362193115
 20
575.4530796935376
 30
0.0
 11
1410.024362193115
 21
574.0097107924328
 31
0.0
  0
LINE
  5
CAE6
330
18
100
AcDbEntity
  8
DRAW2
100
AcDbLine
 10
1405.024362193115
 20
574.0097107924328
 30
0.0
 11
1405.024362193115
 21
575.4530796935376
 31
0.0
  0
LINE
  5
CAE7
330
18
100
AcDbEntity
  8
DRAW2
100
AcDbLine
 10
1405.024362193115
 20
575.4530796935376
 30
0.0
 11
1407.524362193115
 21
576.1747641440898
 31
0.0
  0
LINE
  5
CAE8
330
18
100
AcDbEntity
  8
DRAW2
100
AcDbLine
 10
1405.024362193115
 20
574.0097107924328
 30
0.0
 11
1407.524362193115
 21
573.2880263418805
 31
0.0
  0
LINE
  5
CAE9
330
18
100
AcDbEntity
  8
DRAW2
100
AcDbLine
 10
1425.710895672588
 20
576.1264811494068
 30
0.0
 11
1425.710895672588
 21
580.5458531625602
 31
0.0
  0
LINE
  5
CAEA
330
18
100
AcDbEntity
  8
DRAW2
100
AcDbLine
 10
1430.732083172586
 20
579.0963611851709
 30
0.0
 11
1430.732083172586
 21
574.6769891720175
 31
0.0
  0
LINE
  5
CAEB
330
18
100
AcDbEntity
  8
DRAW2
100
AcDbLine
 10
1420.689708172586
 20
579.0963611851709
 30
0.0
 11
1420.689708172586
 21
574.6769891720175
 31
0.0
  0
LINE
  5
CAEC
330
18
100
AcDbEntity
  8
DRAW2
100
AcDbLine
 10
1425.710895672588
 20
580.5458531625602
 30
0.0
 11
1430.732083172586
 21
579.0963611851709
 31
0.0
  0
LINE
  5
CAED
330
18
100
AcDbEntity
  8
DRAW2
100
AcDbLine
 10
1420.689708172586
 20
579.0963611851709
 30
0.0
 11
1425.710895672588
 21
580.5458531625602
 31
0.0
  0
LINE
  5
CAEE
330
18
100
AcDbEntity
  8
DRAW2
100
AcDbLine
 10
1430.005524027465
 20
571.5682656582329
 30
0.0
 11
1430.732083172586
 21
571.7780052172419
 31
0.0
  0
LINE
  5
CAEF
330
18
100
AcDbEntity
  8
DRAW2
100
AcDbLine
 10
1420.689708172586
 20
571.7780052172419
 30
0.0
 11
1421.416267317709
 21
571.5682656582325
 31
0.0
  0
LINE
  5
CAF0
330
18
100
AcDbEntity
  8
DRAW2
100
AcDbLine
 10
1425.710895672588
 20
576.1264811494068
 30
0.0
 11
1430.732083172586
 21
574.6769891720175
 31
0.0
  0
LINE
  5
CAF1
330
18
100
AcDbEntity
  8
DRAW2
100
AcDbLine
 10
1420.689708172586
 20
574.6769891720175
 30
0.0
 11
1425.710895672588
 21
576.1264811494068
 31
0.0
  0
LINE
  5
CAF2
330
18
100
AcDbEntity
  8
DRAW2
100
AcDbLine
 10
1430.732083172586
 20
571.7780052172419
 30
0.0
 11
1430.732083172586
 21
574.6769891720175
 31
0.0
  0
LINE
  5
CAF3
330
18
100
AcDbEntity
  8
DRAW2
100
AcDbLine
 10
1420.689708172586
 20
574.6769891720175
 30
0.0
 11
1420.689708172586
 21
571.7780052172419
 31
0.0
  0
LINE
  5
CAF4
330
18
100
AcDbEntity
  8
DRAW2
100
AcDbLine
 10
1429.210895672588
 20
571.7976551055293
 30
0.0
 11
1429.210895672588
 21
572.8391069898533
 31
0.0
  0
LINE
  5
CAF5
330
18
100
AcDbEntity
  8
DRAW2
100
AcDbLine
 10
1422.210895672588
 20
571.7976551055294
 30
0.0
 11
1422.210895672588
 21
572.8391069898533
 31
0.0
  0
LINE
  5
CAF6
330
18
100
AcDbEntity
  8
DRAW2
100
AcDbLine
 10
1431.710895672588
 20
571.0759672690445
 30
0.0
 11
1431.710895672588
 21
564.6429545671471
 31
0.0
  0
LINE
  5
CAF7
330
18
100
AcDbEntity
  8
DRAW2
100
AcDbLine
 10
1419.710895672588
 20
571.0759672690445
 30
0.0
 11
1419.710895672588
 21
564.6429545671471
 31
0.0
  0
LINE
  5
CAF8
330
18
100
AcDbEntity
  8
DRAW2
100
AcDbLine
 10
1425.710895672588
 20
572.8080180766081
 30
0.0
 11
1431.710895672588
 21
571.0759672690445
 31
0.0
  0
LINE
  5
CAF9
330
18
100
AcDbEntity
  8
DRAW2
100
AcDbLine
 10
1419.710895672588
 20
571.0759672690445
 30
0.0
 11
1425.710895672588
 21
572.8080180766081
 31
0.0
  0
LINE
  5
CAFA
330
18
100
AcDbEntity
  8
DRAW2
100
AcDbLine
 10
1425.710895672588
 20
566.3750053747106
 30
0.0
 11
1431.710895672588
 21
564.6429545671471
 31
0.0
  0
LINE
  5
CAFB
330
18
100
AcDbEntity
  8
DRAW2
100
AcDbLine
 10
1419.710895672588
 20
564.6429545671471
 30
0.0
 11
1425.710895672588
 21
566.3750053747106
 31
0.0
  0
LINE
  5
CAFC
330
18
100
AcDbEntity
  8
DRAW2
100
AcDbLine
 10
1431.710895672588
 20
564.6429545671471
 30
0.0
 11
1431.710895672588
 21
560.7147513368714
 31
0.0
  0
LINE
  5
CAFD
330
18
100
AcDbEntity
  8
DRAW2
100
AcDbLine
 10
1419.710895672588
 20
564.6429545671471
 30
0.0
 11
1419.710895672588
 21
560.7147513368714
 31
0.0
  0
LINE
  5
CAFE
330
18
100
AcDbEntity
  8
DRAW2
100
AcDbLine
 10
1425.710895672588
 20
572.8080180766081
 30
0.0
 11
1425.710895672588
 21
566.3750053747106
 31
0.0
  0
LINE
  5
CAFF
330
18
100
AcDbEntity
  8
DRAW2
100
AcDbLine
 10
1431.710895672588
 20
560.7147513368714
 30
0.0
 11
1431.710895672588
 21
562.4468021444398
 31
0.0
  0
LINE
  5
CB00
330
18
100
AcDbEntity
  8
DRAW2
100
AcDbLine
 10
1419.710895672588
 20
560.7147513368714
 30
0.0
 11
1419.710895672588
 21
562.4468021444398
 31
0.0
  0
LINE
  5
CB01
330
18
100
AcDbEntity
  8
DRAW2
100
AcDbLine
 10
1446.397429152062
 20
574.0097107924328
 30
0.0
 11
1443.897429152062
 21
573.2880263418805
 31
0.0
  0
LINE
  5
CB02
330
18
100
AcDbEntity
  8
DRAW2
100
AcDbLine
 10
1446.397429152062
 20
575.4530796935376
 30
0.0
 11
1443.897429152062
 21
576.1747641440898
 31
0.0
  0
LINE
  5
CB03
330
18
100
AcDbEntity
  8
DRAW2
100
AcDbLine
 10
1446.397429152062
 20
574.0097107924328
 30
0.0
 11
1446.397429152062
 21
575.4530796935376
 31
0.0
  0
LINE
  5
CB04
330
18
100
AcDbEntity
  8
DRAW2
100
AcDbLine
 10
1441.397429152062
 20
575.4530796935376
 30
0.0
 11
1441.397429152062
 21
574.0097107924328
 31
0.0
  0
LINE
  5
CB05
330
18
100
AcDbEntity
  8
DRAW2
100
AcDbLine
 10
1443.897429152062
 20
573.2880263418805
 30
0.0
 11
1441.397429152062
 21
574.0097107924328
 31
0.0
  0
LINE
  5
CB06
330
18
100
AcDbEntity
  8
DRAW2
100
AcDbLine
 10
1443.897429152062
 20
576.1747641440898
 30
0.0
 11
1441.397429152062
 21
575.4530796935376
 31
0.0
  0
LINE
  5
CB07
330
18
100
AcDbEntity
  8
DRAW2
100
AcDbLine
 10
1425.710895672589
 20
589.1630263418802
 30
0.0
 11
1428.210895672589
 21
589.8847107924325
 31
0.0
  0
LINE
  5
CB08
330
18
100
AcDbEntity
  8
DRAW2
100
AcDbLine
 10
1423.210895672589
 20
589.8847107924325
 30
0.0
 11
1425.710895672589
 21
589.1630263418802
 31
0.0
  0
LINE
  5
CB09
330
18
100
AcDbEntity
  8
DRAW2
100
AcDbLine
 10
1425.710895672589
 20
592.0497641440895
 30
0.0
 11
1428.210895672589
 21
591.3280796935372
 31
0.0
  0
LINE
  5
CB0A
330
18
100
AcDbEntity
  8
DRAW2
100
AcDbLine
 10
1423.210895672589
 20
591.3280796935372
 30
0.0
 11
1425.710895672589
 21
592.0497641440895
 31
0.0
  0
LINE
  5
CB0B
330
18
100
AcDbEntity
  8
DRAW2
100
AcDbLine
 10
1428.210895672589
 20
591.3280796935372
 30
0.0
 11
1428.210895672589
 21
589.8847107924325
 31
0.0
  0
LINE
  5
CB0C
330
18
100
AcDbEntity
  8
DRAW2
100
AcDbLine
 10
1423.210895672589
 20
589.8847107924325
 30
0.0
 11
1423.210895672589
 21
591.3280796935372
 31
0.0
  0
LINE
  5
CB0D
330
18
100
AcDbEntity
  8
DRAW2
100
AcDbLine
 10
1485.710895672588
 20
588.3961317450451
 30
0.0
 11
1484.710845872587
 21
588.3961317450451
 31
0.0
  0
LINE
  5
CB0E
330
18
100
AcDbEntity
  8
DRAW2
100
AcDbLine
 10
1486.710915672588
 20
624.9482536534606
 30
0.0
 11
1485.710895672587
 21
624.9482536534606
 31
0.0
  0
ARC
  5
CB0F
330
18
100
AcDbEntity
  8
DRAW2
100
AcDbCircle
 10
1485.710915672588
 20
649.3961420324083
 30
0.0
 40
1.0
100
AcDbArc
 50
0.0
 51
90.0
  0
ARC
  5
CB10
330
18
100
AcDbEntity
  8
DRAW2
100
AcDbCircle
 10
1485.710915672588
 20
696.396142032408
 30
0.0
 40
1.0
100
AcDbArc
 50
270.0
 51
0.0
  0
LINE
  5
CB11
330
18
100
AcDbEntity
  8
DRAW2
100
AcDbLine
 10
1486.710915672588
 20
720.8440304113556
 30
0.0
 11
1485.710895672587
 21
720.8440304113556
 31
0.0
  0
LINE
  5
CB12
330
18
100
AcDbEntity
  8
DRAW2
100
AcDbLine
 10
1366.710895672588
 20
782.8961420324081
 30
0.0
 11
1484.710895672589
 21
782.8961420324081
 31
0.0
  0
LINE
  5
CB13
330
18
100
AcDbEntity
  8
DRAW2
100
AcDbLine
 10
1278.710895672588
 20
782.896142032408
 30
0.0
 11
1365.710895672588
 21
782.896142032408
 31
0.0
  0
LINE
  5
CB14
330
18
100
AcDbEntity
  8
DRAW2
100
AcDbLine
 10
1365.710895672588
 20
757.3961422835147
 30
0.0
 11
1366.71094547259
 21
757.3961422835147
 31
0.0
  0
LINE
  5
CB15
330
18
100
AcDbEntity
  8
DRAW2
100
AcDbLine
 10
1485.710895672588
 20
757.3961347450453
 30
0.0
 11
1484.710845872587
 21
757.3961347450453
 31
0.0
  0
LINE
  5
CB16
330
18
100
AcDbEntity
  8
DRAW2
100
AcDbLine
 10
1587.710895672588
 20
782.896142032408
 30
0.0
 11
1587.710895672588
 21
700.3961420324079
 31
0.0
  0
LINE
  5
CB17
330
18
100
AcDbEntity
  8
DRAW2
100
AcDbLine
 10
1572.710895672588
 20
782.896142032408
 30
0.0
 11
1572.710895672588
 21
730.396142032408
 31
0.0
  0
LINE
  5
CB18
330
18
100
AcDbEntity
  8
DRAW2
100
AcDbLine
 10
1572.710895672587
 20
782.896142032408
 30
0.0
 11
1572.710895672587
 21
730.3961420324082
 31
0.0
  0
LINE
  5
CB19
330
18
100
AcDbEntity
  8
DRAW2
100
AcDbLine
 10
1648.710915672588
 20
610.3961420324081
 30
0.0
 11
1668.710915672589
 21
610.3961420324081
 31
0.0
  0
LINE
  5
CB1C
330
18
100
AcDbEntity
  8
DRAW2
100
AcDbLine
 10
1648.710915672588
 20
735.3961420324081
 30
0.0
 11
1668.710915672589
 21
735.3961420324081
 31
0.0
  0
LINE
  5
CB1E
330
18
100
AcDbEntity
  8
DRAW2
100
AcDbLine
 10
1612.710895672588
 20
639.8961420324077
 30
0.0
 11
1612.710895672588
 21
613.8960820324077
 31
0.0
  0
LINE
  5
CB1F
330
18
100
AcDbEntity
  8
DRAW2
100
AcDbLine
 10
1614.710835672589
 20
637.8962620324077
 30
0.0
 11
1614.710835672589
 21
615.8960820324077
 31
0.0
  0
LINE
  5
CB20
330
18
100
AcDbEntity
  8
DRAW2
100
AcDbLine
 10
1573.710915672588
 20
624.896142032408
 30
0.0
 11
1573.710915672588
 21
720.896142032408
 31
0.0
  0
LINE
  5
CB21
330
18
100
AcDbEntity
  8
DRAW2
100
AcDbLine
 10
1648.710915672588
 20
610.3961420324081
 30
0.0
 11
1648.710915672588
 21
735.3961420324081
 31
0.0
  0
LINE
  5
CB23
330
18
100
AcDbEntity
  8
DRAW2
100
AcDbLine
 10
1573.710915672588
 20
615.3961420324081
 30
0.0
 11
1573.710915672588
 21
730.396142032408
 31
0.0
  0
LINE
  5
CB24
330
18
100
AcDbEntity
  8
DRAW2
100
AcDbLine
 10
1587.710895672588
 20
645.3961420324084
 30
0.0
 11
1587.710895672588
 21
562.896142032408
 31
0.0
  0
LINE
  5
CB26
330
18
100
AcDbEntity
  8
DRAW2
100
AcDbLine
 10
1645.710914281765
 20
734.8961419059695
 30
0.0
 11
1645.710914281765
 21
610.8961417542434
 31
0.0
  0
LINE
  5
CB27
330
18
100
AcDbEntity
  8
DRAW2
100
AcDbLine
 10
1642.710914281765
 20
734.8961419059695
 30
0.0
 11
1642.710915710519
 21
610.8961417542434
 31
0.0
  0
LINE
  5
CB2A
330
18
100
AcDbEntity
  8
DRAW2
100
AcDbLine
 10
1612.710895672588
 20
567.8960820324083
 30
0.0
 11
1587.710895672588
 21
567.8960820324083
 31
0.0
  0
LINE
  5
CB2B
330
18
100
AcDbEntity
  8
DRAW2
100
AcDbLine
 10
1612.710895672588
 20
593.8961420324083
 30
0.0
 11
1587.710895672588
 21
593.8961420324083
 31
0.0
  0
LINE
  5
CB2C
330
18
100
AcDbEntity
  8
DRAW2
100
AcDbLine
 10
1612.710895672588
 20
613.8960820324077
 30
0.0
 11
1587.710895672588
 21
613.8960820324077
 31
0.0
  0
LINE
  5
CB2D
330
18
100
AcDbEntity
  8
DRAW2
100
AcDbLine
 10
1572.710895672588
 20
615.3961420324081
 30
0.0
 11
1572.710895672588
 21
562.896142032408
 31
0.0
  0
LINE
  5
CB2E
330
18
100
AcDbEntity
  8
DRAW2
100
AcDbLine
 10
1572.710895672587
 20
615.3961420324081
 30
0.0
 11
1572.710895672587
 21
562.896142032408
 31
0.0
  0
LINE
  5
CB2F
330
18
100
AcDbEntity
  8
DRAW2
100
AcDbLine
 10
1587.710895672588
 20
562.896142032408
 30
0.0
 11
1572.710895672588
 21
562.896142032408
 31
0.0
  0
LINE
  5
CB30
330
18
100
AcDbEntity
  8
DRAW2
100
AcDbLine
 10
1587.710895672588
 20
622.9361580452206
 30
0.0
 11
1573.710915672588
 21
622.9361580452206
 31
0.0
  0
LINE
  5
CB31
330
18
100
AcDbEntity
  8
DRAW2
100
AcDbLine
 10
1614.710835672589
 20
591.8962620324083
 30
0.0
 11
1614.710835672589
 21
569.8960820324083
 31
0.0
  0
LINE
  5
CB32
330
18
100
AcDbEntity
  8
DRAW2
100
AcDbLine
 10
1612.710895672588
 20
593.8961420324083
 30
0.0
 11
1612.710895672588
 21
567.8960820324083
 31
0.0
  0
LINE
  5
CB33
330
18
100
AcDbEntity
  8
DRAW2
100
AcDbLine
 10
1614.710955672588
 20
569.8959620324083
 30
0.0
 11
1612.711015672589
 21
567.8960220324084
 31
0.0
  0
LINE
  5
CB34
330
18
100
AcDbEntity
  8
DRAW2
100
AcDbLine
 10
1612.710835672589
 20
593.8959620324084
 30
0.0
 11
1614.710835672589
 21
591.8960220324083
 31
0.0
  0
LINE
  5
CB35
330
18
100
AcDbEntity
  8
DRAW2
100
AcDbLine
 10
1614.710955672588
 20
615.8959620324078
 30
0.0
 11
1612.711015672589
 21
613.8960220324078
 31
0.0
  0
LINE
  5
CB36
330
18
100
AcDbEntity
  8
DRAW2
100
AcDbLine
 10
1642.710915710519
 20
610.8961417542434
 30
0.0
 11
1648.71091571052
 21
610.8961417542434
 31
0.0
  0
LINE
  5
CB38
330
18
100
AcDbEntity
  8
DRAW2
100
AcDbLine
 10
1612.710895672588
 20
639.8961420324077
 30
0.0
 11
1587.710895672588
 21
639.8961420324077
 31
0.0
  0
LINE
  5
CB39
330
18
100
AcDbEntity
  8
DRAW2
100
AcDbLine
 10
1612.710895672588
 20
705.8960820324083
 30
0.0
 11
1587.710895672588
 21
705.8960820324083
 31
0.0
  0
LINE
  5
CB3A
330
18
100
AcDbEntity
  8
DRAW2
100
AcDbLine
 10
1612.710895672588
 20
731.8961420324082
 30
0.0
 11
1587.710895672588
 21
731.8961420324082
 31
0.0
  0
LINE
  5
CB3B
330
18
100
AcDbEntity
  8
DRAW2
100
AcDbLine
 10
1574.710915672588
 20
700.3961420324078
 30
0.0
 11
1642.710914281765
 21
700.396142032408
 31
0.0
  0
LINE
  5
CB3C
330
18
100
AcDbEntity
  8
DRAW2
100
AcDbLine
 10
1574.710915672588
 20
645.3961420324083
 30
0.0
 11
1642.710915710519
 21
645.396142032408
 31
0.0
  0
ARC
  5
CB3D
330
18
100
AcDbEntity
  8
DRAW2
100
AcDbCircle
 10
1574.710915672588
 20
644.3961420324082
 30
0.0
 40
1.0
100
AcDbArc
 50
90.0
 51
180.0
  0
ARC
  5
CB3F
330
18
100
AcDbEntity
  8
DRAW2
100
AcDbCircle
 10
1574.710915672588
 20
701.3961420324078
 30
0.0
 40
1.0
100
AcDbArc
 50
180.0
 51
270.0
  0
LINE
  5
CB40
330
18
100
AcDbEntity
  8
DRAW2
100
AcDbLine
 10
1573.710915672588
 20
722.8561260195955
 30
0.0
 11
1587.710895672588
 21
722.8561260195955
 31
0.0
  0
LINE
  5
CB41
330
18
100
AcDbEntity
  8
DRAW2
100
AcDbLine
 10
1612.710835672589
 20
639.8959620324078
 30
0.0
 11
1614.710835672589
 21
637.8960220324078
 31
0.0
  0
LINE
  5
CB42
330
18
100
AcDbEntity
  8
DRAW2
100
AcDbLine
 10
1612.710895672588
 20
731.8961420324082
 30
0.0
 11
1612.710895672588
 21
705.8960820324083
 31
0.0
  0
LINE
  5
CB43
330
18
100
AcDbEntity
  8
DRAW2
100
AcDbLine
 10
1614.710835672589
 20
729.8962620324083
 30
0.0
 11
1614.710835672589
 21
707.8960820324083
 31
0.0
  0
LINE
  5
CB44
330
18
100
AcDbEntity
  8
DRAW2
100
AcDbLine
 10
1614.710955672588
 20
707.8959620324084
 30
0.0
 11
1612.711015672589
 21
705.8960220324084
 31
0.0
  0
LINE
  5
CB45
330
18
100
AcDbEntity
  8
DRAW2
100
AcDbLine
 10
1612.710835672589
 20
731.8959620324084
 30
0.0
 11
1614.710835672589
 21
729.8960220324083
 31
0.0
  0
LINE
  5
CB46
330
18
100
AcDbEntity
  8
DRAW2
100
AcDbLine
 10
1642.710914281765
 20
734.8961419059695
 30
0.0
 11
1648.710914281766
 21
734.8961419059695
 31
0.0
  0
LINE
  5
CB47
330
18
100
AcDbEntity
  8
DRAW2
100
AcDbLine
 10
1668.710915672589
 20
610.3961420324081
 30
0.0
 11
1668.710915672589
 21
672.8961420324081
 31
0.0
  0
LINE
  5
CB48
330
18
100
AcDbEntity
  8
DRAW2
100
AcDbLine
 10
1668.710915672589
 20
735.3961420324081
 30
0.0
 11
1668.710915672589
 21
672.8961420324081
 31
0.0
  0
LINE
  5
CB4A
330
18
100
AcDbEntity
  8
DRAW2
100
AcDbLine
 10
1612.710895672588
 20
751.8960820324081
 30
0.0
 11
1587.710895672588
 21
751.8960820324081
 31
0.0
  0
LINE
  5
CB4B
330
18
100
AcDbEntity
  8
DRAW2
100
AcDbLine
 10
1612.710895672588
 20
777.8961420324081
 30
0.0
 11
1587.710895672588
 21
777.8961420324081
 31
0.0
  0
LINE
  5
CB4C
330
18
100
AcDbEntity
  8
DRAW2
100
AcDbLine
 10
1572.710895672588
 20
782.896142032408
 30
0.0
 11
1587.710895672588
 21
782.896142032408
 31
0.0
  0
LINE
  5
CB4D
330
18
100
AcDbEntity
  8
DRAW2
100
AcDbLine
 10
1612.710895672588
 20
777.8961420324081
 30
0.0
 11
1612.710895672588
 21
751.8960820324081
 31
0.0
  0
LINE
  5
CB4E
330
18
100
AcDbEntity
  8
DRAW2
100
AcDbLine
 10
1614.710835672589
 20
775.8962620324081
 30
0.0
 11
1614.710835672589
 21
753.896082032408
 31
0.0
  0
LINE
  5
CB4F
330
18
100
AcDbEntity
  8
DRAW2
100
AcDbLine
 10
1614.710955672588
 20
753.8959620324082
 30
0.0
 11
1612.711015672589
 21
751.8960220324081
 31
0.0
  0
LINE
  5
CB50
330
18
100
AcDbEntity
  8
DRAW2
100
AcDbLine
 10
1612.710835672589
 20
777.8959620324082
 30
0.0
 11
1614.710835672589
 21
775.8960220324081
 31
0.0
  0
CIRCLE
  5
CB55
330
18
100
AcDbEntity
  8
DRAW2
100
AcDbCircle
 10
2089.860915772593
 20
73.25038899604817
 30
0.0
 40
62.5
  0
LINE
  5
CB58
330
18
100
AcDbEntity
  8
DRAW2
100
AcDbLine
 10
2048.542819729925
 20
41.25038899604817
 30
0.0
 11
2067.539401508472
 21
41.25038899604817
 31
0.0
  0
CIRCLE
  5
CB59
330
18
100
AcDbEntity
  8
DRAW2
100
AcDbCircle
 10
2058.041110619198
 20
41.43058384265339
 30
0.0
 40
9.5
  0
LINE
  5
CB5C
330
18
100
AcDbEntity
  8
DRAW2
100
AcDbLine
 10
2046.360825772593
 20
6.250388996048172
 30
0.0
 11
2067.360885772593
 21
6.250388996048172
 31
0.0
  0
LINE
  5
CB5D
330
18
100
AcDbEntity
  8
DRAW2
100
AcDbLine
 10
2048.360735772593
 20
4.25041899604821
 30
0.0
 11
2065.360945772593
 21
4.25041899604821
 31
0.0
  0
LINE
  5
CB5E
330
18
100
AcDbEntity
  8
DRAW2
100
AcDbLine
 10
1979.860915772593
 20
41.25038899604817
 30
0.0
 11
2036.174325268073
 21
41.25038899604817
 31
0.0
  0
LINE
  5
CB5F
330
18
100
AcDbEntity
  8
DRAW2
100
AcDbLine
 10
2048.663221662363
 20
26.25038899604817
 30
0.0
 11
1979.860915772593
 21
26.25038899604817
 31
0.0
  0
LINE
  5
CB60
330
18
100
AcDbEntity
  8
DRAW2
100
AcDbLine
 10
1979.860915772593
 20
26.25038899604817
 30
0.0
 11
1979.860915772593
 21
41.25038899604817
 31
0.0
  0
LINE
  5
CB61
330
18
100
AcDbEntity
  8
DRAW2
100
AcDbLine
 10
1989.860915772593
 20
41.25038899604817
 30
0.0
 11
1989.860915772593
 21
26.25038899604817
 31
0.0
  0
LINE
  5
CB64
330
18
100
AcDbEntity
  8
DRAW2
100
AcDbLine
 10
1998.861005772592
 20
16.25038899604817
 30
0.0
 11
2028.861005772592
 21
16.25038899604817
 31
0.0
  0
LINE
  5
CB65
330
18
100
AcDbEntity
  8
DRAW2
100
AcDbLine
 10
2027.999675772592
 20
-3.749611003951827
 30
0.0
 11
1999.722025772592
 21
-3.749611003951827
 31
0.0
  0
LINE
  5
CB66
330
18
100
AcDbEntity
  8
DRAW2
100
AcDbLine
 10
1995.860975772593
 20
16.25044899604813
 30
0.0
 11
1998.733255772592
 21
-2.897991003951801
 31
0.0
  0
ARC
  5
CB67
330
18
100
AcDbEntity
  8
DRAW2
100
AcDbCircle
 10
1999.722085772593
 20
-2.749611003951827
 30
0.0
 40
1.0
100
AcDbArc
 50
188.5316099999993
 51
270.0000200000019
  0
LINE
  5
CB68
330
18
100
AcDbEntity
  8
DRAW2
100
AcDbLine
 10
1995.860855772593
 20
16.25038899604817
 30
0.0
 11
1995.860855772593
 21
26.25038899604817
 31
0.0
  0
LINE
  5
CB69
330
18
100
AcDbEntity
  8
DRAW2
100
AcDbLine
 10
2046.360915772593
 20
6.250388996048172
 30
0.0
 11
2046.360915772593
 21
26.25038899604817
 31
0.0
  0
LINE
  5
CB6A
330
18
100
AcDbEntity
  8
DRAW2
100
AcDbLine
 10
2028.988755772592
 20
-2.897921003951751
 30
0.0
 11
2031.861035772593
 21
16.25044899604813
 31
0.0
  0
ARC
  5
CB6C
330
18
100
AcDbEntity
  8
DRAW2
100
AcDbCircle
 10
2027.999765772593
 20
-2.749611003951827
 30
0.0
 40
1.0
100
AcDbArc
 50
270.0000200000019
 51
351.4683700000003
  0
LINE
  5
CB6D
330
18
100
AcDbEntity
  8
DRAW2
100
AcDbLine
 10
2046.361125772593
 20
6.250448996048135
 30
0.0
 11
2048.361035772594
 21
4.250448996048135
 31
0.0
  0
LINE
  5
CB6E
330
18
100
AcDbEntity
  8
DRAW2
100
AcDbLine
 10
2031.860915772593
 20
16.25038899604817
 30
0.0
 11
2031.860915772593
 21
26.25038899604817
 31
0.0
  0
LINE
  5
CB6F
330
18
100
AcDbEntity
  8
DRAW2
100
AcDbLine
 10
2024.360885772592
 20
61.25032899604821
 30
0.0
 11
2003.360825772593
 21
61.25032899604821
 31
0.0
  0
LINE
  5
CB70
330
18
100
AcDbEntity
  8
DRAW2
100
AcDbLine
 10
2024.361005772593
 20
61.25047899604817
 30
0.0
 11
2022.360975772593
 21
63.25044899604813
 31
0.0
  0
LINE
  5
CB71
330
18
100
AcDbEntity
  8
DRAW2
100
AcDbLine
 10
2022.360795772593
 20
63.25032899604821
 30
0.0
 11
2005.360795772593
 21
63.25032899604821
 31
0.0
  0
LINE
  5
CB72
330
18
100
AcDbEntity
  8
DRAW2
100
AcDbLine
 10
2005.360885772593
 20
63.25026899604814
 30
0.0
 11
2003.360915772593
 21
61.25029899604817
 31
0.0
  0
LINE
  5
CB73
330
18
100
AcDbEntity
  8
DRAW2
100
AcDbLine
 10
2003.360825772593
 20
61.25038899604817
 30
0.0
 11
2003.360825772593
 21
41.25038899604817
 31
0.0
  0
LINE
  5
CB74
330
18
100
AcDbEntity
  8
DRAW2
100
AcDbLine
 10
2024.360885772592
 20
61.25038899604817
 30
0.0
 11
2024.360885772592
 21
41.25038899604817
 31
0.0
  0
LINE
  5
CB75
330
18
100
AcDbEntity
  8
DRAW2
100
AcDbLine
 10
2143.547506277112
 20
41.25038899604817
 30
0.0
 11
2199.860915772593
 21
41.25038899604817
 31
0.0
  0
LINE
  5
CB76
330
18
100
AcDbEntity
  8
DRAW2
100
AcDbLine
 10
2199.860915772593
 20
26.25038899604817
 30
0.0
 11
2131.058609882821
 21
26.25038899604817
 31
0.0
  0
LINE
  5
CB77
330
18
100
AcDbEntity
  8
DRAW2
100
AcDbLine
 10
2112.182430036714
 20
41.25038899604817
 30
0.0
 11
2131.179011815261
 21
41.25038899604817
 31
0.0
  0
CIRCLE
  5
CB7A
330
18
100
AcDbEntity
  8
DRAW2
100
AcDbCircle
 10
2121.680720925988
 20
41.43058384265339
 30
0.0
 40
9.5
  0
LINE
  5
CB7B
330
18
100
AcDbEntity
  8
DRAW2
100
AcDbLine
 10
2112.360825772593
 20
6.250388996048172
 30
0.0
 11
2133.360885772593
 21
6.250388996048172
 31
0.0
  0
LINE
  5
CB7C
330
18
100
AcDbEntity
  8
DRAW2
100
AcDbLine
 10
2114.360705772593
 20
4.25041899604821
 30
0.0
 11
2131.360915772593
 21
4.25041899604821
 31
0.0
  0
LINE
  5
CB7D
330
18
100
AcDbEntity
  8
DRAW2
100
AcDbLine
 10
2067.360975772593
 20
6.250388996048172
 30
0.0
 11
2067.360975772593
 21
14.94084689532155
 31
0.0
  0
LINE
  5
CB7E
330
18
100
AcDbEntity
  8
DRAW2
100
AcDbLine
 10
2065.361065772593
 20
4.25032899604821
 30
0.0
 11
2067.361155772593
 21
6.25041899604821
 31
0.0
  0
LINE
  5
CB7F
330
18
100
AcDbEntity
  8
DRAW2
100
AcDbLine
 10
2112.360915772593
 20
6.250388996048172
 30
0.0
 11
2112.360915772593
 21
14.94087004759512
 31
0.0
  0
LINE
  5
CB80
330
18
100
AcDbEntity
  8
DRAW2
100
AcDbLine
 10
2112.361175772594
 20
6.25041899604821
 30
0.0
 11
2114.361055772593
 21
4.250478996048286
 31
0.0
  0
CIRCLE
  5
CB81
330
18
100
AcDbEntity
  8
DRAW2
100
AcDbCircle
 10
2089.860915772593
 20
73.25038899604817
 30
0.0
 40
12.5
  0
CIRCLE
  5
CB82
330
18
100
AcDbEntity
  8
DRAW2
100
AcDbCircle
 10
2089.860915772593
 20
73.25038899604817
 30
0.0
 40
13.5
  0
LINE
  5
CB84
330
18
100
AcDbEntity
  8
DRAW2
100
AcDbLine
 10
2180.860825772593
 20
16.25038899604817
 30
0.0
 11
2150.860825772593
 21
16.25038899604817
 31
0.0
  0
LINE
  5
CB85
330
18
100
AcDbEntity
  8
DRAW2
100
AcDbLine
 10
2179.999705772593
 20
-3.749611003951827
 30
0.0
 11
2151.722025772593
 21
-3.749611003951827
 31
0.0
  0
LINE
  5
CB86
330
18
100
AcDbEntity
  8
DRAW2
100
AcDbLine
 10
2147.860885772593
 20
16.25041899604821
 30
0.0
 11
2150.733185772593
 21
-2.898021003951726
 31
0.0
  0
LINE
  5
CB87
330
18
100
AcDbEntity
  8
DRAW2
100
AcDbLine
 10
2133.360975772593
 20
6.250388996048172
 30
0.0
 11
2133.360975772593
 21
26.25038899604817
 31
0.0
  0
LINE
  5
CB89
330
18
100
AcDbEntity
  8
DRAW2
100
AcDbLine
 10
2131.361155772593
 20
4.250178996048134
 30
0.0
 11
2133.361235772593
 21
6.25023899604821
 31
0.0
  0
ARC
  5
CB8A
330
18
100
AcDbEntity
  8
DRAW2
100
AcDbCircle
 10
2151.722115772593
 20
-2.749611003951827
 30
0.0
 40
1.0
100
AcDbArc
 50
188.5316099999993
 51
270.0000200000019
  0
LINE
  5
CB8B
330
18
100
AcDbEntity
  8
DRAW2
100
AcDbLine
 10
2147.860885772593
 20
16.25038899604817
 30
0.0
 11
2147.860885772593
 21
26.25038899604817
 31
0.0
  0
LINE
  5
CB8C
330
18
100
AcDbEntity
  8
DRAW2
100
AcDbLine
 10
2180.988735772593
 20
-2.897951003951902
 30
0.0
 11
2183.861025772593
 21
16.25044899604813
 31
0.0
  0
ARC
  5
CB8D
330
18
100
AcDbEntity
  8
DRAW2
100
AcDbCircle
 10
2179.999765772593
 20
-2.749611003951827
 30
0.0
 40
1.0
100
AcDbArc
 50
270.0000200000019
 51
351.4683700000003
  0
LINE
  5
CB8E
330
18
100
AcDbEntity
  8
DRAW2
100
AcDbLine
 10
2183.860945772593
 20
16.25038899604817
 30
0.0
 11
2183.860945772593
 21
26.25038899604817
 31
0.0
  0
LINE
  5
CB8F
330
18
100
AcDbEntity
  8
DRAW2
100
AcDbLine
 10
2176.360885772593
 20
61.25038899604817
 30
0.0
 11
2155.360825772593
 21
61.25038899604817
 31
0.0
  0
LINE
  5
CB90
330
18
100
AcDbEntity
  8
DRAW2
100
AcDbLine
 10
2157.360995772593
 20
63.25023899604821
 30
0.0
 11
2155.361035772594
 21
61.25029899604817
 31
0.0
  0
LINE
  5
CB91
330
18
100
AcDbEntity
  8
DRAW2
100
AcDbLine
 10
2155.360855772593
 20
61.25038899604817
 30
0.0
 11
2155.360855772593
 21
41.25038899604817
 31
0.0
  0
LINE
  5
CB92
330
18
100
AcDbEntity
  8
DRAW2
100
AcDbLine
 10
2174.360825772593
 20
63.25038899604817
 30
0.0
 11
2157.360825772593
 21
63.25038899604817
 31
0.0
  0
LINE
  5
CB93
330
18
100
AcDbEntity
  8
DRAW2
100
AcDbLine
 10
2176.361065772593
 20
61.25053899604814
 30
0.0
 11
2174.361055772593
 21
63.25053899604814
 31
0.0
  0
LINE
  5
CB94
330
18
100
AcDbEntity
  8
DRAW2
100
AcDbLine
 10
2176.360915772593
 20
61.25038899604817
 30
0.0
 11
2176.360915772593
 21
41.25038899604817
 31
0.0
  0
LINE
  5
CB95
330
18
100
AcDbEntity
  8
DRAW2
100
AcDbLine
 10
2199.860915772593
 20
41.25038899604817
 30
0.0
 11
2199.860915772593
 21
26.25038899604817
 31
0.0
  0
LINE
  5
CB96
330
18
100
AcDbEntity
  8
DRAW2
100
AcDbLine
 10
2189.860915772593
 20
41.25038899604817
 30
0.0
 11
2189.860915772593
 21
26.25038899604817
 31
0.0
  0
SPLINE
  5
CB97
330
18
100
AcDbEntity
  8
DRAW3
100
AcDbSpline
210
0.0
220
0.0
230
1.0
 70
     8
 71
     3
 72
    10
 73
     6
 74
     4
 42
0.0000000001
 43
0.0000000001
 44
0.0000000001
 40
0.0
 40
0.0
 40
0.0
 40
0.0
 40
1.972684243528474
 40
4.621558289201765
 40
6.679776794359195
 40
6.679776794359195
 40
6.679776794359195
 40
6.679776794359195
 10
1927.304546970377
 20
299.6787807847585
 30
0.0
 10
1927.764091757413
 20
299.1025087872843
 30
0.0
 10
1928.840702485537
 20
297.7524322935428
 30
0.0
 10
1926.560253926393
 20
295.5698825570525
 30
0.0
 10
1927.774094850517
 20
294.2541128915397
 30
0.0
 10
1928.304857699425
 20
293.6787807847585
 30
0.0
 11
1927.304546970377
 21
299.6787807847585
 31
0.0
 11
1928.199562367708
 21
297.9208187364748
 31
0.0
 11
1927.251897611939
 21
295.4472655794726
 31
0.0
 11
1928.304857699425
 21
293.6787807847585
 31
0.0
  0
SPLINE
  5
CB98
330
18
100
AcDbEntity
  8
DRAW3
100
AcDbSpline
210
0.0
220
0.0
230
1.0
 70
     8
 71
     3
 72
    10
 73
     6
 74
     4
 42
0.0000000001
 43
0.0000000001
 44
0.0000000001
 40
0.0
 40
0.0
 40
0.0
 40
0.0
 40
1.972684243528474
 40
4.621558289201765
 40
6.679776794359195
 40
6.679776794359195
 40
6.679776794359195
 40
6.679776794359195
 10
1929.304546970377
 20
299.6787807847585
 30
0.0
 10
1929.764091757412
 20
299.1025087872843
 30
0.0
 10
1930.840702485536
 20
297.7524322935428
 30
0.0
 10
1928.560253926393
 20
295.5698825570525
 30
0.0
 10
1929.774094850517
 20
294.2541128915397
 30
0.0
 10
1930.304857699425
 20
293.6787807847585
 30
0.0
 11
1929.304546970377
 21
299.6787807847585
 31
0.0
 11
1930.199562367708
 21
297.9208187364748
 31
0.0
 11
1929.251897611939
 21
295.4472655794726
 31
0.0
 11
1930.304857699425
 21
293.6787807847585
 31
0.0
  0
SPLINE
  5
CB99
330
18
100
AcDbEntity
  8
DRAW3
100
AcDbSpline
210
0.0
220
0.0
230
1.0
 70
     8
 71
     3
 72
    10
 73
     6
 74
     4
 42
0.0000000001
 43
0.0000000001
 44
0.0000000001
 40
0.0
 40
0.0
 40
0.0
 40
0.0
 40
0.3934537606273082
 40
0.8633942176749133
 40
1.429935674776396
 40
1.429935674776396
 40
1.429935674776396
 40
1.429935674776396
 10
1796.271336539615
 20
262.6438907599417
 30
0.0
 10
1796.166310708719
 20
262.5237060220572
 30
0.0
 10
1795.935842216162
 20
262.2599728515397
 30
0.0
 10
1795.543285153854
 20
262.8339013146927
 30
0.0
 10
1795.205803924025
 20
262.6078840266235
 30
0.0
 10
1795.021336539615
 20
262.484342880401
 30
0.0
 11
1796.271336539615
 21
262.6438907599417
 31
0.0
 11
1795.954897327137
 21
262.4100701309166
 31
0.0
 11
1795.558922253312
 21
262.663146747931
 31
0.0
 11
1795.021336539615
 21
262.484342880401
 31
0.0
  0
SPLINE
  5
CB9A
330
18
100
AcDbEntity
  8
DRAW3
100
AcDbSpline
210
0.0
220
0.0
230
1.0
 70
     8
 71
     3
 72
    10
 73
     6
 74
     4
 42
0.0000000001
 43
0.0000000001
 44
0.0000000001
 40
0.0
 40
0.0
 40
0.0
 40
0.0
 40
0.3934537606269424
 40
0.8633942176749307
 40
1.202033207996425
 40
1.202033207996425
 40
1.202033207996425
 40
1.202033207996425
 10
1803.146336539614
 20
262.6438907599413
 30
0.0
 10
1803.04203858456
 20
262.5191344852578
 30
0.0
 10
1802.813167341432
 20
262.2453695426918
 30
0.0
 10
1802.470760376235
 20
262.8058027805295
 30
0.0
 10
1802.242100830755
 20
262.5792322688833
 30
0.0
 10
1802.146336539614
 20
262.4843428804006
 30
0.0
 11
1803.146336539614
 21
262.6438907599413
 31
0.0
 11
1802.829897327136
 21
262.4100701309162
 31
0.0
 11
1802.43392225331
 21
262.6631467479305
 31
0.0
 11
1802.146336539614
 21
262.4843428804006
 31
0.0
  0
SPLINE
  5
CB9B
330
18
100
AcDbEntity
  8
DRAW3
100
AcDbSpline
210
0.0
220
0.0
230
1.0
 70
     8
 71
     3
 72
    10
 73
     6
 74
     4
 42
0.0000000001
 43
0.0000000001
 44
0.0000000001
 40
0.0
 40
0.0
 40
0.0
 40
0.0
 40
0.3934537606273082
 40
0.8633942176749133
 40
1.429935674776396
 40
1.429935674776396
 40
1.429935674776396
 40
1.429935674776396
 10
1796.271336539615
 20
264.6438907599417
 30
0.0
 10
1796.166310708719
 20
264.5237060220572
 30
0.0
 10
1795.935842216162
 20
264.2599728515397
 30
0.0
 10
1795.543285153854
 20
264.8339013146927
 30
0.0
 10
1795.205803924025
 20
264.6078840266235
 30
0.0
 10
1795.021336539615
 20
264.484342880401
 30
0.0
 11
1796.271336539615
 21
264.6438907599417
 31
0.0
 11
1795.954897327137
 21
264.4100701309166
 31
0.0
 11
1795.558922253312
 21
264.663146747931
 31
0.0
 11
1795.021336539615
 21
264.484342880401
 31
0.0
  0
SPLINE
  5
CB9C
330
18
100
AcDbEntity
  8
DRAW3
100
AcDbSpline
210
0.0
220
0.0
230
1.0
 70
     8
 71
     3
 72
    10
 73
     6
 74
     4
 42
0.0000000001
 43
0.0000000001
 44
0.0000000001
 40
0.0
 40
0.0
 40
0.0
 40
0.0
 40
0.3934537606269424
 40
0.8633942176749307
 40
1.202033207996425
 40
1.202033207996425
 40
1.202033207996425
 40
1.202033207996425
 10
1803.146336539614
 20
264.6438907599413
 30
0.0
 10
1803.04203858456
 20
264.5191344852577
 30
0.0
 10
1802.813167341432
 20
264.2453695426918
 30
0.0
 10
1802.470760376235
 20
264.8058027805295
 30
0.0
 10
1802.242100830755
 20
264.5792322688833
 30
0.0
 10
1802.146336539614
 20
264.4843428804006
 30
0.0
 11
1803.146336539614
 21
264.6438907599413
 31
0.0
 11
1802.829897327136
 21
264.4100701309162
 31
0.0
 11
1802.43392225331
 21
264.6631467479305
 31
0.0
 11
1802.146336539614
 21
264.4843428804006
 31
0.0
  0
SPLINE
  5
CB9D
330
18
100
AcDbEntity
  8
DRAW3
100
AcDbSpline
210
0.0
220
0.0
230
1.0
 70
     8
 71
     3
 72
    10
 73
     6
 74
     4
 42
0.0000000001
 43
0.0000000001
 44
0.0000000001
 40
0.0
 40
0.0
 40
0.0
 40
0.0
 40
0.7869075212542507
 40
1.726788435349844
 40
2.626116616137474
 40
2.626116616137474
 40
2.626116616137474
 40
2.626116616137474
 10
1820.146336539622
 20
262.6438907599413
 30
0.0
 10
1819.936610325976
 20
262.3998821721972
 30
0.0
 10
1819.476387503685
 20
261.8644301704537
 30
0.0
 10
1818.749381606714
 20
262.9862718043317
 30
0.0
 10
1818.176474215722
 20
262.5420221810719
 30
0.0
 10
1817.896336539623
 20
262.3247950008599
 30
0.0
 11
1820.146336539622
 21
262.6438907599413
 31
0.0
 11
1819.513458114665
 21
262.1762495018911
 31
0.0
 11
1818.721507967015
 21
262.6824027359198
 31
0.0
 11
1817.896336539623
 21
262.3247950008599
 31
0.0
  0
SPLINE
  5
CB9E
330
18
100
AcDbEntity
  8
DRAW3
100
AcDbSpline
210
0.0
220
0.0
230
1.0
 70
     8
 71
     3
 72
    10
 73
     6
 74
     4
 42
0.0000000001
 43
0.0000000001
 44
0.0000000001
 40
0.0
 40
0.0
 40
0.0
 40
0.0
 40
0.7869075212542507
 40
1.726788435349844
 40
2.626116616137474
 40
2.626116616137474
 40
2.626116616137474
 40
2.626116616137474
 10
1820.146336539622
 20
264.6438907599413
 30
0.0
 10
1819.936610325976
 20
264.3998821721971
 30
0.0
 10
1819.476387503685
 20
263.8644301704537
 30
0.0
 10
1818.749381606714
 20
264.9862718043317
 30
0.0
 10
1818.176474215722
 20
264.5420221810719
 30
0.0
 10
1817.896336539623
 20
264.3247950008599
 30
0.0
 11
1820.146336539622
 21
264.6438907599413
 31
0.0
 11
1819.513458114665
 21
264.1762495018911
 31
0.0
 11
1818.721507967015
 21
264.6824027359198
 31
0.0
 11
1817.896336539623
 21
264.3247950008599
 31
0.0
  0
SPLINE
  5
CB9F
330
18
100
AcDbEntity
  8
DRAW3
100
AcDbSpline
210
0.0
220
0.0
230
1.0
 70
     8
 71
     3
 72
    10
 73
     6
 74
     0
 42
0.0000000001
 43
0.0000000001
 40
5.438980427007956
 40
5.438980427007956
 40
5.438980427007956
 40
5.438980427007956
 40
6.821020915320963
 40
11.08660824925465
 40
12.77653598230923
 40
12.77653598230923
 40
12.77653598230923
 40
12.77653598230923
 10
2127.437396521493
 20
145.2503889960481
 30
0.0
 10
2127.450410153886
 20
143.9889994598428
 30
0.0
 10
2127.152891490086
 20
142.3939680891439
 30
0.0
 10
2124.431298201521
 20
140.6660792151552
 30
0.0
 10
2123.068721504122
 20
138.3417559250127
 30
0.0
 10
2123.198713942271
 20
137.2503889960481
 30
0.0
  0
LINE
  5
CBA0
330
18
100
AcDbEntity
  8
DRAW2
100
AcDbLine
 10
2046.360825772593
 20
402.2503889960482
 30
0.0
 11
2067.360885772593
 21
402.2503889960482
 31
0.0
  0
LINE
  5
CBA1
330
18
100
AcDbEntity
  8
DRAW2
100
AcDbLine
 10
2048.360735772593
 20
404.2503289960482
 30
0.0
 11
2065.360945772593
 21
404.2503289960482
 31
0.0
  0
LINE
  5
CBA2
330
18
100
AcDbEntity
  8
DRAW2
100
AcDbLine
 10
2048.542819729925
 20
367.2503889960482
 30
0.0
 11
2067.539401508472
 21
367.2503889960482
 31
0.0
  0
CIRCLE
  5
CBA4
330
18
100
AcDbEntity
  8
DRAW2
100
AcDbCircle
 10
2058.041110619198
 20
367.0701941494428
 30
0.0
 40
9.5
  0
LINE
  5
CBA6
330
18
100
AcDbEntity
  8
DRAW2
100
AcDbLine
 10
2048.542819729925
 20
303.2503889960482
 30
0.0
 11
2067.539401508472
 21
303.2503889960482
 31
0.0
  0
CIRCLE
  5
CBAA
330
18
100
AcDbEntity
  8
DRAW2
100
AcDbCircle
 10
2058.041110619198
 20
303.4305838426535
 30
0.0
 40
9.5
  0
CIRCLE
  5
CBAE
330
18
100
AcDbEntity
  8
DRAW2
100
AcDbCircle
 10
2089.860915772593
 20
335.2503889960483
 30
0.0
 40
62.5
  0
LINE
  5
CBAF
330
18
100
AcDbEntity
  8
DRAW2
100
AcDbLine
 10
2048.542819729925
 20
105.2503889960481
 30
0.0
 11
2067.539401508472
 21
105.2503889960481
 31
0.0
  0
CIRCLE
  5
CBB0
330
18
100
AcDbEntity
  8
DRAW2
100
AcDbCircle
 10
2058.041110619198
 20
105.0701941494427
 30
0.0
 40
9.5
  0
LINE
  5
CBB3
330
18
100
AcDbEntity
  8
DRAW2
100
AcDbLine
 10
1882.518641474204
 20
293.6787807847576
 30
0.0
 11
1928.304857699425
 21
293.6787807847585
 31
0.0
  0
LINE
  5
CBB4
330
18
100
AcDbEntity
  8
DRAW2
100
AcDbLine
 10
1882.518641474204
 20
299.6787807847575
 30
0.0
 11
1927.304546970377
 21
299.6787807847585
 31
0.0
  0
LINE
  5
CBB6
330
18
100
AcDbEntity
  8
DRAW2
100
AcDbLine
 10
1823.846336539614
 20
197.3283543316747
 30
0.0
 11
1823.846336539614
 21
207.3283543316752
 31
0.0
  0
LINE
  5
CBB9
330
18
100
AcDbEntity
  8
DRAW2
100
AcDbLine
 10
1794.446336539613
 20
197.3283543316747
 30
0.0
 11
1794.446336539613
 21
207.3283543316752
 31
0.0
  0
LINE
  5
CBBA
330
18
100
AcDbEntity
  8
DRAW2
100
AcDbLine
 10
1803.846336539614
 20
197.3283543316747
 30
0.0
 11
1803.846336539614
 21
207.3283543316752
 31
0.0
  0
LINE
  5
CBBB
330
18
100
AcDbEntity
  8
DRAW2
100
AcDbLine
 10
1801.446336539614
 20
197.3283543316747
 30
0.0
 11
1801.446336539614
 21
207.3283543316752
 31
0.0
  0
LINE
  5
CBBC
330
18
100
AcDbEntity
  8
DRAW2
100
AcDbLine
 10
1796.846336539614
 20
197.3283543316747
 30
0.0
 11
1796.846336539614
 21
207.3283543316752
 31
0.0
  0
LINE
  5
CBBD
330
18
100
AcDbEntity
  8
DRAW2
100
AcDbLine
 10
1814.446336539614
 20
197.3283543316747
 30
0.0
 11
1814.446336539614
 21
207.3283543316752
 31
0.0
  0
LINE
  5
CBBE
330
18
100
AcDbEntity
  8
DRAW2
100
AcDbLine
 10
1816.846336539614
 20
197.3283543316747
 30
0.0
 11
1816.846336539614
 21
207.3283543316752
 31
0.0
  0
LINE
  5
CBBF
330
18
100
AcDbEntity
  8
DRAW2
100
AcDbLine
 10
1821.446336539613
 20
197.3283543316747
 30
0.0
 11
1821.446336539613
 21
207.3283543316752
 31
0.0
  0
LINE
  5
CBC2
330
18
100
AcDbEntity
  8
DRAW2
100
AcDbLine
 10
1794.446336539613
 20
197.3283543316747
 30
0.0
 11
1796.846336539614
 21
197.3283543316752
 31
0.0
  0
LINE
  5
CBC3
330
18
100
AcDbEntity
  8
DRAW2
100
AcDbLine
 10
1801.446336539614
 20
197.3283543316747
 30
0.0
 11
1803.846336539614
 21
197.3283543316752
 31
0.0
  0
LINE
  5
CBC4
330
18
100
AcDbEntity
  8
DRAW2
100
AcDbLine
 10
1814.446336539614
 20
197.3283543316747
 30
0.0
 11
1816.846336539614
 21
197.3283543316752
 31
0.0
  0
LINE
  5
CBC5
330
18
100
AcDbEntity
  8
DRAW2
100
AcDbLine
 10
1821.446336539613
 20
197.3283543316747
 30
0.0
 11
1823.846336539614
 21
197.3283543316752
 31
0.0
  0
LINE
  5
CBC6
330
18
100
AcDbEntity
  8
DRAW2
100
AcDbLine
 10
1844.146336539617
 20
297.0537807847582
 30
0.0
 11
1882.518641474204
 21
297.0537807847606
 31
0.0
  0
LINE
  5
CBC7
330
18
100
AcDbEntity
  8
DRAW2
100
AcDbLine
 10
1837.146336539619
 20
296.0537807847578
 30
0.0
 11
1882.518641474204
 21
296.0537807847606
 31
0.0
  0
LINE
  5
CBC9
330
18
100
AcDbEntity
  8
DRAW2
100
AcDbLine
 10
1845.146336539615
 20
295.0537807847587
 30
0.0
 11
1882.518641474204
 21
295.0537807847587
 31
0.0
  0
LINE
  5
CBCB
330
18
100
AcDbEntity
  8
DRAW2
100
AcDbLine
 10
1821.271336539614
 20
298.3037807847578
 30
0.0
 11
1882.518641474204
 21
298.3037807847587
 31
0.0
  0
LINE
  5
CBCD
330
18
100
AcDbEntity
  8
DRAW2
100
AcDbLine
 10
1817.146336539621
 20
257.3870764409103
 30
0.0
 11
1817.146336539605
 21
237.3870764409102
 31
0.0
  0
LINE
  5
CBCE
330
18
100
AcDbEntity
  8
DRAW2
100
AcDbLine
 10
1821.146336539623
 20
257.3870764409103
 30
0.0
 11
1821.146336539613
 21
237.3870764409102
 31
0.0
  0
LINE
  5
CBCF
330
18
100
AcDbEntity
  8
DRAW2
100
AcDbLine
 10
1795.021336539613
 20
218.3283543316743
 30
0.0
 11
1795.021336539614
 21
262.4843428804005
 31
0.0
  0
LINE
  5
CBD0
330
18
100
AcDbEntity
  8
DRAW2
100
AcDbLine
 10
1796.271336539613
 20
218.3283543316743
 30
0.0
 11
1796.271336539614
 21
262.6438907599395
 31
0.0
  0
LINE
  5
CBD1
330
18
100
AcDbEntity
  8
DRAW2
100
AcDbLine
 10
1802.146336539614
 20
218.3283543316743
 30
0.0
 11
1802.146336539614
 21
262.4843428804006
 31
0.0
  0
LINE
  5
CBD2
330
18
100
AcDbEntity
  8
DRAW2
100
AcDbLine
 10
1803.146336539614
 20
218.3283543316743
 30
0.0
 11
1803.146336539614
 21
262.643890759941
 31
0.0
  0
ARC
  5
CBD5
330
18
100
AcDbEntity
  8
DRAW2
100
AcDbCircle
 10
1794.146336539614
 20
236.0386617794751
 30
0.0
 40
23.75
100
AcDbArc
 50
340.4757284897099
 51
0.0
  0
ARC
  5
CBD6
330
18
100
AcDbEntity
  8
DRAW2
100
AcDbCircle
 10
1844.146336539614
 20
236.3870764409061
 30
0.0
 40
24.0
100
AcDbArc
 50
180.0
 51
199.9484435887994
  0
ARC
  5
CBD7
330
18
100
AcDbEntity
  8
DRAW2
100
AcDbCircle
 10
1844.146336539614
 20
236.3870764409061
 30
0.0
 40
25.0
100
AcDbArc
 50
180.0
 51
199.9484435887994
  0
ARC
  5
CBD8
330
18
100
AcDbEntity
  8
DRAW2
100
AcDbCircle
 10
1794.146336539614
 20
236.0386617794751
 30
0.0
 40
25.0
100
AcDbArc
 50
340.4757284897099
 51
0.0
  0
LINE
  5
CBD9
330
18
100
AcDbEntity
  8
DRAW2
100
AcDbLine
 10
1806.646336539614
 20
214.3283543316747
 30
0.0
 11
1806.646336539614
 21
218.3283543316743
 31
0.0
  0
LINE
  5
CBDA
330
18
100
AcDbEntity
  8
DRAW2
100
AcDbLine
 10
1794.446336539613
 20
207.3283543316747
 30
0.0
 11
1796.846336539614
 21
207.3283543316747
 31
0.0
  0
LINE
  5
CBDB
330
18
100
AcDbEntity
  8
DRAW2
100
AcDbLine
 10
1800.046336539614
 20
209.8283543316747
 30
0.0
 11
1801.446336539614
 21
207.3283543316747
 31
0.0
  0
LINE
  5
CBDC
330
18
100
AcDbEntity
  8
DRAW2
100
AcDbLine
 10
1801.446336539614
 20
207.3283543316747
 30
0.0
 11
1803.846336539614
 21
207.3283543316747
 31
0.0
  0
LINE
  5
CBDD
330
18
100
AcDbEntity
  8
DRAW2
100
AcDbLine
 10
1798.246336539613
 20
209.8283543316747
 30
0.0
 11
1796.846336539614
 21
207.3283543316747
 31
0.0
  0
LINE
  5
CBDE
330
18
100
AcDbEntity
  8
DRAW2
100
AcDbLine
 10
1798.396336539614
 20
211.3283543316752
 30
0.0
 11
1799.896336539614
 21
211.3283543316752
 31
0.0
  0
LINE
  5
CBDF
330
18
100
AcDbEntity
  8
DRAW2
100
AcDbLine
 10
1805.246336539614
 20
209.8283543316747
 30
0.0
 11
1803.846336539614
 21
207.3283543316747
 31
0.0
  0
LINE
  5
CBE0
330
18
100
AcDbEntity
  8
DRAW2
100
AcDbLine
 10
1800.046336539614
 20
209.8283543316747
 30
0.0
 11
1805.246336539614
 21
209.8283543316747
 31
0.0
  0
LINE
  5
CBE1
330
18
100
AcDbEntity
  8
DRAW2
100
AcDbLine
 10
1794.396336539614
 20
213.8283543316751
 30
0.0
 11
1794.396336539614
 21
214.3283543316742
 31
0.0
  0
LINE
  5
CBE2
330
18
100
AcDbEntity
  8
DRAW2
100
AcDbLine
 10
1796.896336539614
 20
213.8283543316751
 30
0.0
 11
1796.896336539614
 21
214.3283543316742
 31
0.0
  0
LINE
  5
CBE3
330
18
100
AcDbEntity
  8
DRAW2
100
AcDbLine
 10
1801.396336539614
 20
213.8283543316751
 30
0.0
 11
1801.396336539614
 21
214.3283543316742
 31
0.0
  0
LINE
  5
CBE4
330
18
100
AcDbEntity
  8
DRAW2
100
AcDbLine
 10
1803.896336539614
 20
213.8283543316751
 30
0.0
 11
1803.896336539614
 21
214.3283543316742
 31
0.0
  0
LINE
  5
CBE5
330
18
100
AcDbEntity
  8
DRAW2
100
AcDbLine
 10
1806.646336539614
 20
214.3283543316747
 30
0.0
 11
1799.896336539614
 21
214.3283543316742
 31
0.0
  0
LINE
  5
CBE6
330
18
100
AcDbEntity
  8
DRAW2
100
AcDbLine
 10
1800.046336539613
 20
213.8283543316747
 30
0.0
 11
1805.246336539614
 21
213.8283543316747
 31
0.0
  0
LINE
  5
CBE7
330
18
100
AcDbEntity
  8
DRAW2
100
AcDbLine
 10
1800.046336539614
 20
209.8283543316747
 30
0.0
 11
1800.046336539613
 21
213.8283543316747
 31
0.0
  0
LINE
  5
CBE8
330
18
100
AcDbEntity
  8
DRAW2
100
AcDbLine
 10
1798.246336539613
 20
209.8283543316747
 30
0.0
 11
1798.246336539613
 21
213.8283543316747
 31
0.0
  0
LINE
  5
CBE9
330
18
100
AcDbEntity
  8
DRAW2
100
AcDbLine
 10
1798.396336539614
 20
211.3283543316752
 30
0.0
 11
1798.396336539614
 21
214.3283543316742
 31
0.0
  0
LINE
  5
CBEA
330
18
100
AcDbEntity
  8
DRAW2
100
AcDbLine
 10
1799.896336539614
 20
211.3283543316752
 30
0.0
 11
1799.896336539614
 21
214.3283543316742
 31
0.0
  0
LINE
  5
CBEB
330
18
100
AcDbEntity
  8
DRAW2
100
AcDbLine
 10
1805.246336539614
 20
209.8283543316747
 30
0.0
 11
1805.246336539614
 21
213.8283543316747
 31
0.0
  0
LINE
  5
CBEC
330
18
100
AcDbEntity
  8
DRAW2
100
AcDbLine
 10
1826.646336539614
 20
214.3283543316747
 30
0.0
 11
1826.646336539614
 21
218.3283543316743
 31
0.0
  0
LINE
  5
CBED
330
18
100
AcDbEntity
  8
DRAW2
100
AcDbLine
 10
1825.246336539614
 20
209.8283543316747
 30
0.0
 11
1823.846336539613
 21
207.3283543316747
 31
0.0
  0
LINE
  5
CBEE
330
18
100
AcDbEntity
  8
DRAW2
100
AcDbLine
 10
1823.896336539614
 20
213.8283543316751
 30
0.0
 11
1823.896336539614
 21
214.3283543316742
 31
0.0
  0
LINE
  5
CBEF
330
18
100
AcDbEntity
  8
DRAW2
100
AcDbLine
 10
1825.246336539614
 20
209.8283543316747
 30
0.0
 11
1825.246336539614
 21
213.8283543316747
 31
0.0
  0
LINE
  5
CBF0
330
18
100
AcDbEntity
  8
DRAW2
100
AcDbLine
 10
1811.646336539614
 20
214.3283543316747
 30
0.0
 11
1811.646336539614
 21
218.3283543316743
 31
0.0
  0
ARC
  5
CBF3
330
18
100
AcDbEntity
  8
DRAW2
100
AcDbCircle
 10
1841.271336539613
 20
219.3283543316737
 30
0.0
 40
26.25
100
AcDbArc
 50
160.4757284897099
 51
180.0
  0
ARC
  5
CBF4
330
18
100
AcDbEntity
  8
DRAW2
100
AcDbCircle
 10
1797.146336539614
 20
219.3283543316742
 30
0.0
 40
26.0
100
AcDbArc
 50
0.0
 51
19.94844358879943
  0
ARC
  5
CBF5
330
18
100
AcDbEntity
  8
DRAW2
100
AcDbCircle
 10
1797.146336539614
 20
219.3283543316742
 30
0.0
 40
25.0
100
AcDbArc
 50
0.0
 51
19.94844358879943
  0
ARC
  5
CBF6
330
18
100
AcDbEntity
  8
DRAW2
100
AcDbCircle
 10
1841.271336539613
 20
219.3283543316737
 30
0.0
 40
25.0
100
AcDbArc
 50
160.4757284897099
 51
180.0
  0
LINE
  5
CBF7
330
18
100
AcDbEntity
  8
DRAW2
100
AcDbLine
 10
1815.021336539613
 20
219.3283543316738
 30
0.0
 11
1815.021336539613
 21
218.3283543316743
 31
0.0
  0
LINE
  5
CBF8
330
18
100
AcDbEntity
  8
DRAW2
100
AcDbLine
 10
1816.271336539613
 20
219.3283543316738
 30
0.0
 11
1816.271336539613
 21
218.3283543316743
 31
0.0
  0
LINE
  5
CBF9
330
18
100
AcDbEntity
  8
DRAW2
100
AcDbLine
 10
1822.146336539614
 20
219.3283543316742
 30
0.0
 11
1822.146336539614
 21
218.3283543316743
 31
0.0
  0
LINE
  5
CBFA
330
18
100
AcDbEntity
  8
DRAW2
100
AcDbLine
 10
1823.146336539614
 20
219.3283543316742
 30
0.0
 11
1823.146336539614
 21
218.3283543316743
 31
0.0
  0
LINE
  5
CBFB
330
18
100
AcDbEntity
  8
DRAW2
100
AcDbLine
 10
1818.396336539614
 20
211.3283543316752
 30
0.0
 11
1819.896336539614
 21
211.3283543316752
 31
0.0
  0
LINE
  5
CBFC
330
18
100
AcDbEntity
  8
DRAW2
100
AcDbLine
 10
1814.446336539614
 20
207.3283543316747
 30
0.0
 11
1816.846336539614
 21
207.3283543316747
 31
0.0
  0
LINE
  5
CBFD
330
18
100
AcDbEntity
  8
DRAW2
100
AcDbLine
 10
1818.246336539614
 20
209.8283543316747
 30
0.0
 11
1816.846336539613
 21
207.3283543316747
 31
0.0
  0
LINE
  5
CBFE
330
18
100
AcDbEntity
  8
DRAW2
100
AcDbLine
 10
1820.046336539614
 20
209.8283543316747
 30
0.0
 11
1821.446336539613
 21
207.3283543316747
 31
0.0
  0
LINE
  5
CBFF
330
18
100
AcDbEntity
  8
DRAW2
100
AcDbLine
 10
1813.046336539614
 20
209.8283543316747
 30
0.0
 11
1818.246336539614
 21
209.8283543316747
 31
0.0
  0
LINE
  5
CC00
330
18
100
AcDbEntity
  8
DRAW2
100
AcDbLine
 10
1813.046336539614
 20
209.8283543316747
 30
0.0
 11
1814.446336539614
 21
207.3283543316747
 31
0.0
  0
LINE
  5
CC01
330
18
100
AcDbEntity
  8
DRAW2
100
AcDbLine
 10
1811.646336539614
 20
214.3283543316747
 30
0.0
 11
1818.396336539614
 21
214.3283543316742
 31
0.0
  0
LINE
  5
CC02
330
18
100
AcDbEntity
  8
DRAW2
100
AcDbLine
 10
1821.396336539614
 20
213.8283543316751
 30
0.0
 11
1821.396336539614
 21
214.3283543316742
 31
0.0
  0
LINE
  5
CC03
330
18
100
AcDbEntity
  8
DRAW2
100
AcDbLine
 10
1816.896336539614
 20
213.8283543316751
 30
0.0
 11
1816.896336539614
 21
214.3283543316742
 31
0.0
  0
LINE
  5
CC04
330
18
100
AcDbEntity
  8
DRAW2
100
AcDbLine
 10
1814.396336539614
 20
213.8283543316751
 30
0.0
 11
1814.396336539614
 21
214.3283543316742
 31
0.0
  0
LINE
  5
CC05
330
18
100
AcDbEntity
  8
DRAW2
100
AcDbLine
 10
1813.046336539613
 20
213.8283543316747
 30
0.0
 11
1818.246336539614
 21
213.8283543316747
 31
0.0
  0
LINE
  5
CC06
330
18
100
AcDbEntity
  8
DRAW2
100
AcDbLine
 10
1819.896336539614
 20
211.3283543316752
 30
0.0
 11
1819.896336539614
 21
214.3283543316742
 31
0.0
  0
LINE
  5
CC07
330
18
100
AcDbEntity
  8
DRAW2
100
AcDbLine
 10
1818.396336539614
 20
211.3283543316752
 30
0.0
 11
1818.396336539614
 21
214.3283543316742
 31
0.0
  0
LINE
  5
CC08
330
18
100
AcDbEntity
  8
DRAW2
100
AcDbLine
 10
1818.246336539614
 20
209.8283543316747
 30
0.0
 11
1818.246336539614
 21
213.8283543316747
 31
0.0
  0
LINE
  5
CC09
330
18
100
AcDbEntity
  8
DRAW2
100
AcDbLine
 10
1820.046336539614
 20
209.8283543316747
 30
0.0
 11
1820.046336539613
 21
213.8283543316747
 31
0.0
  0
LINE
  5
CC0A
330
18
100
AcDbEntity
  8
DRAW2
100
AcDbLine
 10
1813.046336539614
 20
209.8283543316747
 30
0.0
 11
1813.046336539613
 21
213.8283543316747
 31
0.0
  0
LINE
  5
CC0B
330
18
100
AcDbEntity
  8
DRAW2
100
AcDbLine
 10
1811.646336539614
 20
218.3283543316743
 30
0.0
 11
1826.646336539614
 21
218.3283543316747
 31
0.0
  0
LINE
  5
CC0C
330
18
100
AcDbEntity
  8
DRAW2
100
AcDbLine
 10
1820.046336539614
 20
209.8283543316747
 30
0.0
 11
1825.246336539614
 21
209.8283543316747
 31
0.0
  0
LINE
  5
CC0D
330
18
100
AcDbEntity
  8
DRAW2
100
AcDbLine
 10
1821.446336539613
 20
207.3283543316747
 30
0.0
 11
1823.846336539614
 21
207.3283543316747
 31
0.0
  0
LINE
  5
CC0E
330
18
100
AcDbEntity
  8
DRAW2
100
AcDbLine
 10
1820.046336539613
 20
213.8283543316747
 30
0.0
 11
1825.246336539614
 21
213.8283543316747
 31
0.0
  0
LINE
  5
CC0F
330
18
100
AcDbEntity
  8
DRAW2
100
AcDbLine
 10
1826.646336539614
 20
214.3283543316747
 30
0.0
 11
1819.896336539614
 21
214.3283543316742
 31
0.0
  0
TEXT
  5
CC10
330
18
100
AcDbEntity
  8
DRAW4
100
AcDbText
 10
1820.746336539615
 20
246.4607342292929
 30
0.0
 40
3.2
  1
A
 50
90.0
 51
10.0
  7
DIMFONT
 72
     1
 11
1819.146336539616
 21
247.8321628007214
 31
0.0
100
AcDbText
 73
     2
  0
LINE
  5
CC13
330
18
100
AcDbEntity
  8
DRAW2
100
AcDbLine
 10
1819.146336539614
 20
236.0386617794751
 30
0.0
 11
1819.146336539614
 21
237.3870764409102
 31
0.0
  0
LINE
  5
CC14
330
18
100
AcDbEntity
  8
DRAW2
100
AcDbLine
 10
1820.146336539609
 20
236.3870764409061
 30
0.0
 11
1820.146336539609
 21
237.3870764409102
 31
0.0
  0
LINE
  5
CC15
330
18
100
AcDbEntity
  8
DRAW2
100
AcDbLine
 10
1817.896336539609
 20
236.0386617794751
 30
0.0
 11
1817.896336539609
 21
237.3870764409102
 31
0.0
  0
LINE
  5
CC16
330
18
100
AcDbEntity
  8
DRAW2
100
AcDbLine
 10
1817.146336539605
 20
237.3870764409102
 30
0.0
 11
1821.146336539613
 21
237.3870764409102
 31
0.0
  0
ARC
  5
CC18
330
18
100
AcDbEntity
  8
DRAW2
100
AcDbCircle
 10
1828.146336539615
 20
270.0537807847585
 30
0.0
 40
25.0
100
AcDbArc
 50
90.0
 51
180.0
  0
ARC
  5
CC19
330
18
100
AcDbEntity
  8
DRAW2
100
AcDbCircle
 10
1828.146336539615
 20
270.0537807847585
 30
0.0
 40
26.0
100
AcDbArc
 50
90.0
 51
180.0
  0
ARC
  5
CC1C
330
18
100
AcDbEntity
  8
DRAW2
100
AcDbCircle
 10
1844.146336539618
 20
272.0537807847577
 30
0.0
 40
25.0
100
AcDbArc
 50
90.0
 51
180.0
  0
ARC
  5
CC1D
330
18
100
AcDbEntity
  8
DRAW2
100
AcDbCircle
 10
1844.146336539618
 20
272.0537807847577
 30
0.0
 40
26.25
100
AcDbArc
 50
90.0
 51
180.0
  0
ARC
  5
CC1E
330
18
100
AcDbEntity
  8
DRAW2
100
AcDbCircle
 10
1845.146336539616
 20
270.053780784759
 30
0.0
 40
25.0
100
AcDbArc
 50
90.0
 51
180.0
  0
ARC
  5
CC1F
330
18
100
AcDbEntity
  8
DRAW2
100
AcDbCircle
 10
1845.146336539616
 20
270.053780784759
 30
0.0
 40
26.0
100
AcDbArc
 50
90.0
 51
180.0
  0
LINE
  5
CC20
330
18
100
AcDbEntity
  8
DRAW2
100
AcDbLine
 10
1821.271336539614
 20
297.0537807847577
 30
0.0
 11
1836.142431242828
 21
297.0537807847582
 31
0.0
  0
LINE
  5
CC22
330
18
100
AcDbEntity
  8
DRAW2
100
AcDbLine
 10
1795.021336539615
 20
264.484342880401
 30
0.0
 11
1795.021336539615
 21
272.0537807847581
 31
0.0
  0
LINE
  5
CC23
330
18
100
AcDbEntity
  8
DRAW2
100
AcDbLine
 10
1796.271336539615
 20
264.6438907599417
 30
0.0
 11
1796.271336539615
 21
272.0537807847581
 31
0.0
  0
LINE
  5
CC24
330
18
100
AcDbEntity
  8
DRAW2
100
AcDbLine
 10
1802.146336539614
 20
264.4843428804006
 30
0.0
 11
1802.146336539614
 21
270.0537807847581
 31
0.0
  0
LINE
  5
CC26
330
18
100
AcDbEntity
  8
DRAW2
100
AcDbLine
 10
1803.146336539614
 20
264.6438907599413
 30
0.0
 11
1803.146336539614
 21
270.0537807847581
 31
0.0
  0
LINE
  5
CC28
330
18
100
AcDbEntity
  8
DRAW2
100
AcDbLine
 10
1817.896336539622
 20
257.3870764409103
 30
0.0
 11
1817.896336539622
 21
262.3247950008592
 31
0.0
  0
LINE
  5
CC29
330
18
100
AcDbEntity
  8
DRAW2
100
AcDbLine
 10
1819.146336539622
 20
257.3870764409103
 30
0.0
 11
1819.146336539622
 21
262.390588021761
 31
0.0
  0
LINE
  5
CC2B
330
18
100
AcDbEntity
  8
DRAW2
100
AcDbLine
 10
1820.146336539622
 20
257.3870764409103
 30
0.0
 11
1820.146336539622
 21
262.6438907599409
 31
0.0
  0
LINE
  5
CC2C
330
18
100
AcDbEntity
  8
DRAW2
100
AcDbLine
 10
1817.146336539621
 20
257.3870764409103
 30
0.0
 11
1821.146336539623
 21
257.3870764409103
 31
0.0
  0
LINE
  5
CC2F
330
18
100
AcDbEntity
  8
DRAW2
100
AcDbLine
 10
1817.896336539623
 20
264.3247950008599
 30
0.0
 11
1817.896336539623
 21
272.0537807847577
 31
0.0
  0
LINE
  5
CC30
330
18
100
AcDbEntity
  8
DRAW2
100
AcDbLine
 10
1819.146336539622
 20
264.3905880217612
 30
0.0
 11
1819.146336539622
 21
272.0537807847572
 31
0.0
  0
LINE
  5
CC31
330
18
100
AcDbEntity
  8
DRAW2
100
AcDbLine
 10
1820.146336539622
 20
264.6438907599413
 30
0.0
 11
1820.146336539622
 21
270.0537807847585
 31
0.0
  0
LINE
  5
CC32
330
18
100
AcDbEntity
  8
DRAW2
100
AcDbLine
 10
1828.146336539613
 20
296.0537807847573
 30
0.0
 11
1833.51325138055
 21
296.0537807847578
 31
0.0
  0
LINE
  5
CC34
330
18
100
AcDbEntity
  8
DRAW2
100
AcDbLine
 10
1828.146336539614
 20
295.0537807847582
 30
0.0
 11
1831.494755610738
 21
295.0537807847582
 31
0.0
  0
LINE
  5
CC35
330
18
100
AcDbEntity
  8
DRAW2
100
AcDbLine
 10
1834.348377568486
 20
295.0537807847582
 30
0.0
 11
1838.004908111069
 21
295.0537807847582
 31
0.0
  0
LINE
  5
CC36
330
18
100
AcDbEntity
  8
DRAW2
100
AcDbLine
 10
1882.518641474205
 20
299.678780784758
 30
0.0
 11
1882.518641474204
 21
293.678780784758
 31
0.0
  0
CIRCLE
  5
CC39
330
18
100
AcDbEntity
  8
DRAW2
100
AcDbCircle
 10
1997.860915772593
 20
204.2503955568693
 30
0.0
 40
13.00003000000009
  0
CIRCLE
  5
CC3A
330
18
100
AcDbEntity
  8
DRAW2
100
AcDbCircle
 10
1997.860915772593
 20
204.2503955568693
 30
0.0
 40
11.15201890084368
  0
ARC
  5
CC3B
330
18
100
AcDbEntity
  8
DRAW2
100
AcDbCircle
 10
2089.860915772593
 20
204.2503889960481
 30
0.0
 40
110.0
100
AcDbArc
 50
118.3862947502528
 51
241.6137052497471
  0
LINE
  5
CC3D
330
18
100
AcDbEntity
  8
DRAW2
100
AcDbLine
 10
1952.020915772592
 20
194.0002689960724
 30
0.0
 11
1980.339524985286
 21
194.0002689960712
 31
0.0
  0
LINE
  5
CC3E
330
18
100
AcDbEntity
  8
DRAW2
100
AcDbLine
 10
1952.020915772591
 20
164.5002689960723
 30
0.0
 11
1987.294215718494
 21
164.5002689960711
 31
0.0
  0
LINE
  5
CC40
330
18
100
AcDbEntity
  8
DRAW2
100
AcDbLine
 10
1952.020915772592
 20
177.2502689960727
 30
0.0
 11
1952.020915772591
 21
164.5002689960724
 31
0.0
  0
LINE
  5
CC41
330
18
100
AcDbEntity
  8
DRAW2
100
AcDbLine
 10
1954.520915772592
 20
181.2502689960724
 30
0.0
 11
1954.520915772592
 21
177.2502689960723
 31
0.0
  0
LINE
  5
CC42
330
18
100
AcDbEntity
  8
DRAW2
100
AcDbLine
 10
1952.020915772592
 20
177.2502689960725
 30
0.0
 11
1954.520915772592
 21
177.2502689960723
 31
0.0
  0
LINE
  5
CC43
330
18
100
AcDbEntity
  8
DRAW2
100
AcDbLine
 10
1952.020915772592
 20
181.2502689960724
 30
0.0
 11
1954.520915772592
 21
181.2502689960723
 31
0.0
  0
LINE
  5
CC44
330
18
100
AcDbEntity
  8
DRAW2
100
AcDbLine
 10
1952.020915772592
 20
194.0002689960724
 30
0.0
 11
1952.020915772592
 21
181.2502689960725
 31
0.0
  0
LINE
  5
CC45
330
18
100
AcDbEntity
  8
DRAW3
100
AcDbLine
 10
2006.088894739419
 20
128.2426518712179
 30
0.0
 11
2008.441514575228
 21
130.3453914271724
 31
0.0
  0
LINE
  5
CC46
330
18
100
AcDbEntity
  8
DRAW2
100
AcDbLine
 10
2006.462354340647
 20
127.7975800497658
 30
0.0
 11
2008.841733813089
 21
129.9242370043564
 31
0.0
  0
LINE
  5
CC49
330
18
100
AcDbEntity
  8
DRAW2
100
AcDbLine
 10
2006.462354340647
 20
127.7975800497658
 30
0.0
 11
2000.087588570032
 21
135.3947300588429
 31
0.0
  0
LINE
  5
CC4A
330
18
100
AcDbEntity
  8
DRAW2
100
AcDbLine
 10
2000.087588570032
 20
135.3947300588429
 30
0.0
 11
2002.595111736278
 21
137.3686713059744
 31
0.0
  0
LINE
  5
CC4B
330
18
100
AcDbEntity
  8
DRAW3
100
AcDbLine
 10
2000.46104817126
 20
134.9496582373908
 30
0.0
 11
2002.940370535761
 21
136.9013995995856
 31
0.0
  0
ARC
  5
CC4D
330
18
100
AcDbEntity
  8
DRAW2
100
AcDbCircle
 10
2043.860910090756
 20
124.5760551282908
 30
0.0
 40
13.00003000000009
100
AcDbArc
 50
7.442353351276342
 51
256.2934441754888
  0
ARC
  5
CC4E
330
18
100
AcDbEntity
  8
DRAW2
100
AcDbCircle
 10
2043.860910090756
 20
124.5760551282908
 30
0.0
 40
11.15201890084368
100
AcDbArc
 50
2.819065063565036
 51
260.9167324632159
  0
LINE
  5
CC50
330
18
100
AcDbEntity
  8
DRAW2
100
AcDbLine
 10
1990.138817220577
 20
272.7945995311293
 30
0.0
 11
1991.553880730038
 21
271.9776122330215
 31
0.0
  0
LINE
  5
CC51
330
18
100
AcDbEntity
  8
DRAW2
100
AcDbLine
 10
1988.742778957426
 20
266.2116923804976
 30
0.0
 11
1993.16215097058
 21
263.6601667590541
 31
0.0
  0
LINE
  5
CC52
330
18
100
AcDbEntity
  8
DRAW2
100
AcDbLine
 10
1987.293286980038
 20
263.7010986304974
 30
0.0
 11
1991.712658993192
 21
261.1495730090539
 31
0.0
  0
LINE
  5
CC53
330
18
100
AcDbEntity
  8
DRAW2
100
AcDbLine
 10
1992.314474480038
 20
273.2949992519406
 30
0.0
 11
1987.293286980038
 21
264.5980473876113
 31
0.0
  0
ARC
  5
CC54
330
18
100
AcDbEntity
  8
DRAW2
100
AcDbCircle
 10
1998.112442389592
 20
264.1495730090539
 30
0.0
 40
9.593900621443355
100
AcDbArc
 50
132.4120462260158
 51
167.5879537739893
  0
LINE
  5
CC56
330
18
100
AcDbEntity
  8
DRAW2
100
AcDbLine
 10
1983.080160171667
 20
235.3006976967817
 30
0.0
 11
1983.690531221088
 21
233.0227619288732
 31
0.0
  0
LINE
  5
CC57
330
18
100
AcDbEntity
  8
DRAW2
100
AcDbLine
 10
1983.080160171667
 20
235.3006976967817
 30
0.0
 11
1985.889867953138
 21
240.1672543287128
 31
0.0
  0
LINE
  5
CC58
330
18
100
AcDbEntity
  8
DRAW2
100
AcDbLine
 10
1979.179525077057
 20
278.5445995311293
 30
0.0
 11
1950.927878441881
 21
294.8556953209983
 31
0.0
  0
LINE
  5
CC59
330
18
100
AcDbEntity
  8
DRAW2
100
AcDbLine
 10
1976.179525077057
 20
273.3484471084227
 30
0.0
 11
1947.927878441882
 21
289.6595428982917
 31
0.0
  0
ARC
  5
CC5A
330
18
100
AcDbEntity
  8
DRAW2
100
AcDbCircle
 10
1932.927878441882
 20
263.6787807847587
 30
0.0
 40
30.0
100
AcDbArc
 50
59.99999999999997
 51
90.0
  0
ARC
  5
CC5B
330
18
100
AcDbEntity
  8
DRAW2
100
AcDbCircle
 10
1932.927878441882
 20
263.6787807847587
 30
0.0
 40
36.0
100
AcDbArc
 50
59.99999999999997
 51
90.0
  0
LINE
  5
CC5D
330
18
100
AcDbEntity
  8
DRAW2
100
AcDbLine
 10
1929.304546970377
 20
299.6787807847585
 30
0.0
 11
1932.927878441881
 21
299.6787807847587
 31
0.0
  0
LINE
  5
CC5E
330
18
100
AcDbEntity
  8
DRAW2
100
AcDbLine
 10
1930.304857699425
 20
293.6787807847586
 30
0.0
 11
1932.927878441881
 21
293.6787807847587
 31
0.0
  0
LINE
  5
CC5F
330
18
100
AcDbEntity
  8
DRAW2
100
AcDbLine
 10
1980.679525077056
 20
281.1426757424831
 30
0.0
 11
1974.679525077056
 21
270.7503708970694
 31
0.0
  0
LINE
  5
CC60
330
18
100
AcDbEntity
  8
DRAW2
100
AcDbLine
 10
1976.411575884625
 20
269.7503708970693
 30
0.0
 11
1974.679525077056
 21
270.7503708970694
 31
0.0
  0
LINE
  5
CC61
330
18
100
AcDbEntity
  8
DRAW2
100
AcDbLine
 10
1988.772791816792
 20
274.1606249349138
 30
0.0
 11
1989.638817220577
 21
273.6606249349136
 31
0.0
  0
LINE
  5
CC62
330
18
100
AcDbEntity
  8
DRAW3
100
AcDbLine
 10
1988.522791816793
 20
273.7276122330215
 30
0.0
 11
1990.138817220577
 21
272.7945995311293
 31
0.0
  0
LINE
  5
CC63
330
18
100
AcDbEntity
  8
DRAW2
100
AcDbLine
 10
1990.138817220577
 20
272.7945995311293
 30
0.0
 11
1989.638817220577
 21
273.6606249349136
 31
0.0
  0
LINE
  5
CC64
330
18
100
AcDbEntity
  8
DRAW2
100
AcDbLine
 10
1989.772791816793
 20
275.8926757424824
 30
0.0
 11
1989.772791816793
 21
276.9644725122075
 31
0.0
  0
ARC
  5
CC65
330
18
100
AcDbEntity
  8
DRAW2
100
AcDbCircle
 10
1986.714779114901
 20
276.7300169688299
 30
0.0
 40
3.066987298107735
100
AcDbArc
 50
295.6157525319427
 51
4.384247468047525
  0
LINE
  5
CC66
330
18
100
AcDbEntity
  8
DRAW2
100
AcDbLine
 10
1982.411575884625
 20
280.1426757424828
 30
0.0
 11
1976.411575884625
 21
269.7503708970693
 31
0.0
  0
LINE
  5
CC67
330
18
100
AcDbEntity
  8
DRAW2
100
AcDbLine
 10
1982.411575884625
 20
280.1426757424828
 30
0.0
 11
1980.679525077056
 21
281.1426757424831
 31
0.0
  0
ARC
  5
CC68
330
18
100
AcDbEntity
  8
DRAW2
100
AcDbCircle
 10
1984.665741009223
 20
277.9130296707219
 30
0.0
 40
3.066987298107735
100
AcDbArc
 50
115.6157525319427
 51
184.3842474680475
  0
LINE
  5
CC69
330
18
100
AcDbEntity
  8
DRAW2
100
AcDbLine
 10
1982.411575884625
 20
280.1426757424828
 30
0.0
 11
1983.3397791149
 21
280.6785741273449
 31
0.0
  0
ARC
  5
CC6A
330
18
100
AcDbEntity
  8
DRAW2
100
AcDbCircle
 10
1989.3397791149
 20
269.2144725122068
 30
0.0
 40
11.46410161513778
100
AcDbArc
 50
132.4120462260127
 51
167.5879537739958
  0
LINE
  5
CC6B
330
18
100
AcDbEntity
  8
DRAW2
100
AcDbLine
 10
1988.040741009224
 20
273.9644725122075
 30
0.0
 11
1981.607728307331
 21
277.6785741273449
 31
0.0
  0
LINE
  5
CC6C
330
18
100
AcDbEntity
  8
DRAW2
100
AcDbLine
 10
1989.772791816793
 20
276.9644725122075
 30
0.0
 11
1983.3397791149
 21
280.6785741273449
 31
0.0
  0
LINE
  5
CC6D
330
18
100
AcDbEntity
  8
DRAW2
100
AcDbLine
 10
1987.293286980038
 20
264.5980473876113
 30
0.0
 11
1987.293286980038
 21
263.7010986304974
 31
0.0
  0
ARC
  5
CC6E
330
18
100
AcDbEntity
  8
DRAW2
100
AcDbCircle
 10
1989.852429505634
 20
263.8973061711162
 30
0.0
 40
2.566653047319611
100
AcDbArc
 50
115.6157525319427
 51
184.3842474680475
  0
LINE
  5
CC6F
330
18
100
AcDbEntity
  8
DRAW3
100
AcDbLine
 10
1985.022791816792
 20
267.6654344065304
 30
0.0
 11
1986.638817220577
 21
266.732421704638
 31
0.0
  0
LINE
  5
CC70
330
18
100
AcDbEntity
  8
DRAW2
100
AcDbLine
 10
1984.772791816793
 20
267.2324217046382
 30
0.0
 11
1985.638817220578
 21
266.7324217046382
 31
0.0
  0
LINE
  5
CC71
330
18
100
AcDbEntity
  8
DRAW2
100
AcDbLine
 10
1986.638817220577
 20
266.732421704638
 30
0.0
 11
1985.638817220578
 21
266.7324217046382
 31
0.0
  0
LINE
  5
CC72
330
18
100
AcDbEntity
  8
DRAW2
100
AcDbLine
 10
1986.638817220577
 20
266.732421704638
 30
0.0
 11
1988.053880730038
 21
265.9154344065305
 31
0.0
  0
LINE
  5
CC73
330
18
100
AcDbEntity
  8
DRAW2
100
AcDbLine
 10
1982.844588586517
 20
264.9644725122075
 30
0.0
 11
1976.411575884625
 21
268.6785741273451
 31
0.0
  0
LINE
  5
CC74
330
18
100
AcDbEntity
  8
DRAW2
100
AcDbLine
 10
1983.772791816792
 20
265.5003708970693
 30
0.0
 11
1982.844588586518
 21
264.9644725122077
 31
0.0
  0
ARC
  5
CC75
330
18
100
AcDbEntity
  8
DRAW2
100
AcDbCircle
 10
1981.518626692194
 20
267.7300169688296
 30
0.0
 40
3.066987298107735
100
AcDbArc
 50
295.6157525319427
 51
4.384247468047525
  0
LINE
  5
CC76
330
18
100
AcDbEntity
  8
DRAW2
100
AcDbLine
 10
1984.576639394086
 20
267.9644725122073
 30
0.0
 11
1978.143626692194
 21
271.6785741273449
 31
0.0
  0
LINE
  5
CC77
330
18
100
AcDbEntity
  8
DRAW2
100
AcDbLine
 10
1989.772791816793
 20
275.8926757424824
 30
0.0
 11
1983.772791816792
 21
265.5003708970693
 31
0.0
  0
ARC
  5
CC78
330
18
100
AcDbEntity
  8
DRAW2
100
AcDbCircle
 10
1976.844588586517
 20
276.4285741273445
 30
0.0
 40
11.46410161513778
100
AcDbArc
 50
312.4120462260127
 51
347.5879537739958
  0
LINE
  5
CC79
330
18
100
AcDbEntity
  8
DRAW2
100
AcDbLine
 10
1986.638817220577
 20
266.732421704638
 30
0.0
 11
1990.138817220577
 21
272.7945995311293
 31
0.0
  0
LINE
  5
CC7A
330
18
100
AcDbEntity
  8
DRAW2
100
AcDbLine
 10
1985.638817220578
 20
266.7324217046382
 30
0.0
 11
1989.638817220577
 21
273.6606249349136
 31
0.0
  0
ARC
  5
CC7B
330
18
100
AcDbEntity
  8
DRAW2
100
AcDbCircle
 10
1979.469588586517
 20
268.9130296707217
 30
0.0
 40
3.066987298107735
100
AcDbArc
 50
115.6157525319427
 51
184.3842474680475
  0
LINE
  5
CC7C
330
18
100
AcDbEntity
  8
DRAW2
100
AcDbLine
 10
1976.411575884625
 20
269.7503708970693
 30
0.0
 11
1976.411575884625
 21
268.6785741273451
 31
0.0
  0
LINE
  5
CC7E
330
18
100
AcDbEntity
  8
DRAW2
100
AcDbLine
 10
2006.770474060472
 20
276.3335249994479
 30
0.0
 11
2009.580160171666
 21
281.2000440973572
 31
0.0
  0
ARC
  5
CC7F
330
18
100
AcDbEntity
  8
DRAW2
100
AcDbCircle
 10
1994.200905437799
 20
271.4290874211162
 30
0.0
 40
2.566653047319611
100
AcDbArc
 50
115.6157525319427
 51
184.3842474680475
  0
LINE
  5
CC80
330
18
100
AcDbEntity
  8
DRAW2
100
AcDbLine
 10
1993.091254889591
 20
273.7434736304974
 30
0.0
 11
1997.510626902745
 21
271.1919480090541
 31
0.0
  0
LINE
  5
CC81
330
18
100
AcDbEntity
  8
DRAW2
100
AcDbLine
 10
1992.314474480038
 20
273.2949992519406
 30
0.0
 11
1993.091254889591
 21
273.7434736304974
 31
0.0
  0
LINE
  5
CC82
330
18
100
AcDbEntity
  8
DRAW2
100
AcDbLine
 10
1997.510626902744
 20
270.2949992519404
 30
0.0
 11
1997.510626902745
 21
271.1919480090541
 31
0.0
  0
ARC
  5
CC83
330
18
100
AcDbEntity
  8
DRAW2
100
AcDbCircle
 10
1986.691471493191
 20
270.7434736304974
 30
0.0
 40
9.593900621443355
100
AcDbArc
 50
312.4120462260158
 51
347.5879537739958
  0
LINE
  5
CC84
330
18
100
AcDbEntity
  8
DRAW2
100
AcDbLine
 10
1992.489439402744
 20
261.5980473876106
 30
0.0
 11
1991.712658993192
 21
261.1495730090539
 31
0.0
  0
ARC
  5
CC85
330
18
100
AcDbEntity
  8
DRAW2
100
AcDbCircle
 10
1990.603008444982
 20
263.4639592184357
 30
0.0
 40
2.566653047319611
100
AcDbArc
 50
295.6157525319427
 51
4.384247468047525
  0
LINE
  5
CC86
330
18
100
AcDbEntity
  8
DRAW3
100
AcDbLine
 10
1999.371639924319
 20
268.4583683588548
 30
0.0
 11
2000.184819241343
 21
267.9543740434373
 31
0.0
  0
LINE
  5
CC87
330
18
100
AcDbEntity
  8
DRAW3
100
AcDbLine
 10
1995.010514924319
 20
260.904678280696
 30
0.0
 11
1995.435854863415
 21
260.6765165638531
 31
0.0
  0
LINE
  5
CC88
330
18
100
AcDbEntity
  8
DRAW2
100
AcDbLine
 10
1992.489439402744
 20
261.5980473876106
 30
0.0
 11
1995.139003312289
 21
260.1767629162526
 31
0.0
  0
LINE
  5
CC89
330
18
100
AcDbEntity
  8
DRAW3
100
AcDbLine
 10
1993.782020725271
 20
260.904678280696
 30
0.0
 11
1995.010514924319
 21
260.904678280696
 31
0.0
  0
ARC
  5
CC8A
330
18
100
AcDbEntity
  8
DRAW2
100
AcDbCircle
 10
1994.951484377148
 20
270.9957404684357
 30
0.0
 40
2.566653047319611
100
AcDbArc
 50
295.6157525319427
 51
4.384247468047525
  0
LINE
  5
CC8B
330
18
100
AcDbEntity
  8
DRAW2
100
AcDbLine
 10
1997.510626902744
 20
270.2949992519404
 30
0.0
 11
2000.523103706563
 21
268.4279188274056
 31
0.0
  0
LINE
  5
CC8C
330
18
100
AcDbEntity
  8
DRAW3
100
AcDbLine
 10
1998.757392824795
 20
269.5222755436327
 30
0.0
 11
1999.371639924319
 21
268.458368358855
 31
0.0
  0
LINE
  5
CC8D
330
18
100
AcDbEntity
  8
DRAW2
100
AcDbLine
 10
1994.720014924319
 20
260.4015175210972
 30
0.0
 11
1999.662139924319
 21
268.9615291184536
 31
0.0
  0
LINE
  5
CC8E
330
18
100
AcDbEntity
  8
DRAW2
100
AcDbLine
 10
1997.510626902744
 20
270.2949992519404
 30
0.0
 11
1992.489439402745
 21
261.5980473876111
 31
0.0
  0
LINE
  5
CC8F
330
18
100
AcDbEntity
  8
DRAW2
100
AcDbLine
 10
1991.641762912203
 20
271.2328798804974
 30
0.0
 11
1996.061134925357
 21
268.6813542590539
 31
0.0
  0
LINE
  5
CC90
330
18
100
AcDbEntity
  8
DRAW2
100
AcDbLine
 10
2009.580160171666
 20
281.2000440973572
 30
0.0
 11
2011.858074604669
 21
281.8104094301076
 31
0.0
  0
ARC
  5
CC91
330
18
100
AcDbEntity
  8
DRAW2
100
AcDbCircle
 10
2043.86092145443
 20
283.9247294246269
 30
0.0
 40
13.00003000000009
100
AcDbArc
 50
103.7066187436355
 51
352.5575905189917
  0
ARC
  5
CC93
330
18
100
AcDbEntity
  8
DRAW2
100
AcDbCircle
 10
2043.86092145443
 20
283.9247294246269
 30
0.0
 40
11.15201890084368
100
AcDbArc
 50
99.08334501855273
 51
357.1808642440719
  0
LINE
  5
CC95
330
18
100
AcDbEntity
  8
DRAW2
100
AcDbLine
 10
2046.360915772593
 20
402.2503889960482
 30
0.0
 11
2046.360915772593
 21
382.2503889960482
 31
0.0
  0
LINE
  5
CC96
330
18
100
AcDbEntity
  8
DRAW2
100
AcDbLine
 10
2041.860915772593
 20
382.2503889960482
 30
0.0
 11
2041.860915772593
 21
375.278504115299
 31
0.0
  0
LINE
  5
CC97
330
18
100
AcDbEntity
  8
DRAW2
100
AcDbLine
 10
2048.663221662363
 20
382.2503889960482
 30
0.0
 11
2041.860915772593
 21
382.2503889960482
 31
0.0
  0
LINE
  5
CC98
330
18
100
AcDbEntity
  8
DRAW2
100
AcDbLine
 10
2046.361185772593
 20
402.2500289960483
 30
0.0
 11
2048.361095772593
 21
404.2500289960482
 31
0.0
  0
CIRCLE
  5
CC99
330
18
100
AcDbEntity
  8
DRAW2
100
AcDbCircle
 10
2121.680720925988
 20
303.4305838426535
 30
0.0
 40
9.5
  0
CIRCLE
  5
CC9D
330
18
100
AcDbEntity
  8
DRAW2
100
AcDbCircle
 10
2181.860915772592
 20
204.2503824352265
 30
0.0
 40
13.00003000000009
  0
CIRCLE
  5
CC9E
330
18
100
AcDbEntity
  8
DRAW2
100
AcDbCircle
 10
2181.860915772592
 20
204.2503824352265
 30
0.0
 40
11.15201890084368
  0
ARC
  5
CC9F
330
18
100
AcDbEntity
  8
DRAW2
100
AcDbCircle
 10
2089.860915772593
 20
204.2503889960481
 30
0.0
 40
110.0
100
AcDbArc
 50
298.3862947502529
 51
61.61370524974714
  0
LINE
  5
CCA2
330
18
100
AcDbEntity
  8
DRAW2
100
AcDbLine
 10
2112.182430036714
 20
105.2503889960481
 30
0.0
 11
2131.179011815261
 21
105.2503889960481
 31
0.0
  0
CIRCLE
  5
CCA3
330
18
100
AcDbEntity
  8
DRAW2
100
AcDbCircle
 10
2121.680720925988
 20
105.0701941494427
 30
0.0
 40
9.5
  0
LINE
  5
CCA5
330
18
100
AcDbEntity
  8
HIDDEN
100
AcDbLine
 10
2167.860915772593
 20
147.8161104407576
 30
0.0
 11
2167.860915772593
 21
152.2377006678256
 31
0.0
  0
LINE
  5
CCA6
330
18
100
AcDbEntity
  8
HIDDEN
100
AcDbLine
 10
2162.194747726766
 20
135.6921781796894
 30
0.0
 11
2152.860915772593
 21
135.9838669890818
 31
0.0
  0
LINE
  5
CCA7
330
18
100
AcDbEntity
  8
HIDDEN
100
AcDbLine
 10
2162.19475428439
 20
146.7830494550755
 30
0.0
 11
2152.860915772593
 21
146.4913670015818
 31
0.0
  0
ARC
  5
CCA9
330
18
100
AcDbEntity
  8
DRAW2
100
AcDbCircle
 10
2135.860910090754
 20
124.5760485674693
 30
0.0
 40
13.00003000000009
100
AcDbArc
 50
283.7066187436354
 51
172.5575905189916
  0
ARC
  5
CCAA
330
18
100
AcDbEntity
  8
DRAW2
100
AcDbCircle
 10
2135.860910090754
 20
124.5760485674693
 30
0.0
 40
11.15201890084368
100
AcDbArc
 50
279.0833450185527
 51
177.1808642440719
  0
LINE
  5
CCAB
330
18
100
AcDbEntity
  8
HIDDEN
100
AcDbLine
 10
2123.198713942271
 20
137.2503889960481
 30
0.0
 11
2152.137062868988
 21
137.2503889960481
 31
0.0
  0
LINE
  5
CCAC
330
18
100
AcDbEntity
  8
HIDDEN
100
AcDbLine
 10
2127.437396521493
 20
145.2503889960481
 30
0.0
 11
2152.137062868988
 21
145.2503889960481
 31
0.0
  0
LINE
  5
CCAD
330
18
100
AcDbEntity
  8
HIDDEN
100
AcDbLine
 10
2152.137062868988
 20
145.2376169953318
 30
0.0
 11
2152.137062868988
 21
137.2376169953318
 31
0.0
  0
LINE
  5
CCAE
330
18
100
AcDbEntity
  8
HIDDEN
100
AcDbLine
 10
2152.860915772593
 20
135.9838669890818
 30
0.0
 11
2152.860915772593
 21
146.4913670015818
 31
0.0
  0
LINE
  5
CCAF
330
18
100
AcDbEntity
  8
HIDDEN
100
AcDbLine
 10
2152.860915772593
 20
135.9838669890818
 30
0.0
 11
2152.137062868988
 21
137.2376169953318
 31
0.0
  0
LINE
  5
CCB0
330
18
100
AcDbEntity
  8
HIDDEN
100
AcDbLine
 10
2152.137062868988
 20
145.2376169953318
 30
0.0
 11
2152.860915772593
 21
146.4913670015818
 31
0.0
  0
LINE
  5
CCB1
330
18
100
AcDbEntity
  8
HIDDEN
100
AcDbLine
 10
2163.050330063897
 20
134.809441231654
 30
0.0
 11
2158.460915772593
 21
134.9528669890818
 31
0.0
  0
LINE
  5
CCB2
330
18
100
AcDbEntity
  8
HIDDEN
100
AcDbLine
 10
2167.860915772593
 20
134.6591169890818
 30
0.0
 11
2166.977302869367
 21
135.5427298923075
 31
0.0
  0
LINE
  5
CCB3
330
18
100
AcDbEntity
  8
HIDDEN
100
AcDbLine
 10
2156.893438061457
 20
135.8578506675548
 30
0.0
 11
2158.460915772593
 21
134.9528669890818
 31
0.0
  0
LINE
  5
CCB4
330
18
100
AcDbEntity
  8
HIDDEN
100
AcDbLine
 10
2167.860915772593
 20
130.2377006678256
 30
0.0
 11
2171.237337212894
 21
130.2377006678256
 31
0.0
  0
LINE
  5
CCB5
330
18
100
AcDbEntity
  8
HIDDEN
100
AcDbLine
 10
2167.860915772593
 20
130.2377006678256
 30
0.0
 11
2167.860915772593
 21
134.6591104282575
 31
0.0
  0
LINE
  5
CCB6
330
18
100
AcDbEntity
  8
HIDDEN
100
AcDbLine
 10
2163.050330063897
 20
147.6657796373608
 30
0.0
 11
2158.460915772593
 21
147.5223670015817
 31
0.0
  0
LINE
  5
CCB7
330
18
100
AcDbEntity
  8
HIDDEN
100
AcDbLine
 10
2167.860915772593
 20
147.8161170015818
 30
0.0
 11
2166.977302869367
 21
146.932504098356
 31
0.0
  0
LINE
  5
CCB8
330
18
100
AcDbEntity
  8
HIDDEN
100
AcDbLine
 10
2158.460915772593
 20
134.9528669890818
 30
0.0
 11
2158.460915772593
 21
147.5223670015817
 31
0.0
  0
LINE
  5
CCB9
330
18
100
AcDbEntity
  8
HIDDEN
100
AcDbLine
 10
2156.893438061457
 20
146.6173833231088
 30
0.0
 11
2158.460915772593
 21
147.5223670015817
 31
0.0
  0
LINE
  5
CCBB
330
18
100
AcDbEntity
  8
HIDDEN
100
AcDbLine
 10
2167.860915772593
 20
152.2377006678256
 30
0.0
 11
2186.787074537248
 21
152.2377006678256
 31
0.0
  0
LINE
  5
CCBC
330
18
100
AcDbEntity
  8
DRAW2
100
AcDbLine
 10
2112.182430036714
 20
303.2503889960482
 30
0.0
 11
2131.179011815261
 21
303.2503889960482
 31
0.0
  0
ARC
  5
CCBE
330
18
100
AcDbEntity
  8
DRAW2
100
AcDbCircle
 10
2135.860921454431
 20
283.9247228638055
 30
0.0
 40
13.00003000000009
100
AcDbArc
 50
187.4423533512701
 51
76.29344417551559
  0
ARC
  5
CCC0
330
18
100
AcDbEntity
  8
DRAW2
100
AcDbCircle
 10
2135.860921454431
 20
283.9247228638055
 30
0.0
 40
11.15201890084368
100
AcDbArc
 50
182.8190650635585
 51
80.9167324632159
  0
LINE
  5
CCC1
330
18
100
AcDbEntity
  8
DRAW2
100
AcDbLine
 10
2112.360825772593
 20
402.2503889960482
 30
0.0
 11
2133.360885772593
 21
402.2503889960482
 31
0.0
  0
LINE
  5
CCC2
330
18
100
AcDbEntity
  8
DRAW2
100
AcDbLine
 10
2114.360705772593
 20
404.2503289960482
 30
0.0
 11
2131.360915772593
 21
404.2503289960482
 31
0.0
  0
LINE
  5
CCC3
330
18
100
AcDbEntity
  8
DRAW2
100
AcDbLine
 10
2112.182430036714
 20
367.2503889960482
 30
0.0
 11
2131.179011815261
 21
367.2503889960482
 31
0.0
  0
CIRCLE
  5
CCC5
330
18
100
AcDbEntity
  8
DRAW2
100
AcDbCircle
 10
2121.680720925988
 20
367.0701941494428
 30
0.0
 40
9.5
  0
CIRCLE
  5
CCC7
330
18
100
AcDbEntity
  8
DRAW2
100
AcDbCircle
 10
2089.860915772593
 20
335.2503889960483
 30
0.0
 40
13.5
  0
CIRCLE
  5
CCC8
330
18
100
AcDbEntity
  8
DRAW2
100
AcDbCircle
 10
2089.860915772593
 20
335.2503889960483
 30
0.0
 40
12.5
  0
CIRCLE
  5
CCC9
330
18
100
AcDbEntity
  8
DRAW2
100
AcDbCircle
 10
2089.860915772593
 20
335.2503889960483
 30
0.0
 40
12.5
  0
LINE
  5
CCCA
330
18
100
AcDbEntity
  8
DRAW2
100
AcDbLine
 10
2065.361005772593
 20
404.2502689960481
 30
0.0
 11
2067.361095772593
 21
402.2502089960482
 31
0.0
  0
LINE
  5
CCCB
330
18
100
AcDbEntity
  8
DRAW2
100
AcDbLine
 10
2067.360975772593
 20
402.2503889960482
 30
0.0
 11
2067.360975772593
 21
393.559931096775
 31
0.0
  0
LINE
  5
CCCC
330
18
100
AcDbEntity
  8
DRAW2
100
AcDbLine
 10
2112.361315772593
 20
402.2500889960481
 30
0.0
 11
2114.361215772594
 21
404.2500889960481
 31
0.0
  0
LINE
  5
CCCD
330
18
100
AcDbEntity
  8
DRAW2
100
AcDbLine
 10
2112.360915772593
 20
402.2503889960482
 30
0.0
 11
2112.360915772593
 21
393.5599079445012
 31
0.0
  0
LINE
  5
CCCF
330
18
100
AcDbEntity
  8
DRAW2
100
AcDbLine
 10
2133.360975772593
 20
402.2503889960482
 30
0.0
 11
2133.360975772593
 21
382.2503889960482
 31
0.0
  0
LINE
  5
CCD0
330
18
100
AcDbEntity
  8
DRAW2
100
AcDbLine
 10
2137.860915772593
 20
375.278504115299
 30
0.0
 11
2137.860915772593
 21
382.2503889960482
 31
0.0
  0
LINE
  5
CCD1
330
18
100
AcDbEntity
  8
DRAW2
100
AcDbLine
 10
2137.860915772593
 20
382.2503889960482
 30
0.0
 11
2131.058609882821
 21
382.2503889960482
 31
0.0
  0
LINE
  5
CCD2
330
18
100
AcDbEntity
  8
DRAW2
100
AcDbLine
 10
2131.360955772593
 20
404.2503289960482
 30
0.0
 11
2133.361005772593
 21
402.2503289960481
 31
0.0
  0
LINE
  5
CEFA
330
18
100
AcDbEntity
  8
HIDDEN
100
AcDbLine
 10
2171.850915572593
 20
134.5344229345075
 30
0.0
 11
2163.050330063897
 21
134.8094412316542
 31
0.0
  0
LINE
  5
CEFB
330
18
100
AcDbEntity
  8
HIDDEN
100
AcDbLine
 10
2171.850915572593
 20
135.3904229345075
 30
0.0
 11
2162.194747726766
 21
135.6921781796894
 31
0.0
  0
LINE
  5
CEFC
330
18
100
AcDbEntity
  8
HIDDEN
100
AcDbLine
 10
2171.850915572593
 20
147.9407979345077
 30
0.0
 11
2163.050330063897
 21
147.6657796373608
 31
0.0
  0
LINE
  5
CEFD
330
18
100
AcDbEntity
  8
HIDDEN
100
AcDbLine
 10
2171.850915572593
 20
147.0847979345076
 30
0.0
 11
2162.194747726767
 21
146.7830426893254
 31
0.0
  0
LINE
  5
CEFE
330
18
100
AcDbEntity
  8
HIDDEN
100
AcDbLine
 10
2161.850915572593
 20
146.4282979345075
 30
0.0
 11
2163.050330063897
 21
147.6657796373608
 31
0.0
  0
LINE
  5
CEFF
330
18
100
AcDbEntity
  8
HIDDEN
100
AcDbLine
 10
2161.850915572593
 20
136.0469229345073
 30
0.0
 11
2163.050330063897
 21
134.8094412316541
 31
0.0
  0
ARC
  5
CF00
330
18
100
AcDbEntity
  8
HIDDEN
100
AcDbCircle
 10
2156.373689997541
 20
141.2376104345075
 30
0.0
 40
6.5
100
AcDbArc
 50
327.4210296071905
 51
32.57897039280946
  0
LINE
  5
CF01
330
18
100
AcDbEntity
  8
HIDDEN
100
AcDbLine
 10
2163.050330063897
 20
134.8094412316542
 30
0.0
 11
2163.050330063897
 21
147.6657796373608
 31
0.0
  0
LINE
  5
CF02
330
18
100
AcDbEntity
  8
HIDDEN
100
AcDbLine
 10
2161.850915572593
 20
136.0469229345073
 30
0.0
 11
2161.850915572593
 21
146.4282979345075
 31
0.0
  0
LINE
  5
CF03
330
18
100
AcDbEntity
  8
HIDDEN
100
AcDbLine
 10
2171.850915572593
 20
134.5344229345075
 30
0.0
 11
2171.850915572593
 21
147.9407979345074
 31
0.0
  0
LINE
  5
CF04
330
18
100
AcDbEntity
  8
HIDDEN
100
AcDbLine
 10
2171.850915572593
 20
145.8376104345075
 30
0.0
 11
2168.350915572593
 21
145.8376104345074
 31
0.0
  0
ARC
  5
CF06
330
18
100
AcDbEntity
  8
HIDDEN
100
AcDbCircle
 10
2183.152604665396
 20
141.2376104345075
 30
0.0
 40
15.49999999999998
100
AcDbArc
 50
162.7360436771854
 51
197.2639563228145
  0
LINE
  5
CF07
330
18
100
AcDbEntity
  8
HIDDEN
100
AcDbLine
 10
2171.850915572593
 20
136.6376104345075
 30
0.0
 11
2168.350915572593
 21
136.6376104345074
 31
0.0
  0
VIEWPORT
  5
37
330
15
100
AcDbEntity
 67
     1
  8
0
100
AcDbViewport
 10
420.4950122070313
 20
296.9950000476837
 30
0.0
 40
893.9779679990737
 41
598.5171102661597
 68
     1
 69
     1
 12
420.4950122070313
 22
296.9950000476837
 13
0.0
 23
0.0
 14
10.0
 24
10.0
 15
10.0
 25
10.0
 16
0.0
 26
0.0
 36
1.0
 17
0.0
 27
0.0
 37
0.0
 42
50.0
 43
0.0
 44
0.0
 45
598.5171102661597
 50
0.0
 51
0.0
 72
   100
 90
    32768
  1

281
     0
 71
     1
 74
     0
110
0.0
120
0.0
130
0.0
111
1.0
121
0.0
131
0.0
112
0.0
122
1.0
132
0.0
 79
     0
146
0.0
  0
ENDSEC
  0
SECTION
  2
OBJECTS
  0
DICTIONARY
  5
C
330
0
100
AcDbDictionary
281
     1
  3
ACAD_GROUP
350
D
  3
ACAD_IMAGE_VARS
350
7A9
  3
ACAD_LAYOUT
350
1AD
  3
ACAD_MLINESTYLE
350
1B
  3
ACAD_PLOTSETTINGS
350
1AE
  3
ACAD_PLOTSTYLENAME
350
1AB
  0
DICTIONARY
  5
D
102
{ACAD_REACTORS
330
C
102
}
330
C
100
AcDbDictionary
281
     1
  3
*A1
350
1485
  0
RASTERVARIABLES
  5
7A9
102
{ACAD_REACTORS
330
C
102
}
330
C
100
AcDbRasterVariables
 90
        0
 70
     1
 71
     1
 72
     0
  0
DICTIONARY
  5
1AD
102
{ACAD_REACTORS
330
C
102
}
330
C
100
AcDbDictionary
281
     1
  3
Model
350
1AF
  3
ﾚｲｱｳﾄ1
350
1B0
  0
DICTIONARY
  5
1B
102
{ACAD_REACTORS
330
C
102
}
330
C
100
AcDbDictionary
281
     1
  3
STANDARD
350
1C
  0
DICTIONARY
  5
1AE
102
{ACAD_REACTORS
330
C
102
}
330
C
100
AcDbDictionary
281
     1
  3
AdobePDF_A1
350
A704
  3
普通紙Ａ３_XL-5800_WinNT40
350
298B
  3
普通紙Ａ３からＡ４_XL-5800_WinNT40
350
298C
  0
ACDBDICTIONARYWDFLT
  5
1AB
102
{ACAD_REACTORS
330
C
102
}
330
C
100
AcDbDictionary
281
     1
  3
Normal
350
1AC
100
AcDbDictionaryWithDefault
340
1AC
  0
GROUP
  5
1485
102
{ACAD_REACTORS
330
D
102
}
330
D
100
AcDbGroup
300

 70
     1
 71
     1
  0
LAYOUT
  5
1AF
102
{ACAD_REACTORS
330
1AD
102
}
330
1AD
100
AcDbPlotSettings
  1

  2
FUJITSU XL-5800
  4
A4
  6

 40
5.873749732971191
 41
5.704405784606933
 42
5.873748779296875
 43
5.873748779296875
 44
210.0579986572265
 45
296.9259948730469
 46
-934.06
 47
-482.3299999999999
 48
0.0
 49
0.0
140
0.0
141
0.0
142
1.0
143
1.0
 70
 11956
 72
     1
 73
     0
 74
     0
  7
LineScale_10.ctb
 75
    16
147
1.0
148
1033.210332103321
149
625.0
100
AcDbLayout
  1
Model
 70
     1
 71
     0
 10
0.0
 20
0.0
 11
12.0
 21
9.0
 12
0.0
 22
0.0
 32
0.0
 14
0.0
 24
0.0
 34
0.0
 15
0.0
 25
0.0
 35
0.0
146
0.0
 13
0.0
 23
0.0
 33
0.0
 16
1.0
 26
0.0
 36
0.0
 17
0.0
 27
1.0
 37
0.0
 76
     0
330
18
  0
LAYOUT
  5
1B0
102
{ACAD_REACTORS
330
1AD
102
}
330
1AD
100
AcDbPlotSettings
  1
AdobePDF_A1
  2
Adobe PDF
  4
User120
  6
A1
 40
3.174999952316284
 41
3.174999952316284
 42
3.17498779296875
 43
3.17498779296875
 44
594.0
 45
841.0
 46
-3.169999999999999
 47
-3.169999999999999
 48
0.0
 49
0.0
140
841.0
141
594.0
142
1.0
143
1.0
 70
   692
 72
     1
 73
     1
 74
     4
  7
LineScale_10.ctb
 75
    16
147
1.0
148
0.0
149
0.0
100
AcDbLayout
  1
ﾚｲｱｳﾄ1
 70
     1
 71
     1
 10
-0.0049877929687501
 20
-0.0049999523162843
 11
840.9950122070311
 21
593.9950000476836
 12
0.0
 22
0.0
 32
0.0
 14
1.000000000000000E+20
 24
1.000000000000000E+20
 34
1.000000000000000E+20
 15
-1.000000000000000E+20
 25
-1.000000000000000E+20
 35
-1.000000000000000E+20
146
0.0
 13
0.0
 23
0.0
 33
0.0
 16
1.0
 26
0.0
 36
0.0
 17
0.0
 27
1.0
 37
0.0
 76
     0
330
15
331
37
  0
MLINESTYLE
  5
1C
102
{ACAD_REACTORS
330
1B
102
}
330
1B
100
AcDbMlineStyle
  2
STANDARD
 70
     0
  3

 62
   256
 51
90.0
 52
90.0
 71
     2
 49
0.5
 62
   256
  6
BYLAYER
 49
-0.5
 62
   256
  6
BYLAYER
  0
PLOTSETTINGS
  5
A704
102
{ACAD_REACTORS
330
1AE
102
}
330
1AE
100
AcDbPlotSettings
  1
AdobePDF_A1
  2
Adobe PDF
  4
User120
  6
A1
 40
3.174999952316284
 41
3.174999952316284
 42
3.17498779296875
 43
3.17498779296875
 44
594.0
 45
841.0
 46
-3.169999999999999
 47
-3.169999999999999
 48
0.0
 49
0.0
140
841.0
141
594.0
142
1.0
143
1.0
 70
   692
 72
     1
 73
     1
 74
     4
  7
LineScale_10.ctb
 75
    16
147
1.0
148
0.0
149
0.0
  0
PLOTSETTINGS
  5
298B
102
{ACAD_REACTORS
330
1AE
102
}
330
1AE
100
AcDbPlotSettings
  1
普通紙Ａ３_XL-5800_WinNT40
  2
FUJITSU XL-5800
  4
A3
  6
A1
 40
5.873749732971191
 41
5.873747825622558
 42
5.70440673828125
 43
5.873748779296875
 44
296.9259948730469
 45
420.1159973144531
 46
-5.009999999999999
 47
-6.7
 48
0.0
 49
0.0
140
420.0
141
297.0
142
1.0
143
1.0
 70
   688
 72
     1
 73
     1
 74
     4
  7
LineScale_10.ctb
 75
    16
147
1.0
148
0.0
149
0.0
  0
PLOTSETTINGS
  5
298C
102
{ACAD_REACTORS
330
1AE
102
}
330
1AE
100
AcDbPlotSettings
  1
普通紙Ａ３からＡ４_XL-5800_WinNT40
  2
FUJITSU XL-5800
  4
A4
  6
A1
 40
5.873749732971191
 41
5.704405784606933
 42
5.873748779296875
 43
5.873748779296875
 44
210.0579986572265
 45
296.9259948730469
 46
-6.4
 47
-5.459999999999999
 48
0.0
 49
0.0
140
420.0
141
297.0
142
0.7071066999999999
143
1.0
 70
   672
 72
     1
 73
     1
 74
     4
  7
LineScale_07.ctb
 75
     0
147
0.7071066999999999
148
0.0
149
0.0
  0
ACDBPLACEHOLDER
  5
1AC
102
{ACAD_REACTORS
330
1AB
102
}
330
1AB
  0
ENDSEC
  0
EOF
