  0
SECTION
  2
HEADER
  9
$ACADVER
  1
AC1015
  9
$ACADMAINTVER
 70
     6
  9
$DWGCODEPAGE
  3
ANSI_932
  9
$INSBASE
 10
0.0
 20
0.0
 30
0.0
  9
$EXTMIN
 10
991.2374725284761
 20
-1266.607621599209
 30
-0.00000001
  9
$EXTMAX
 10
2008.387569635025
 20
-281.7014794074624
 30
0.00000001
  9
$LIMMIN
 10
-841.0
 20
-594.0
  9
$LIMMAX
 10
841.0
 20
594.0
  9
$ORTHOMODE
 70
     0
  9
$REGENMODE
 70
     1
  9
$FILLMODE
 70
     1
  9
$QTEXTMODE
 70
     0
  9
$MIRRTEXT
 70
     0
  9
$LTSCALE
 40
7.0
  9
$ATTMODE
 70
     1
  9
$TEXTSIZE
 40
3.2
  9
$TRACEWID
 40
1.0
  9
$TEXTSTYLE
  7
DIMFONT
  9
$CLAYER
  8
DRAW2
  9
$CELTYPE
  6
BYLAYER
  9
$CECOLOR
 62
   256
  9
$CELTSCALE
 40
1.0
  9
$DISPSILH
 70
     0
  9
$DIMSCALE
 40
4.0
  9
$DIMASZ
 40
3.0
  9
$DIMEXO
 40
0.0
  9
$DIMDLI
 40
10.0
  9
$DIMRND
 40
0.0
  9
$DIMDLE
 40
0.0
  9
$DIMEXE
 40
1.0
  9
$DIMTP
 40
0.0
  9
$DIMTM
 40
0.0
  9
$DIMTXT
 40
3.2
  9
$DIMCEN
 40
0.0
  9
$DIMTSZ
 40
0.0
  9
$DIMTOL
 70
     0
  9
$DIMLIM
 70
     0
  9
$DIMTIH
 70
     0
  9
$DIMTOH
 70
     0
  9
$DIMSE1
 70
     0
  9
$DIMSE2
 70
     0
  9
$DIMTAD
 70
     3
  9
$DIMZIN
 70
     8
  9
$DIMBLK
  1

  9
$DIMASO
 70
     1
  9
$DIMSHO
 70
     1
  9
$DIMPOST
  1

  9
$DIMAPOST
  1

  9
$DIMALT
 70
     0
  9
$DIMALTD
 70
     2
  9
$DIMALTF
 40
25.4
  9
$DIMLFAC
 40
1.0
  9
$DIMTOFL
 70
     1
  9
$DIMTVP
 40
0.0
  9
$DIMTIX
 70
     0
  9
$DIMSOXD
 70
     0
  9
$DIMSAH
 70
     1
  9
$DIMBLK1
  1
OPEN
  9
$DIMBLK2
  1
OPEN
  9
$DIMSTYLE
  2
1_4
  9
$DIMCLRD
 70
     0
  9
$DIMCLRE
 70
     0
  9
$DIMCLRT
 70
     0
  9
$DIMTFAC
 40
0.75
  9
$DIMGAP
 40
1.0
  9
$DIMJUST
 70
     0
  9
$DIMSD1
 70
     0
  9
$DIMSD2
 70
     0
  9
$DIMTOLJ
 70
     1
  9
$DIMTZIN
 70
     8
  9
$DIMALTZ
 70
     0
  9
$DIMALTTZ
 70
     0
  9
$DIMUPT
 70
     0
  9
$DIMDEC
 70
     4
  9
$DIMTDEC
 70
     4
  9
$DIMALTU
 70
     2
  9
$DIMALTTD
 70
     2
  9
$DIMTXSTY
  7
DIMFONT
  9
$DIMAUNIT
 70
     0
  9
$DIMADEC
 70
     2
  9
$DIMALTRND
 40
0.0
  9
$DIMAZIN
 70
     2
  9
$DIMDSEP
 70
    46
  9
$DIMATFIT
 70
     1
  9
$DIMFRAC
 70
     0
  9
$DIMLDRBLK
  1
OPEN
  9
$DIMLUNIT
 70
     2
  9
$DIMLWD
 70
    -2
  9
$DIMLWE
 70
    -2
  9
$DIMTMOVE
 70
     0
  9
$LUNITS
 70
     2
  9
$LUPREC
 70
     4
  9
$SKETCHINC
 40
1.0
  9
$FILLETRAD
 40
0.0
  9
$AUNITS
 70
     0
  9
$AUPREC
 70
     4
  9
$MENU
  1
acad
  9
$ELEVATION
 40
0.0
  9
$PELEVATION
 40
0.0
  9
$THICKNESS
 40
0.0
  9
$LIMCHECK
 70
     0
  9
$CHAMFERA
 40
0.0
  9
$CHAMFERB
 40
0.0
  9
$CHAMFERC
 40
0.0
  9
$CHAMFERD
 40
0.0
  9
$SKPOLY
 70
     0
  9
$TDCREATE
 40
2452311.864408912
  9
$TDUCREATE
 40
2452311.489408912
  9
$TDUPDATE
 40
2454973.407346643
  9
$TDUUPDATE
 40
2454973.032346643
  9
$TDINDWG
 40
1.1401637269
  9
$TDUSRTIMER
 40
1.1401636111
  9
$USRTIMER
 70
     1
  9
$ANGBASE
 50
0.0
  9
$ANGDIR
 70
     0
  9
$PDMODE
 70
    35
  9
$PDSIZE
 40
0.5
  9
$PLINEWID
 40
0.0
  9
$SPLFRAME
 70
     0
  9
$SPLINETYPE
 70
     6
  9
$SPLINESEGS
 70
     8
  9
$HANDSEED
  5
11D45
  9
$SURFTAB1
 70
     6
  9
$SURFTAB2
 70
     6
  9
$SURFTYPE
 70
     6
  9
$SURFU
 70
     6
  9
$SURFV
 70
     6
  9
$UCSBASE
  2

  9
$UCSNAME
  2

  9
$UCSORG
 10
0.0
 20
0.0
 30
0.0
  9
$UCSXDIR
 10
1.0
 20
0.0
 30
0.0
  9
$UCSYDIR
 10
0.0
 20
1.0
 30
0.0
  9
$UCSORTHOREF
  2

  9
$UCSORTHOVIEW
 70
     0
  9
$UCSORGTOP
 10
0.0
 20
0.0
 30
0.0
  9
$UCSORGBOTTOM
 10
0.0
 20
0.0
 30
0.0
  9
$UCSORGLEFT
 10
0.0
 20
0.0
 30
0.0
  9
$UCSORGRIGHT
 10
0.0
 20
0.0
 30
0.0
  9
$UCSORGFRONT
 10
0.0
 20
0.0
 30
0.0
  9
$UCSORGBACK
 10
0.0
 20
0.0
 30
0.0
  9
$PUCSBASE
  2

  9
$PUCSNAME
  2

  9
$PUCSORG
 10
0.0
 20
0.0
 30
0.0
  9
$PUCSXDIR
 10
1.0
 20
0.0
 30
0.0
  9
$PUCSYDIR
 10
0.0
 20
1.0
 30
0.0
  9
$PUCSORTHOREF
  2

  9
$PUCSORTHOVIEW
 70
     0
  9
$PUCSORGTOP
 10
0.0
 20
0.0
 30
0.0
  9
$PUCSORGBOTTOM
 10
0.0
 20
0.0
 30
0.0
  9
$PUCSORGLEFT
 10
0.0
 20
0.0
 30
0.0
  9
$PUCSORGRIGHT
 10
0.0
 20
0.0
 30
0.0
  9
$PUCSORGFRONT
 10
0.0
 20
0.0
 30
0.0
  9
$PUCSORGBACK
 10
0.0
 20
0.0
 30
0.0
  9
$USERI1
 70
     0
  9
$USERI2
 70
     0
  9
$USERI3
 70
     0
  9
$USERI4
 70
     0
  9
$USERI5
 70
     0
  9
$USERR1
 40
0.0
  9
$USERR2
 40
0.0
  9
$USERR3
 40
0.0
  9
$USERR4
 40
0.0
  9
$USERR5
 40
0.0
  9
$WORLDVIEW
 70
     1
  9
$SHADEDGE
 70
     3
  9
$SHADEDIF
 70
    70
  9
$TILEMODE
 70
     1
  9
$MAXACTVP
 70
    48
  9
$PINSBASE
 10
0.0
 20
0.0
 30
0.0
  9
$PLIMCHECK
 70
     0
  9
$PEXTMIN
 10
1.000000000000000E+20
 20
1.000000000000000E+20
 30
1.000000000000000E+20
  9
$PEXTMAX
 10
-1.000000000000000E+20
 20
-1.000000000000000E+20
 30
-1.000000000000000E+20
  9
$PLIMMIN
 10
-0.0049877929687501
 20
-0.0049999523162843
  9
$PLIMMAX
 10
593.9950122070312
 20
419.9950000476837
  9
$UNITMODE
 70
     0
  9
$VISRETAIN
 70
     0
  9
$PLINEGEN
 70
     1
  9
$PSLTSCALE
 70
     1
  9
$TREEDEPTH
 70
  3020
  9
$CMLSTYLE
  2
STANDARD
  9
$CMLJUST
 70
     0
  9
$CMLSCALE
 40
20.0
  9
$PROXYGRAPHICS
 70
     1
  9
$MEASUREMENT
 70
     1
  9
$CELWEIGHT
370
    -1
  9
$ENDCAPS
280
     0
  9
$JOINSTYLE
280
     0
  9
$LWDISPLAY
290
     0
  9
$INSUNITS
 70
     0
  9
$HYPERLINKBASE
  1

  9
$STYLESHEET
  1

  9
$XEDIT
290
     1
  9
$CEPSNTYPE
380
     0
  9
$PSTYLEMODE
290
     1
  9
$FINGERPRINTGUID
  2
{7FD28A7C-F8BA-11D3-9BCC-00A0C977751D}
  9
$VERSIONGUID
  2
{00E086EB-FDFC-4733-9EC9-67028610A12A}
  9
$EXTNAMES
290
     1
  9
$PSVPSCALE
 40
0.0
  9
$OLESTARTUP
290
     0
  0
ENDSEC
  0
SECTION
  2
CLASSES
  0
CLASS
  1
LWPOLYLINE
  2
AcDbPolyline
  3
AutoCAD 2000
 90
    32768
280
     0
281
     1
  0
CLASS
  1
ACDBDICTIONARYWDFLT
  2
AcDbDictionaryWithDefault
  3
AutoCAD 2000
 90
        0
280
     0
281
     0
  0
CLASS
  1
ACDBPLACEHOLDER
  2
AcDbPlaceHolder
  3
AutoCAD 2000
 90
        0
280
     0
281
     0
  0
CLASS
  1
LAYOUT
  2
AcDbLayout
  3
AutoCAD 2000
 90
        0
280
     0
281
     0
  0
CLASS
  1
PLOTSETTINGS
  2
AcDbPlotSettings
  3
AutoCAD 2000
 90
        0
280
     0
281
     0
  0
CLASS
  1
RASTERVARIABLES
  2
AcDbRasterVariables
  3
ISM
 90
        0
280
     0
281
     0
  0
ENDSEC
  0
SECTION
  2
TABLES
  0
TABLE
  2
VPORT
  5
8
330
0
100
AcDbSymbolTable
 70
     3
  0
VPORT
  5
11D44
330
8
100
AcDbSymbolTableRecord
100
AcDbViewportTableRecord
  2
*Active
 70
     0
 10
0.0
 20
0.0
 11
1.0
 21
1.0
 12
1502.568190657422
 22
-759.1860643745476
 13
0.0
 23
0.0
 14
5.0
 24
5.0
 15
10.0
 25
10.0
 16
0.0
 26
0.0
 36
1.0
 17
0.0
 27
0.0
 37
0.0
 40
1032.451950600231
 41
1.493654822335025
 42
50.0
 43
0.0
 44
0.0
 50
0.0
 51
0.0
 71
     0
 72
   100
 73
     1
 74
     0
 75
     0
 76
     0
 77
     0
 78
     1
281
     0
 65
     1
110
0.0
120
0.0
130
0.0
111
1.0
121
0.0
131
0.0
112
0.0
122
1.0
132
0.0
 79
     0
146
0.0
  0
ENDTAB
  0
TABLE
  2
LTYPE
  5
5
330
0
100
AcDbSymbolTable
 70
     7
  0
LTYPE
  5
12
330
5
100
AcDbSymbolTableRecord
100
AcDbLinetypeTableRecord
  2
BYBLOCK
 70
     0
  3

 72
    65
 73
     0
 40
0.0
  0
LTYPE
  5
13
330
5
100
AcDbSymbolTableRecord
100
AcDbLinetypeTableRecord
  2
BYLAYER
 70
     0
  3

 72
    65
 73
     0
 40
0.0
  0
LTYPE
  5
14
330
5
100
AcDbSymbolTableRecord
100
AcDbLinetypeTableRecord
  2
CONTINUOUS
 70
     0
  3
Solid line
 72
    65
 73
     0
 40
0.0
  0
LTYPE
  5
23
330
5
100
AcDbSymbolTableRecord
100
AcDbLinetypeTableRecord
  2
HIDDEN
 70
     0
  3
__ __ __ __ __ __ __ __ __ __ __ __ __ __ __ __
 72
    65
 73
     2
 40
0.375
 49
0.25
 74
     0
 49
-0.125
 74
     0
  0
ENDTAB
  0
TABLE
  2
LAYER
  5
2
330
0
100
AcDbSymbolTable
 70
    18
  0
LAYER
  5
E
330
2
100
AcDbSymbolTableRecord
100
AcDbLayerTableRecord
  2
0
 70
     0
 62
     7
  6
CONTINUOUS
370
    -3
390
1AC
  0
LAYER
  5
29
330
2
100
AcDbSymbolTableRecord
100
AcDbLayerTableRecord
  2
DRAW2
 70
     0
 62
     4
  6
CONTINUOUS
370
    -3
390
1AC
  0
LAYER
  5
2A
330
2
100
AcDbSymbolTableRecord
100
AcDbLayerTableRecord
  2
DRAW3
 70
     0
 62
     1
  6
CONTINUOUS
370
    -3
390
1AC
  0
LAYER
  5
2C
330
2
100
AcDbSymbolTableRecord
100
AcDbLayerTableRecord
  2
HIDDEN
 70
     0
 62
     7
  6
HIDDEN
370
    -3
390
1AC
  0
LAYER
  5
133
330
2
100
AcDbSymbolTableRecord
100
AcDbLayerTableRecord
  2
DEFPOINTS
 70
     0
 62
     7
  6
CONTINUOUS
290
     0
370
    -3
390
1AC
  0
ENDTAB
  0
TABLE
  2
STYLE
  5
3
330
0
100
AcDbSymbolTable
 70
     4
  0
STYLE
  5
F
330
3
100
AcDbSymbolTableRecord
100
AcDbTextStyleTableRecord
  2
STANDARD
 70
     0
 40
0.0
 41
1.0
 50
0.0
 71
     0
 42
2.5
  3
txt
  4

  0
STYLE
  5
30
330
3
100
AcDbSymbolTableRecord
100
AcDbTextStyleTableRecord
  2
DIMFONT
 70
     0
 40
0.0
 41
1.0
 50
10.0
 71
     0
 42
3.2
  3
romans.shx
  4
extfont.shx
  0
ENDTAB
  0
TABLE
  2
VIEW
  5
6
330
0
100
AcDbSymbolTable
 70
     5
  0
VIEW
  5
C27
330
6
100
AcDbSymbolTableRecord
100
AcDbViewTableRecord
  2
View1
 70
     0
 40
1250.0
 10
0.0
 20
0.0
 41
2066.420664206642
 11
0.0
 21
0.0
 31
1.0
 12
0.0
 22
0.0
 32
0.0
 42
50.0
 43
0.0
 44
0.0
 50
0.0
 71
     0
281
     0
 72
     1
110
0.0
120
0.0
130
0.0
111
1.0
121
0.0
131
0.0
112
0.0
122
1.0
132
0.0
 79
     0
146
0.0
  0
VIEW
  5
C2A
330
6
100
AcDbSymbolTableRecord
100
AcDbViewTableRecord
  2
A4
 70
     1
 40
314.2148930664062
 10
103.8222427368164
 20
144.5197510242462
 41
519.4401184271217
 11
0.0
 21
0.0
 31
1.0
 12
0.0
 22
0.0
 32
0.0
 42
50.0
 43
0.0
 44
0.0
 50
0.0
 71
     0
281
     0
 72
     1
110
0.0
120
0.0
130
0.0
111
1.0
121
0.0
131
0.0
112
0.0
122
1.0
132
0.0
 79
     0
146
0.0
  0
VIEW
  5
C2B
330
6
100
AcDbSymbolTableRecord
100
AcDbViewTableRecord
  2
A3
 70
     1
 40
314.2148930664062
 10
205.8194916248321
 20
151.3197510242462
 41
519.4401184271217
 11
0.0
 21
0.0
 31
1.0
 12
0.0
 22
0.0
 32
0.0
 42
50.0
 43
0.0
 44
0.0
 50
0.0
 71
     0
281
     0
 72
     1
110
0.0
120
0.0
130
0.0
111
1.0
121
0.0
131
0.0
112
0.0
122
1.0
132
0.0
 79
     0
146
0.0
  0
VIEW
  5
C2C
330
6
100
AcDbSymbolTableRecord
100
AcDbViewTableRecord
  2
A2
 70
     1
 40
444.3483441772461
 10
293.3145020008087
 20
213.3194916248321
 41
734.5684804110931
 11
0.0
 21
0.0
 31
1.0
 12
0.0
 22
0.0
 32
0.0
 42
50.0
 43
0.0
 44
0.0
 50
0.0
 71
     0
281
     0
 72
     1
110
0.0
120
0.0
130
0.0
111
1.0
121
0.0
131
0.0
112
0.0
122
1.0
132
0.0
 79
     0
146
0.0
  0
VIEW
  5
C2D
330
6
100
AcDbSymbolTableRecord
100
AcDbViewTableRecord
  2
A1
 70
     1
 40
628.2954051513671
 10
422.5084997558593
 20
293.4384954071044
 41
1038.658086744695
 11
0.0
 21
0.0
 31
1.0
 12
0.0
 22
0.0
 32
0.0
 42
50.0
 43
0.0
 44
0.0
 50
0.0
 71
     0
281
     0
 72
     1
110
0.0
120
0.0
130
0.0
111
1.0
121
0.0
131
0.0
112
0.0
122
1.0
132
0.0
 79
     0
146
0.0
  0
ENDTAB
  0
TABLE
  2
UCS
  5
7
330
0
100
AcDbSymbolTable
 70
     0
  0
ENDTAB
  0
TABLE
  2
APPID
  5
9
330
0
100
AcDbSymbolTable
 70
     1
  0
APPID
  5
10
330
9
100
AcDbSymbolTableRecord
100
AcDbRegAppTableRecord
  2
ACAD
 70
     0
  0
ENDTAB
  0
TABLE
  2
DIMSTYLE
  5
A
330
0
100
AcDbSymbolTable
 70
    12
100
AcDbDimStyleTable
 71
     1
340
4E
  0
DIMSTYLE
105
4E
102
{ACAD_REACTORS
330
FCCD
330
FCBC
330
FCBD
330
11B75
330
108B5
330
FCF9
330
FE89
330
FE88
330
FE73
330
FCBB
330
FCAF
330
FCAE
330
FE74
330
FCB2
330
FCB1
330
FCBA
330
FE75
330
FCB0
102
}
330
A
100
AcDbSymbolTableRecord
100
AcDbDimStyleTableRecord
  2
1_4
 70
     0
 40
4.0
 41
3.0
 42
0.0
 43
10.0
 44
1.0
 73
     0
 74
     0
 77
     3
 78
     8
 79
     2
140
3.2
141
0.0
146
0.75
147
1.0
172
     1
173
     1
179
     2
284
     8
289
     1
340
30
341
125
343
125
344
125
  0
DIMSTYLE
105
26A3
330
A
100
AcDbSymbolTableRecord
100
AcDbDimStyleTableRecord
  2
STANDARD
 70
     0
340
F
  0
ENDTAB
  0
TABLE
  2
BLOCK_RECORD
  5
1
330
0
100
AcDbSymbolTable
 70
   206
  0
BLOCK_RECORD
  5
18
330
1
100
AcDbSymbolTableRecord
100
AcDbBlockTableRecord
  2
*MODEL_SPACE
340
1AF
  0
BLOCK_RECORD
  5
15
330
1
100
AcDbSymbolTableRecord
100
AcDbBlockTableRecord
  2
*PAPER_SPACE
340
1B0
  0
BLOCK_RECORD
  5
125
330
1
100
AcDbSymbolTableRecord
100
AcDbBlockTableRecord
  2
_OPEN
340
0
102
{BLKREFS
331
2665
331
2666
331
2671
331
2672
331
267D
331
267E
331
F581
331
F582
331
F575
331
F576
331
11B6F
331
11B70
331
11BD6
331
11BD7
331
11BDF
331
11BE0
331
11BE8
331
11BE9
331
11BF1
331
11BF2
331
11BFA
331
11BFB
331
11C42
331
11C43
331
11C5D
331
11C5E
331
11CA5
331
11CA6
331
11CCC
331
11CCD
331
11CD5
331
11CD6
331
11CDE
331
11CDF
331
11CE7
331
11CE8
331
11CF9
331
11CFA
331
11D02
331
11D03
331
11D0B
331
11D0C
331
11D1D
331
11D1E
331
11D2F
331
11D30
102
}
  0
ENDTAB
  0
ENDSEC
  0
SECTION
  2
BLOCKS
  0
BLOCK
  5
19
330
18
100
AcDbEntity
  8
0
100
AcDbBlockBegin
  2
*MODEL_SPACE
 70
     0
 10
0.0
 20
0.0
 30
0.0
  3
*MODEL_SPACE
  1

  0
ENDBLK
  5
1A
330
18
100
AcDbEntity
  8
0
100
AcDbBlockEnd
  0
BLOCK
  5
16
330
15
100
AcDbEntity
 67
     1
  8
0
100
AcDbBlockBegin
  2
*PAPER_SPACE
 70
     0
 10
0.0
 20
0.0
 30
0.0
  3
*PAPER_SPACE
  1

  0
ENDBLK
  5
17
330
15
100
AcDbEntity
 67
     1
  8
0
100
AcDbBlockEnd
  0
BLOCK
  5
126
330
125
100
AcDbEntity
  8
0
100
AcDbBlockBegin
  2
_OPEN
 70
     0
 10
0.0
 20
0.0
 30
0.0
  3
_OPEN
  1

  0
LINE
  5
127
330
125
100
AcDbEntity
  8
0
  6
ByBlock
 62
     0
100
AcDbLine
 10
-1.0
 20
0.1666666666666666
 30
0.0
 11
0.0
 21
0.0
 31
0.0
  0
LINE
  5
128
330
125
100
AcDbEntity
  8
0
  6
ByBlock
 62
     0
100
AcDbLine
 10
0.0
 20
0.0
 30
0.0
 11
-1.0
 21
-0.1666666666666666
 31
0.0
  0
LINE
  5
129
330
125
100
AcDbEntity
  8
0
  6
ByBlock
 62
     0
100
AcDbLine
 10
0.0
 20
0.0
 30
0.0
 11
-1.0
 21
0.0
 31
0.0
  0
ENDBLK
  5
12A
330
125
100
AcDbEntity
  8
0
100
AcDbBlockEnd
  0
ENDSEC
  0
SECTION
  2
ENTITIES
  0
TEXT
  5
2783
330
18
100
AcDbEntity
  8
0
100
AcDbText
 10
289.9791188454981
 20
596.53434424429
 30
0.0
 40
3.2
  1

 51
10.0
  7
DIMFONT
100
AcDbText
  0
TEXT
  5
2791
330
18
100
AcDbEntity
  8
0
100
AcDbText
 10
399.046620988657
 20
559.3598774521149
 30
0.0
 40
3.2
  1

 51
10.0
  7
DIMFONT
100
AcDbText
  0
LINE
  5
10F6D
330
18
100
AcDbEntity
  8
DRAW2
100
AcDbLine
 10
1838.387749635025
 20
-743.4240615393441
 30
0.0
 11
1836.387839635025
 21
-741.424061539344
 31
0.0
  0
LINE
  5
10F6E
330
18
100
AcDbEntity
  8
DRAW2
100
AcDbLine
 10
1838.387569635025
 20
-743.424001539344
 30
0.0
 11
1812.387569635025
 21
-743.424001539344
 31
0.0
  0
LINE
  5
10F77
330
18
100
AcDbEntity
  8
DRAW2
100
AcDbLine
 10
1838.387839635025
 20
-1264.423881539344
 30
0.0
 11
1836.387899635025
 21
-1266.423891539344
 31
0.0
  0
LINE
  5
10F78
330
18
100
AcDbEntity
  8
DRAW2
100
AcDbLine
 10
1838.387569635025
 20
-1264.423921539344
 30
0.0
 11
1812.387569635025
 21
-1264.423921539344
 31
0.0
  0
CIRCLE
  5
10F79
330
18
100
AcDbEntity
  8
DRAW2
100
AcDbCircle
 10
1858.387569635025
 20
-1189.423968258932
 30
0.0
 40
62.5
  0
CIRCLE
  5
10F7A
330
18
100
AcDbEntity
  8
DRAW2
100
AcDbCircle
 10
1858.387569635025
 20
-825.4239982589318
 30
0.0
 40
62.5
  0
LINE
  5
10F80
330
18
100
AcDbEntity
  8
DRAW2
100
AcDbLine
 10
1369.237638441508
 20
-283.7014794074629
 30
0.0
 11
1369.237638441508
 21
-403.7014794074624
 31
0.0
  0
LINE
  5
10F81
330
18
100
AcDbEntity
  8
DRAW2
100
AcDbLine
 10
1354.237626372522
 20
-283.7014794074629
 30
0.0
 11
1354.237626372522
 21
-403.7014794074624
 31
0.0
  0
LINE
  5
10F82
330
18
100
AcDbEntity
  8
DRAW2
100
AcDbLine
 10
1354.231202811472
 20
-283.7014794074625
 30
0.0
 11
1354.231202811472
 21
-403.7014794074623
 31
0.0
  0
LINE
  5
10F83
330
18
100
AcDbEntity
  8
DRAW2
100
AcDbLine
 10
1264.237586372522
 20
-283.7014794074624
 30
0.0
 11
1264.237586372522
 21
-390.7014794074628
 31
0.0
  0
LINE
  5
10F85
330
18
100
AcDbEntity
  8
DRAW2
100
AcDbLine
 10
1265.734869678615
 20
-369.2014794074625
 30
0.0
 11
1265.734869678615
 21
-494.2014794074626
 31
0.0
  0
LINE
  5
10F86
330
18
100
AcDbEntity
  8
DRAW2
100
AcDbLine
 10
1394.734869678615
 20
-369.2014794074624
 30
0.0
 11
1394.734869678615
 21
-494.2014794074624
 31
0.0
  0
LINE
  5
10F87
330
18
100
AcDbEntity
  8
DRAW2
100
AcDbLine
 10
1414.734869678615
 20
-369.2014794074624
 30
0.0
 11
1414.734869678615
 21
-494.2014794074625
 31
0.0
  0
LINE
  5
10F88
330
18
100
AcDbEntity
  8
DRAW2
100
AcDbLine
 10
1353.734869678615
 20
-369.2014794074625
 30
0.0
 11
1353.734869678615
 21
-494.2014794074626
 31
0.0
  0
LINE
  5
10F89
330
18
100
AcDbEntity
  8
DRAW2
100
AcDbLine
 10
1388.734809678615
 20
-369.7014794074624
 30
0.0
 11
1388.734809678615
 21
-493.7014794074627
 31
0.0
  0
LINE
  5
10F8A
330
18
100
AcDbEntity
  8
DRAW2
100
AcDbLine
 10
1391.734809678615
 20
-369.7014794074624
 30
0.0
 11
1391.734809678615
 21
-493.7014794074627
 31
0.0
  0
LINE
  5
10F8B
330
18
100
AcDbEntity
  8
DRAW2
100
AcDbLine
 10
1124.237586372522
 20
-283.7014794074624
 30
0.0
 11
1124.237586372522
 21
-390.7014794074626
 31
0.0
  0
LINE
  5
10F8D
330
18
100
AcDbEntity
  8
DRAW2
100
AcDbLine
 10
1122.734869678615
 20
-369.2014794074625
 30
0.0
 11
1122.734869678615
 21
-494.2014794074624
 31
0.0
  0
LINE
  5
10F8E
330
18
100
AcDbEntity
  8
DRAW2
100
AcDbLine
 10
994.2375063725226
 20
-370.1006868336271
 30
0.0
 11
994.2375063725226
 21
-396.100746833627
 31
0.0
  0
LINE
  5
10F8F
330
18
100
AcDbEntity
  8
DRAW2
100
AcDbLine
 10
992.2375063725226
 20
-372.1005568336272
 30
0.0
 11
992.2375063725226
 21
-394.100746833627
 31
0.0
  0
LINE
  5
10F90
330
18
100
AcDbEntity
  8
DRAW2
100
AcDbLine
 10
1019.237506372522
 20
-283.7014794074629
 30
0.0
 11
1019.237506372522
 21
-579.7014794074621
 31
0.0
  0
LINE
  5
10F91
330
18
100
AcDbEntity
  8
DRAW2
100
AcDbLine
 10
1034.237506372522
 20
-283.7014794074629
 30
0.0
 11
1034.237506372522
 21
-579.7014794074621
 31
0.0
  0
LINE
  5
10F92
330
18
100
AcDbEntity
  8
DRAW2
100
AcDbLine
 10
1034.734869678615
 20
-369.2014794074624
 30
0.0
 11
1034.734869678615
 21
-494.2014794074625
 31
0.0
  0
LINE
  5
10F93
330
18
100
AcDbEntity
  8
DRAW2
100
AcDbLine
 10
1034.237506372522
 20
-283.7014794074625
 30
0.0
 11
1034.237506372522
 21
-579.7014794074625
 31
0.0
  0
ELLIPSE
  5
10F94
330
18
100
AcDbEntity
  8
DRAW2
100
AcDbEllipse
 10
1194.237572528476
 20
-553.2381730932509
 30
0.0
 11
-33.75
 21
0.0
 31
0.0
210
0.0
220
0.0
230
1.0
 40
0.7071067811865474
 41
7.898440723356257
 42
8.57260455588733
  0
ELLIPSE
  5
10F95
330
18
100
AcDbEntity
  8
DRAW2
100
AcDbEllipse
 10
1194.237572528476
 20
-552.5310663120642
 30
0.0
 11
-34.75
 21
0.0
 31
0.0
210
0.0
220
0.0
230
1.0
 40
0.7071067811865475
 41
1.613975210403592
 42
2.273451040857665
  0
ELLIPSE
  5
10F96
330
18
100
AcDbEntity
  8
DRAW2
100
AcDbEllipse
 10
1194.237568115136
 20
-546.1670990399822
 30
0.0
 11
-6.578504419590103
 21
0.0
 31
0.0
210
0.0
220
0.0
230
1.0
 40
0.7071063068081153
 41
4.962851276889795
 42
6.283185307179586
  0
SPLINE
  5
10F97
330
18
100
AcDbEntity
  8
DRAW3
100
AcDbSpline
210
0.0
220
0.0
230
1.0
 70
     8
 71
     3
 72
    10
 73
     6
 74
     4
 42
0.0000000001
 43
0.0000000001
 44
0.0000000001
 13
1.0
 23
0.0
 33
0.0
 40
0.0
 40
0.0
 40
0.0
 40
0.0
 40
0.8659371579394955
 40
2.478206495521682
 40
3.78907533114856
 40
3.78907533114856
 40
3.78907533114856
 40
3.78907533114856
 10
1192.737572528477
 20
-590.678995455216
 30
0.0
 10
1192.999954940098
 20
-590.4511138319764
 30
0.0
 10
1193.750861389636
 20
-589.7989444294459
 30
0.0
 10
1194.607263363857
 20
-592.2549838375049
 30
0.0
 10
1195.300616249934
 20
-590.5837831005029
 30
0.0
 10
1195.737572528476
 20
-590.5837831005029
 30
0.0
 11
1192.737572528477
 21
-590.678995455216
 31
0.0
 11
1193.501425828498
 21
-590.2711041736885
 31
0.0
 11
1194.685323803281
 21
-591.3655437573171
 31
0.0
 11
1195.737572528476
 21
-590.5837831005029
 31
0.0
  0
ELLIPSE
  5
10F98
330
18
100
AcDbEntity
  8
DRAW2
100
AcDbEllipse
 10
1194.237572528476
 20
-564.5448245251376
 30
0.0
 11
-1.5
 21
0.0
 31
0.0
210
0.0
220
0.0
230
1.0
 40
0.7071067811865154
 41
3.141592653589793
 42
6.283185307179586
  0
ELLIPSE
  5
10F99
330
18
100
AcDbEntity
  8
DRAW2
100
AcDbEllipse
 10
1194.237572528476
 20
-551.1097815404603
 30
0.0
 11
-6.796937499999899
 21
0.0
 31
0.0
210
0.0
220
0.0
230
1.0
 40
0.7071067811865479
 41
5.030991305216312
 42
5.811039199808417
  0
ELLIPSE
  5
10F9A
330
18
100
AcDbEntity
  8
DRAW2
100
AcDbEllipse
 10
1194.237568115136
 20
-546.1670990399822
 30
0.0
 11
-6.578504419590103
 21
0.0
 31
0.0
210
0.0
220
0.0
230
1.0
 40
0.7071063068081153
 41
3.141592653589793
 42
4.461925888677131
  0
ELLIPSE
  5
10F9B
330
18
100
AcDbEntity
  8
DRAW2
100
AcDbEllipse
 10
1194.237572528476
 20
-551.1097815404603
 30
0.0
 11
-6.796937499999899
 21
0.0
 31
0.0
210
0.0
220
0.0
230
1.0
 40
0.7071067811865479
 41
3.613738760960973
 42
4.393786655553083
  0
ELLIPSE
  5
10F9C
330
18
100
AcDbEntity
  8
DRAW2
100
AcDbEllipse
 10
1194.237572528476
 20
-555.3524222275796
 30
0.0
 11
-2.999999999999886
 21
0.0
 31
0.0
210
0.0
220
0.0
230
1.0
 40
0.70710678118658
 41
3.321119192349996
 42
6.103658768419434
  0
ELLIPSE
  5
10F9D
330
18
100
AcDbEntity
  8
DRAW2
100
AcDbEllipse
 10
1194.237572528476
 20
-557.8273101038653
 30
0.0
 11
-5.0
 21
0.0
 31
0.0
210
0.0
220
0.0
230
1.0
 40
0.7071067811865533
 41
3.141592653589793
 42
6.283185307179586
  0
ELLIPSE
  5
10F9E
330
18
100
AcDbEntity
  8
DRAW2
100
AcDbEllipse
 10
1194.237572528476
 20
-564.1912711345443
 30
0.0
 11
-5.0
 21
0.0
 31
0.0
210
0.0
220
0.0
230
1.0
 40
0.7071067811865533
 41
1.875488980810296
 42
7.549288979959012
  0
ELLIPSE
  5
10F9F
330
18
100
AcDbEntity
  8
DRAW2
100
AcDbEllipse
 10
1194.237572528476
 20
-564.5448245251376
 30
0.0
 11
-4.499999999999886
 21
0.0
 31
0.0
210
0.0
220
0.0
230
1.0
 40
0.7071067811865585
 41
1.910633236249056
 42
7.514144724520404
  0
ELLIPSE
  5
10FA0
330
18
100
AcDbEntity
  8
DRAW2
100
AcDbEllipse
 10
1194.237572528476
 20
-552.5310663120642
 30
0.0
 11
-34.75
 21
0.0
 31
0.0
210
0.0
220
0.0
230
1.0
 40
0.7071067811865475
 41
2.656556443515326
 42
6.768221517254436
  0
ELLIPSE
  5
10FA1
330
18
100
AcDbEntity
  8
DRAW2
100
AcDbEllipse
 10
1194.237572528476
 20
-553.2381730932509
 30
0.0
 11
-33.75
 21
0.0
 31
0.0
210
0.0
220
0.0
230
1.0
 40
0.7071067811865474
 41
8.999820459555301
 42
10.89693760136134
  0
ELLIPSE
  5
10FA2
330
18
100
AcDbEntity
  8
DRAW2
100
AcDbEllipse
 10
1218.48628383444
 20
-564.1983603365425
 30
0.0
 11
6.5
 21
0.0
 31
0.0
210
0.0
220
0.0
230
-1.0
 40
0.7071067811865445
 41
2.448432746013041
 42
6.976345214756338
  0
ELLIPSE
  5
10FA3
330
18
100
AcDbEntity
  8
DRAW2
100
AcDbEllipse
 10
1218.48628383444
 20
-563.1377001647627
 30
0.0
 11
6.5
 21
0.0
 31
0.0
210
0.0
220
0.0
230
-1.0
 40
0.7071067811865445
 41
3.141592653589793
 42
6.283185307179586
  0
ELLIPSE
  5
10FA4
330
18
100
AcDbEntity
  8
DRAW2
100
AcDbEllipse
 10
1218.48628383444
 20
-564.1983603365425
 30
0.0
 11
5.0
 21
0.0
 31
0.0
210
0.0
220
0.0
230
-1.0
 40
0.7071067811865305
 41
3.141592653589793
 42
6.283185307179586
  0
ELLIPSE
  5
10FA5
330
18
100
AcDbEntity
  8
DRAW2
100
AcDbEllipse
 10
1218.48628383444
 20
-568.0167369549496
 30
0.0
 11
5.0
 21
0.0
 31
0.0
210
0.0
220
0.0
230
-1.0
 40
0.7071067811865533
 41
0.0
 42
6.283185307179586
  0
ELLIPSE
  5
10FA6
330
18
100
AcDbEntity
  8
DRAW2
100
AcDbEllipse
 10
1218.48628383444
 20
-568.4410010236619
 30
0.0
 11
4.399999999999977
 21
0.0
 31
0.0
210
0.0
220
0.0
230
-1.0
 40
0.7071067811865466
 41
0.0
 42
6.283185307179586
  0
ELLIPSE
  5
10FA7
330
18
100
AcDbEntity
  8
DRAW2
100
AcDbEllipse
 10
1194.237572528476
 20
-553.2381730932509
 30
0.0
 11
-33.75
 21
0.0
 31
0.0
210
0.0
220
0.0
230
1.0
 40
0.7071067811865474
 41
7.137307879376685
 42
7.809522544592718
  0
ELLIPSE
  5
10FA8
330
18
100
AcDbEntity
  8
DRAW2
100
AcDbEllipse
 10
1169.988861222512
 20
-568.4410010236619
 30
0.0
 11
-4.399999999999977
 21
0.0
 31
0.0
210
0.0
220
0.0
230
1.0
 40
0.7071067811865466
 41
0.0
 42
6.283185307179586
  0
ELLIPSE
  5
10FA9
330
18
100
AcDbEntity
  8
DRAW2
100
AcDbEllipse
 10
1169.988861222512
 20
-568.0167369549496
 30
0.0
 11
-5.0
 21
0.0
 31
0.0
210
0.0
220
0.0
230
1.0
 40
0.7071067811865533
 41
0.0
 42
6.283185307179586
  0
ELLIPSE
  5
10FAA
330
18
100
AcDbEntity
  8
DRAW2
100
AcDbEllipse
 10
1169.988861222512
 20
-564.1983603365425
 30
0.0
 11
-5.0
 21
0.0
 31
0.0
210
0.0
220
0.0
230
1.0
 40
0.7071067811865305
 41
3.141592653589793
 42
6.283185307179586
  0
ELLIPSE
  5
10FAB
330
18
100
AcDbEntity
  8
DRAW2
100
AcDbEllipse
 10
1169.988861222512
 20
-563.1377001647627
 30
0.0
 11
-6.5
 21
0.0
 31
0.0
210
0.0
220
0.0
230
1.0
 40
0.7071067811865445
 41
3.141592653589793
 42
6.283185307179586
  0
ELLIPSE
  5
10FAC
330
18
100
AcDbEntity
  8
DRAW2
100
AcDbEllipse
 10
1169.988861222512
 20
-564.1983603365425
 30
0.0
 11
-6.5
 21
0.0
 31
0.0
210
0.0
220
0.0
230
1.0
 40
0.7071067811865445
 41
2.448432746013041
 42
6.976345214756338
  0
ELLIPSE
  5
10FAD
330
18
100
AcDbEntity
  8
DRAW2
100
AcDbEllipse
 10
1194.237572528476
 20
-533.4392377626304
 30
0.0
 11
-6.5
 21
0.0
 31
0.0
210
0.0
220
0.0
230
1.0
 40
0.7071067811865445
 41
3.141592653589793
 42
6.283185307179586
  0
ELLIPSE
  5
10FAE
330
18
100
AcDbEntity
  8
DRAW2
100
AcDbEllipse
 10
1194.237572528476
 20
-534.4998979344103
 30
0.0
 11
-6.5
 21
0.0
 31
0.0
210
0.0
220
0.0
230
1.0
 40
0.7071067811865445
 41
2.448432746013041
 42
6.976345214756338
  0
ELLIPSE
  5
10FAF
330
18
100
AcDbEntity
  8
DRAW2
100
AcDbEllipse
 10
1194.237572528476
 20
-534.4998979344103
 30
0.0
 11
-5.0
 21
0.0
 31
0.0
210
0.0
220
0.0
230
1.0
 40
0.7071067811865305
 41
3.141592653589793
 42
6.283185307179586
  0
ELLIPSE
  5
10FB0
330
18
100
AcDbEntity
  8
DRAW2
100
AcDbEllipse
 10
1194.237572528476
 20
-538.3182745528174
 30
0.0
 11
-5.0
 21
0.0
 31
0.0
210
0.0
220
0.0
230
1.0
 40
0.7071067811865533
 41
0.0
 42
6.283185307179586
  0
ELLIPSE
  5
10FB1
330
18
100
AcDbEntity
  8
DRAW2
100
AcDbEllipse
 10
1194.237572528476
 20
-538.7425386215296
 30
0.0
 11
-4.399999999999977
 21
0.0
 31
0.0
210
0.0
220
0.0
230
1.0
 40
0.7071067811865466
 41
0.0
 42
6.283185307179586
  0
ELLIPSE
  5
10FB2
330
18
100
AcDbEntity
  8
DRAW2
100
AcDbEllipse
 10
1194.237572528476
 20
-551.683888040016
 30
0.0
 11
-35.0
 21
0.0
 31
0.0
210
0.0
220
0.0
230
1.0
 40
0.7071067142857129
 41
2.914613163980236
 42
6.510164796789142
  0
ELLIPSE
  5
10FB3
330
18
100
AcDbEntity
  8
DRAW2
100
AcDbEllipse
 10
1194.237572528476
 20
-552.5310663120642
 30
0.0
 11
-34.75
 21
0.0
 31
0.0
210
0.0
220
0.0
230
1.0
 40
0.7071067811865475
 41
0.8696459500397532
 42
1.52761744318621
  0
ELLIPSE
  5
10FB4
330
18
100
AcDbEntity
  8
DRAW2
100
AcDbEllipse
 10
1194.237572528476
 20
-553.2381730932509
 30
0.0
 11
-33.75
 21
0.0
 31
0.0
210
0.0
220
0.0
230
1.0
 40
0.7071067811865474
 41
4.811025666587616
 42
6.708142808393667
  0
ELLIPSE
  5
10FB5
330
18
100
AcDbEntity
  8
DRAW2
100
AcDbEllipse
 10
1194.237572528476
 20
-884.3873535134809
 30
0.0
 11
-6.5
 21
0.0
 31
0.0
210
0.0
220
0.0
230
1.0
 40
0.7071067811865445
 41
9.055179245550149
 42
9.424777960769379
  0
ELLIPSE
  5
10FB6
330
18
100
AcDbEntity
  8
DRAW2
100
AcDbEllipse
 10
1194.237572528476
 20
-883.3266933417011
 30
0.0
 11
-6.5
 21
0.0
 31
0.0
210
0.0
220
0.0
230
1.0
 40
0.7071067811865445
 41
8.874165523516435
 42
10.11793786834613
  0
SPLINE
  5
10FB7
330
18
100
AcDbEntity
  8
DRAW3
100
AcDbSpline
210
0.0
220
0.0
230
1.0
 70
     8
 71
     3
 72
    10
 73
     6
 74
     4
 42
0.0000000001
 43
0.0000000001
 44
0.0000000001
 13
1.0
 23
0.0
 33
0.0
 40
0.0
 40
0.0
 40
0.0
 40
0.0
 40
0.8659371579394955
 40
2.478206495521682
 40
3.78907533114856
 40
3.78907533114856
 40
3.78907533114856
 40
3.78907533114856
 10
1192.737576941816
 20
-856.8845847386006
 30
0.0
 10
1192.999959353438
 20
-856.656703115361
 30
0.0
 10
1193.750865802976
 20
-856.0045337128304
 30
0.0
 10
1194.607267777197
 20
-858.4605731208895
 30
0.0
 10
1195.300620663274
 20
-856.7893723838876
 30
0.0
 10
1195.737576941816
 20
-856.7893723838876
 30
0.0
 11
1192.737576941816
 21
-856.8845847386006
 31
0.0
 11
1193.501430241838
 21
-856.476693457073
 31
0.0
 11
1194.685328216621
 21
-857.5711330407017
 31
0.0
 11
1195.737576941816
 21
-856.7893723838876
 31
0.0
  0
ELLIPSE
  5
10FB8
330
18
100
AcDbEntity
  8
DRAW2
100
AcDbEllipse
 10
1194.237576941816
 20
-878.7375644304924
 30
0.0
 11
-1.5
 21
0.0
 31
0.0
210
0.0
220
0.0
230
1.0
 40
0.7071067811865911
 41
0.0
 42
3.141592653589793
  0
ELLIPSE
  5
10FB9
330
18
100
AcDbEntity
  8
DRAW2
100
AcDbEllipse
 10
1194.237572528476
 20
-897.1152805535394
 30
0.0
 11
-6.578504419590103
 21
0.0
 31
0.0
210
0.0
220
0.0
230
1.0
 40
0.7071067811868605
 41
6.253834318505114
 42
9.454128949443852
  0
ELLIPSE
  5
10FBA
330
18
100
AcDbEntity
  8
DRAW2
100
AcDbEllipse
 10
1194.237576941816
 20
-892.1726074151695
 30
0.0
 11
-6.796937499999899
 21
0.0
 31
0.0
210
0.0
220
0.0
230
1.0
 40
0.7071067811865479
 41
1.889398651626449
 42
2.669446546218625
  0
ELLIPSE
  5
10FBB
330
18
100
AcDbEntity
  8
DRAW2
100
AcDbEllipse
 10
1194.237576941816
 20
-892.1726074151695
 30
0.0
 11
-6.796937499999899
 21
0.0
 31
0.0
210
0.0
220
0.0
230
1.0
 40
0.7071067811865479
 41
0.4721461073711507
 42
1.252194001963327
  0
ELLIPSE
  5
10FBC
330
18
100
AcDbEntity
  8
DRAW2
100
AcDbEllipse
 10
1194.237576941816
 20
-887.9299667280504
 30
0.0
 11
-3.0
 21
0.0
 31
0.0
210
0.0
220
0.0
230
1.0
 40
0.7071067811865154
 41
0.1795265387601612
 42
2.96206611482958
  0
ELLIPSE
  5
10FBD
330
18
100
AcDbEntity
  8
DRAW2
100
AcDbEllipse
 10
1194.237576941816
 20
-885.4550788517647
 30
0.0
 11
-5.0
 21
0.0
 31
0.0
210
0.0
220
0.0
230
1.0
 40
0.7071067811865533
 41
0.0
 42
3.141592653589793
  0
ELLIPSE
  5
10FBE
330
18
100
AcDbEntity
  8
DRAW2
100
AcDbEllipse
 10
1194.237576941816
 20
-879.0911178210857
 30
0.0
 11
-5.0
 21
0.0
 31
0.0
210
0.0
220
0.0
230
1.0
 40
0.7071067811865305
 41
5.017081634400061
 42
10.69088163354887
  0
ELLIPSE
  5
10FBF
330
18
100
AcDbEntity
  8
DRAW2
100
AcDbEllipse
 10
1194.237576941816
 20
-878.7375644304923
 30
0.0
 11
-4.499999999999886
 21
0.0
 31
0.0
210
0.0
220
0.0
230
1.0
 40
0.7071067811865585
 41
5.052225889838767
 42
10.65573737811011
  0
ELLIPSE
  5
10FC0
330
18
100
AcDbEntity
  8
DRAW2
100
AcDbEllipse
 10
1194.237572528476
 20
-904.1863514861065
 30
0.0
 11
-33.75
 21
0.0
 31
0.0
210
0.0
220
0.0
230
1.0
 40
0.707106781186549
 41
6.905422769715902
 42
8.802540498233016
  0
ELLIPSE
  5
10FC1
330
18
100
AcDbEntity
  8
DRAW2
100
AcDbEllipse
 10
1194.237572528476
 20
-904.1863514861065
 30
0.0
 11
-33.75
 21
0.0
 31
0.0
210
0.0
220
0.0
230
1.0
 40
0.707106781186549
 41
8.999860900473512
 42
10.83955116012818
  0
ELLIPSE
  5
10FC2
330
18
100
AcDbEntity
  8
DRAW2
100
AcDbEllipse
 10
1218.48628383444
 20
-913.0251557438333
 30
0.0
 11
5.0
 21
0.0
 31
0.0
210
0.0
220
0.0
230
-1.0
 40
0.7071067811865533
 41
0.0
 42
3.141592653589793
  0
ELLIPSE
  5
10FC3
330
18
100
AcDbEntity
  8
DRAW2
100
AcDbEllipse
 10
1218.48628383444
 20
-909.2067791254258
 30
0.0
 11
5.0
 21
0.0
 31
0.0
210
0.0
220
0.0
230
-1.0
 40
0.7071067811865533
 41
0.0
 42
6.283185307179586
  0
ELLIPSE
  5
10FC4
330
18
100
AcDbEntity
  8
DRAW2
100
AcDbEllipse
 10
1218.48628383444
 20
-908.7825150567136
 30
0.0
 11
4.399999999999977
 21
0.0
 31
0.0
210
0.0
220
0.0
230
-1.0
 40
0.7071067811865466
 41
0.0
 42
6.283185307179586
  0
ELLIPSE
  5
10FC5
330
18
100
AcDbEntity
  8
DRAW2
100
AcDbEllipse
 10
1218.48628383444
 20
-913.0251557438333
 30
0.0
 11
6.5
 21
0.0
 31
0.0
210
0.0
220
0.0
230
-1.0
 40
0.7071067811865445
 41
5.590025399602834
 42
10.11793786834613
  0
ELLIPSE
  5
10FC6
330
18
100
AcDbEntity
  8
DRAW2
100
AcDbEllipse
 10
1218.48628383444
 20
-914.0858159156131
 30
0.0
 11
6.5
 21
0.0
 31
0.0
210
0.0
220
0.0
230
-1.0
 40
0.7071067811865445
 41
6.283185307179586
 42
9.424777960769379
  0
ELLIPSE
  5
10FC7
330
18
100
AcDbEntity
  8
DRAW2
100
AcDbEllipse
 10
1169.988861222512
 20
-914.0858159156131
 30
0.0
 11
-6.5
 21
0.0
 31
0.0
210
0.0
220
0.0
230
1.0
 40
0.7071067811865445
 41
6.283185307179586
 42
9.424777960769379
  0
ELLIPSE
  5
10FC8
330
18
100
AcDbEntity
  8
DRAW2
100
AcDbEllipse
 10
1169.988861222512
 20
-913.0251557438333
 30
0.0
 11
-6.5
 21
0.0
 31
0.0
210
0.0
220
0.0
230
1.0
 40
0.7071067811865445
 41
5.590025399602834
 42
10.11793786834613
  0
ELLIPSE
  5
10FC9
330
18
100
AcDbEntity
  8
DRAW2
100
AcDbEllipse
 10
1169.988861222512
 20
-908.7825150567136
 30
0.0
 11
-4.399999999999977
 21
0.0
 31
0.0
210
0.0
220
0.0
230
1.0
 40
0.7071067811865466
 41
0.0
 42
6.283185307179586
  0
ELLIPSE
  5
10FCA
330
18
100
AcDbEntity
  8
DRAW2
100
AcDbEllipse
 10
1169.988861222512
 20
-909.2067791254258
 30
0.0
 11
-5.0
 21
0.0
 31
0.0
210
0.0
220
0.0
230
1.0
 40
0.7071067811865533
 41
0.0
 42
6.283185307179586
  0
ELLIPSE
  5
10FCB
330
18
100
AcDbEntity
  8
DRAW2
100
AcDbEllipse
 10
1169.988861222512
 20
-913.0251557438333
 30
0.0
 11
-5.0
 21
0.0
 31
0.0
210
0.0
220
0.0
230
1.0
 40
0.7071067811865533
 41
0.0
 42
3.141592653589793
  0
ELLIPSE
  5
10FCC
330
18
100
AcDbEntity
  8
DRAW2
100
AcDbEllipse
 10
1194.237572528476
 20
-884.3873535134809
 30
0.0
 11
-6.5
 21
0.0
 31
0.0
210
0.0
220
0.0
230
1.0
 40
0.7071067811865445
 41
6.283185307179586
 42
6.652784959481486
  0
ELLIPSE
  5
10FCD
330
18
100
AcDbEntity
  8
DRAW2
100
AcDbEllipse
 10
1194.237572528476
 20
-883.3266933417011
 30
0.0
 11
-6.5
 21
0.0
 31
0.0
210
0.0
220
0.0
230
1.0
 40
0.7071067811865445
 41
5.590025399602834
 42
6.833798639323907
  0
ELLIPSE
  5
10FCE
330
18
100
AcDbEntity
  8
DRAW2
100
AcDbEllipse
 10
1194.237572528476
 20
-905.7406102100371
 30
0.0
 11
-35.0
 21
0.0
 31
0.0
210
0.0
220
0.0
230
1.0
 40
0.7071061428571446
 41
6.056200771725001
 42
9.651762496224058
  0
ELLIPSE
  5
10FCF
330
18
100
AcDbEntity
  8
DRAW2
100
AcDbEllipse
 10
1194.237572528476
 20
-904.8934582672929
 30
0.0
 11
-34.75
 21
0.0
 31
0.0
210
0.0
220
0.0
230
1.0
 40
0.707106781186546
 41
4.863599772708675
 42
10.84436349524029
  0
ELLIPSE
  5
10FD0
330
18
100
AcDbEntity
  8
DRAW2
100
AcDbEllipse
 10
1194.237572528476
 20
-904.1863514861065
 30
0.0
 11
-33.75
 21
0.0
 31
0.0
210
0.0
220
0.0
230
1.0
 40
0.707106781186549
 41
4.868412107820784
 42
6.708102367475452
  0
ELLIPSE
  5
10FD1
330
18
100
AcDbEntity
  8
DRAW2
100
AcDbEllipse
 10
1176.237587757832
 20
-1104.504246873968
 30
0.0
 11
-4.958687499996767
 21
0.0000052447652379
 31
0.0
210
0.0
220
0.0
230
1.0
 40
0.7713572140709201
 41
0.0
 42
6.283185307179586
  0
ELLIPSE
  5
10FD2
330
18
100
AcDbEntity
  8
DRAW2
100
AcDbEllipse
 10
1176.237589818064
 20
-1102.556390838962
 30
0.0
 11
-4.864002410451128
 21
0.0000051446181327
 31
0.0
210
0.0
220
0.0
230
1.0
 40
0.7863728371571654
 41
3.141593998615605
 42
6.283186652206899
  0
ELLIPSE
  5
10FD3
330
18
100
AcDbEntity
  8
DRAW2
100
AcDbEllipse
 10
1212.237580143154
 20
-1104.504246873968
 30
0.0
 11
-4.958687499996767
 21
0.0000052447652379
 31
0.0
210
0.0
220
0.0
230
1.0
 40
0.7713572140709201
 41
0.0
 42
6.283185307179586
  0
ELLIPSE
  5
10FD4
330
18
100
AcDbEntity
  8
DRAW2
100
AcDbEllipse
 10
1212.237582203386
 20
-1102.556390838962
 30
0.0
 11
-4.864002410451128
 21
0.0000051446181327
 31
0.0
210
0.0
220
0.0
230
1.0
 40
0.7863728371571654
 41
3.141593998615605
 42
6.283186652206899
  0
LINE
  5
10FD6
330
18
100
AcDbEntity
  8
DRAW2
100
AcDbLine
 10
1354.231202811472
 20
-579.7014794074625
 30
0.0
 11
1266.231202811472
 21
-579.7014794074625
 31
0.0
  0
LINE
  5
10FD7
330
18
100
AcDbEntity
  8
DRAW2
100
AcDbLine
 10
1343.737572528476
 20
-581.7014794074626
 30
0.0
 11
1238.987572528476
 21
-581.7014794074625
 31
0.0
  0
CIRCLE
  5
10FD8
330
18
100
AcDbEntity
  8
DRAW2
100
AcDbCircle
 10
1315.734930178615
 20
-398.7014794074625
 30
0.0
 40
11.0
  0
CIRCLE
  5
10FD9
330
18
100
AcDbEntity
  8
DRAW2
100
AcDbCircle
 10
1315.734869678615
 20
-398.7014794074625
 30
0.0
 40
13.0
  0
CIRCLE
  5
10FDA
330
18
100
AcDbEntity
  8
DRAW2
100
AcDbCircle
 10
1315.734930178615
 20
-464.7014794074626
 30
0.0
 40
13.0
  0
CIRCLE
  5
10FDB
330
18
100
AcDbEntity
  8
DRAW2
100
AcDbCircle
 10
1315.734990678615
 20
-464.7014794074626
 30
0.0
 40
11.0
  0
LINE
  5
10FDC
330
18
100
AcDbEntity
  8
DRAW2
100
AcDbLine
 10
1265.734929678615
 20
-478.7014794074625
 30
0.0
 11
1353.734929678615
 21
-478.7014794074625
 31
0.0
  0
LINE
  5
10FDD
330
18
100
AcDbEntity
  8
DRAW2
100
AcDbLine
 10
1265.734929678615
 20
-384.7014794074625
 30
0.0
 11
1353.734929678615
 21
-384.7014794074625
 31
0.0
  0
LINE
  5
10FE1
330
18
100
AcDbEntity
  8
DRAW2
100
AcDbLine
 10
1353.734869678615
 20
-494.2014794074626
 30
0.0
 11
1265.734869678615
 21
-494.2014794074626
 31
0.0
  0
LINE
  5
10FE3
330
18
100
AcDbEntity
  8
DRAW2
100
AcDbLine
 10
1353.837592528476
 20
-867.4240239248902
 30
0.0
 11
1265.837522528476
 21
-867.4240239248902
 31
0.0
  0
LINE
  5
10FE4
330
18
100
AcDbEntity
  8
DRAW2
100
AcDbLine
 10
1353.837592528476
 20
-1147.42402392489
 30
0.0
 11
1265.837522528476
 21
-1147.42402392489
 31
0.0
  0
LINE
  5
10FE6
330
18
100
AcDbEntity
  8
DRAW2
100
AcDbLine
 10
1353.737552528476
 20
-1231.42405392489
 30
0.0
 11
1034.737472528476
 21
-1231.42405392489
 31
0.0
  0
LINE
  5
10FE7
330
18
100
AcDbEntity
  8
DRAW2
100
AcDbLine
 10
1353.837592528476
 20
-867.4240239248902
 30
0.0
 11
1265.837522528476
 21
-867.4240239248902
 31
0.0
  0
LINE
  5
10FE9
330
18
100
AcDbEntity
  8
DRAW2
100
AcDbLine
 10
1353.737552528476
 20
-783.4240239248903
 30
0.0
 11
1265.737552528476
 21
-783.4240239248903
 31
0.0
  0
LINE
  5
10FEA
330
18
100
AcDbEntity
  8
DRAW2
100
AcDbLine
 10
1353.737552528476
 20
-768.4240239248903
 30
0.0
 11
1265.737552528476
 21
-768.4240239248903
 31
0.0
  0
LINE
  5
10FEB
330
18
100
AcDbEntity
  8
DRAW2
100
AcDbLine
 10
1034.737572528476
 20
-1246.42405392489
 30
0.0
 11
1353.737492528476
 21
-1246.42405392489
 31
0.0
  0
LINE
  5
10FEC
330
18
100
AcDbEntity
  8
DRAW2
100
AcDbLine
 10
1304.837402528476
 20
-741.4240939248903
 30
0.0
 11
1326.837582528476
 21
-741.4240939248903
 31
0.0
  0
LINE
  5
10FED
330
18
100
AcDbEntity
  8
DRAW2
100
AcDbLine
 10
1302.837522528476
 20
-743.4240239248903
 30
0.0
 11
1328.837582528476
 21
-743.4240239248903
 31
0.0
  0
LINE
  5
10FEE
330
18
100
AcDbEntity
  8
DRAW2
100
AcDbLine
 10
1266.237522528476
 20
-1147.42402392489
 30
0.0
 11
1354.237592528476
 21
-1147.42402392489
 31
0.0
  0
LINE
  5
10FEF
330
18
100
AcDbEntity
  8
DRAW2
100
AcDbLine
 10
1266.237522528476
 20
-867.4240239248902
 30
0.0
 11
1354.237592528476
 21
-867.4240239248902
 31
0.0
  0
LINE
  5
10FF0
330
18
100
AcDbEntity
  8
DRAW2
100
AcDbLine
 10
1329.876342528476
 20
-1266.42405392489
 30
0.0
 11
1301.598762528476
 21
-1266.42405392489
 31
0.0
  0
LINE
  5
10FF3
330
18
100
AcDbEntity
  8
DRAW2
100
AcDbLine
 10
1124.237572528476
 20
-869.4239939248904
 30
0.0
 11
1124.2768319916
 21
-1145.42401392489
 31
0.0
  0
LINE
  5
10FF4
330
18
100
AcDbEntity
  8
DRAW2
100
AcDbLine
 10
1264.237572528476
 20
-869.4239939248904
 30
0.0
 11
1264.237572528476
 21
-1145.42401392489
 31
0.0
  0
LINE
  5
10FF5
330
18
100
AcDbEntity
  8
DRAW2
100
AcDbLine
 10
1018.237472528476
 20
-869.4240239248903
 30
0.0
 11
1018.237472528476
 21
-1145.42408392489
 31
0.0
  0
LINE
  5
10FF6
330
18
100
AcDbEntity
  8
DRAW2
100
AcDbLine
 10
1034.237472528475
 20
-867.4240239248902
 30
0.0
 11
1034.237472528476
 21
-1147.42402392489
 31
0.0
  0
LINE
  5
10FF7
330
18
100
AcDbEntity
  8
DRAW2
100
AcDbLine
 10
1122.237472528476
 20
-867.4240239248902
 30
0.0
 11
1122.237472528476
 21
-1147.42402392489
 31
0.0
  0
LINE
  5
10FF8
330
18
100
AcDbEntity
  8
DRAW2
100
AcDbLine
 10
1266.237522528476
 20
-867.4240239248902
 30
0.0
 11
1266.237522528476
 21
-1147.42402392489
 31
0.0
  0
LINE
  5
10FF9
330
18
100
AcDbEntity
  8
DRAW2
100
AcDbLine
 10
1034.637472528476
 20
-1147.42402392489
 30
0.0
 11
1122.637472528476
 21
-1147.42402392489
 31
0.0
  0
LINE
  5
10FFA
330
18
100
AcDbEntity
  8
DRAW2
100
AcDbLine
 10
1122.237472528476
 20
-1147.42402392489
 30
0.0
 11
1034.237472528476
 21
-1147.42402392489
 31
0.0
  0
LINE
  5
10FFB
330
18
100
AcDbEntity
  8
DRAW2
100
AcDbLine
 10
993.2374725284763
 20
-1137.75672392489
 30
0.0
 11
993.2374725284763
 21
-1111.75666392489
 31
0.0
  0
LINE
  5
10FFC
330
18
100
AcDbEntity
  8
DRAW2
100
AcDbLine
 10
991.2374725284761
 20
-1135.75684392489
 30
0.0
 11
991.2374725284761
 21
-1113.75666392489
 31
0.0
  0
LINE
  5
10FFD
330
18
100
AcDbEntity
  8
DRAW2
100
AcDbLine
 10
1034.737472528476
 20
-1147.42402392489
 30
0.0
 11
1034.737472528476
 21
-1231.42405392489
 31
0.0
  0
LINE
  5
10FFE
330
18
100
AcDbEntity
  8
DRAW2
100
AcDbLine
 10
1034.737572528476
 20
-1231.42405392489
 30
0.0
 11
1034.737572528476
 21
-1246.42405392489
 31
0.0
  0
LINE
  5
11000
330
18
100
AcDbEntity
  8
DRAW2
100
AcDbLine
 10
993.2374725284763
 20
-1137.75672392489
 30
0.0
 11
1018.237472528476
 21
-1137.75672392489
 31
0.0
  0
LINE
  5
11001
330
18
100
AcDbEntity
  8
DRAW2
100
AcDbLine
 10
993.2374725284763
 20
-1137.75660392489
 30
0.0
 11
991.2375725284762
 21
-1135.75678392489
 31
0.0
  0
LINE
  5
11002
330
18
100
AcDbEntity
  8
DRAW2
100
AcDbLine
 10
1018.237472528476
 20
-1145.42408392489
 30
0.0
 11
1034.237472528476
 21
-1145.42408392489
 31
0.0
  0
LINE
  5
11003
330
18
100
AcDbEntity
  8
DRAW2
100
AcDbLine
 10
993.2374725284763
 20
-1069.02485392489
 30
0.0
 11
993.2374725284763
 21
-1043.02479392489
 31
0.0
  0
LINE
  5
11004
330
18
100
AcDbEntity
  8
DRAW2
100
AcDbLine
 10
991.2374725284761
 20
-1067.02491392489
 30
0.0
 11
991.2374725284761
 21
-1045.02473392489
 31
0.0
  0
LINE
  5
11006
330
18
100
AcDbEntity
  8
DRAW2
100
AcDbLine
 10
993.2374725284763
 20
-1069.02485392489
 30
0.0
 11
1018.237472528476
 21
-1069.02485392489
 31
0.0
  0
LINE
  5
11007
330
18
100
AcDbEntity
  8
DRAW2
100
AcDbLine
 10
993.2374725284763
 20
-1111.75666392489
 30
0.0
 11
1018.237472528476
 21
-1111.75666392489
 31
0.0
  0
LINE
  5
11008
330
18
100
AcDbEntity
  8
DRAW2
100
AcDbLine
 10
991.2375725284762
 20
-1113.75672392489
 30
0.0
 11
993.2374725284763
 21
-1111.75672392489
 31
0.0
  0
LINE
  5
11009
330
18
100
AcDbEntity
  8
DRAW2
100
AcDbLine
 10
993.2375725284762
 20
-1069.02466392489
 30
0.0
 11
991.2375725284762
 21
-1067.02473392489
 31
0.0
  0
LINE
  5
1100A
330
18
100
AcDbEntity
  8
DRAW2
100
AcDbLine
 10
993.2374725284763
 20
-1043.02479392489
 30
0.0
 11
1018.237472528476
 21
-1043.02479392489
 31
0.0
  0
LINE
  5
1100B
330
18
100
AcDbEntity
  8
DRAW2
100
AcDbLine
 10
991.2374725284761
 20
-1045.02466392489
 30
0.0
 11
993.2374725284763
 21
-1043.02473392489
 31
0.0
  0
CIRCLE
  5
1100C
330
18
100
AcDbEntity
  8
DRAW3
100
AcDbCircle
 10
1164.237572528476
 20
-1007.42403892489
 30
0.0
 40
10.475
  0
CIRCLE
  5
1100D
330
18
100
AcDbEntity
  8
DRAW2
100
AcDbCircle
 10
1164.237572528476
 20
-1007.42403892489
 30
0.0
 40
11.5
  0
CIRCLE
  5
1100E
330
18
100
AcDbEntity
  8
DRAW2
100
AcDbCircle
 10
1164.237572528476
 20
-1007.42403892489
 30
0.0
 40
14.75
  0
LINE
  5
1100F
330
18
100
AcDbEntity
  8
DRAW2
100
AcDbLine
 10
1122.737572528476
 20
-1148.42408392489
 30
0.0
 11
1265.737552528476
 21
-1148.42408392489
 31
0.0
  0
LINE
  5
11010
330
18
100
AcDbEntity
  8
DRAW2
100
AcDbLine
 10
1122.737572528476
 20
-1230.42402392489
 30
0.0
 11
1265.737552528476
 21
-1230.42402392489
 31
0.0
  0
LINE
  5
11011
330
18
100
AcDbEntity
  8
DRAW2
100
AcDbLine
 10
1124.237572528476
 20
-1145.42401392489
 30
0.0
 11
1264.237572528476
 21
-1145.42401392489
 31
0.0
  0
LINE
  5
11013
330
18
100
AcDbEntity
  8
DRAW2
100
AcDbLine
 10
1173.737593591014
 20
-1105.60993923765
 30
0.0
 11
1176.237587757832
 21
-1106.715629151264
 31
0.0
  0
LINE
  5
11014
330
18
100
AcDbEntity
  8
DRAW2
100
AcDbLine
 10
1176.237587757832
 20
-1102.292872155282
 30
0.0
 11
1173.737593591014
 21
-1103.39855941042
 31
0.0
  0
LINE
  5
11016
330
18
100
AcDbEntity
  8
DRAW2
100
AcDbLine
 10
1058.598772528476
 20
-1266.42405392489
 30
0.0
 11
1086.876372528476
 21
-1266.42405392489
 31
0.0
  0
ARC
  5
11017
330
18
100
AcDbEntity
  8
DRAW2
100
AcDbCircle
 10
1058.598772528476
 20
-1265.42405392489
 30
0.0
 40
1.0
100
AcDbArc
 50
188.5316099999993
 51
270.0000200000019
  0
LINE
  5
11018
330
18
100
AcDbEntity
  8
DRAW2
100
AcDbLine
 10
1054.737572528476
 20
-1246.42402392489
 30
0.0
 11
1057.609772528476
 21
-1265.57239392489
 31
0.0
  0
ARC
  5
11019
330
18
100
AcDbEntity
  8
DRAW2
100
AcDbCircle
 10
1086.876372528476
 20
-1265.42405392489
 30
0.0
 40
1.0
100
AcDbArc
 50
270.0000200000019
 51
351.4683699999937
  0
LINE
  5
1101A
330
18
100
AcDbEntity
  8
DRAW2
100
AcDbLine
 10
1087.865272528476
 20
-1265.57242392489
 30
0.0
 11
1090.737572528476
 21
-1246.42405392489
 31
0.0
  0
LINE
  5
1101B
330
18
100
AcDbEntity
  8
DRAW2
100
AcDbLine
 10
1122.637472528476
 20
-1147.42402392489
 30
0.0
 11
1122.737572528476
 21
-1231.42405392489
 31
0.0
  0
LINE
  5
1101C
330
18
100
AcDbEntity
  8
DRAW2
100
AcDbLine
 10
1173.737593591014
 20
-1103.39855941042
 30
0.0
 11
1173.737593591014
 21
-1105.60993923765
 31
0.0
  0
LINE
  5
1101D
330
18
100
AcDbEntity
  8
DRAW2
100
AcDbLine
 10
1171.278900257832
 20
-1104.504246873968
 30
0.0
 11
1171.373587407612
 21
-1102.556390838962
 31
0.0
  0
CIRCLE
  5
1101E
330
18
100
AcDbEntity
  8
DRAW2
100
AcDbCircle
 10
1164.237572528476
 20
-1007.42403892489
 30
0.0
 40
6.0
  0
CIRCLE
  5
1101F
330
18
100
AcDbEntity
  8
DRAW2
100
AcDbCircle
 10
1164.237572528476
 20
-1007.42403892489
 30
0.0
 40
9.3
  0
LINE
  5
11021
330
18
100
AcDbEntity
  8
DRAW2
100
AcDbLine
 10
1152.91282087557
 20
-1009.42403892489
 30
0.0
 11
1149.6237947828
 21
-1009.42403892489
 31
0.0
  0
LINE
  5
11022
330
18
100
AcDbEntity
  8
DRAW2
100
AcDbLine
 10
1152.91282087557
 20
-1005.42403892489
 30
0.0
 11
1149.6237947828
 21
-1005.42403892489
 31
0.0
  0
LINE
  5
11023
330
18
100
AcDbEntity
  8
DRAW2
100
AcDbLine
 10
1265.737552528476
 20
-1147.42402392489
 30
0.0
 11
1265.737552528476
 21
-1231.42405392489
 31
0.0
  0
ARC
  5
11024
330
18
100
AcDbEntity
  8
DRAW2
100
AcDbCircle
 10
1301.598762528476
 20
-1265.42405392489
 30
0.0
 40
1.0
100
AcDbArc
 50
188.5316099999993
 51
269.9999600000024
  0
LINE
  5
11025
330
18
100
AcDbEntity
  8
DRAW2
100
AcDbLine
 10
1300.609802528476
 20
-1265.57242392489
 30
0.0
 11
1297.737492528476
 21
-1246.42405392489
 31
0.0
  0
LINE
  5
11028
330
18
100
AcDbEntity
  8
DRAW2
100
AcDbLine
 10
1176.237587757832
 20
-1106.715629151264
 30
0.0
 11
1178.737593591014
 21
-1105.60993923765
 31
0.0
  0
LINE
  5
11029
330
18
100
AcDbEntity
  8
DRAW2
100
AcDbLine
 10
1178.737593591014
 20
-1105.60993923765
 30
0.0
 11
1178.737593591014
 21
-1103.39855941042
 31
0.0
  0
LINE
  5
1102A
330
18
100
AcDbEntity
  8
DRAW2
100
AcDbLine
 10
1178.737593591014
 20
-1103.39855941042
 30
0.0
 11
1176.237587757832
 21
-1102.292872155282
 31
0.0
  0
LINE
  5
1102B
330
18
100
AcDbEntity
  8
DRAW2
100
AcDbLine
 10
1181.196275257832
 20
-1104.504246873968
 30
0.0
 11
1181.101592228516
 21
-1102.556390838962
 31
0.0
  0
LINE
  5
1102D
330
18
100
AcDbEntity
  8
DRAW2
100
AcDbLine
 10
1214.737585976336
 20
-1103.39855941042
 30
0.0
 11
1212.237580143154
 21
-1102.292872155282
 31
0.0
  0
LINE
  5
1102E
330
18
100
AcDbEntity
  8
DRAW2
100
AcDbLine
 10
1214.737585976336
 20
-1105.60993923765
 30
0.0
 11
1214.737585976336
 21
-1103.39855941042
 31
0.0
  0
LINE
  5
1102F
330
18
100
AcDbEntity
  8
DRAW2
100
AcDbLine
 10
1212.237580143154
 20
-1106.715629151264
 30
0.0
 11
1214.737585976336
 21
-1105.60993923765
 31
0.0
  0
LINE
  5
11030
330
18
100
AcDbEntity
  8
DRAW2
100
AcDbLine
 10
1209.737585976336
 20
-1105.60993923765
 30
0.0
 11
1212.237580143154
 21
-1106.715629151264
 31
0.0
  0
LINE
  5
11031
330
18
100
AcDbEntity
  8
DRAW2
100
AcDbLine
 10
1209.737585976336
 20
-1103.39855941042
 30
0.0
 11
1209.737585976336
 21
-1105.60993923765
 31
0.0
  0
LINE
  5
11032
330
18
100
AcDbEntity
  8
DRAW2
100
AcDbLine
 10
1212.237580143154
 20
-1102.292872155282
 30
0.0
 11
1209.737585976336
 21
-1103.39855941042
 31
0.0
  0
LINE
  5
11033
330
18
100
AcDbEntity
  8
DRAW2
100
AcDbLine
 10
1217.196267643154
 20
-1104.504246873968
 30
0.0
 11
1217.101584613838
 21
-1102.556390838962
 31
0.0
  0
LINE
  5
11034
330
18
100
AcDbEntity
  8
DRAW2
100
AcDbLine
 10
1207.278892643155
 20
-1104.504246873968
 30
0.0
 11
1207.373579792934
 21
-1102.556390838962
 31
0.0
  0
LINE
  5
11035
330
18
100
AcDbEntity
  8
DRAW2
100
AcDbLine
 10
1178.851350274151
 20
-1009.42403892489
 30
0.0
 11
1175.562324181382
 21
-1009.42403892489
 31
0.0
  0
LINE
  5
11036
330
18
100
AcDbEntity
  8
DRAW2
100
AcDbLine
 10
1178.851350274151
 20
-1005.42403892489
 30
0.0
 11
1175.562324181382
 21
-1005.42403892489
 31
0.0
  0
CIRCLE
  5
11037
330
18
100
AcDbEntity
  8
DRAW2
100
AcDbCircle
 10
1224.237572528476
 20
-1007.42403892489
 30
0.0
 40
6.0
  0
CIRCLE
  5
11038
330
18
100
AcDbEntity
  8
DRAW2
100
AcDbCircle
 10
1224.237572528476
 20
-1007.42403892489
 30
0.0
 40
11.5
  0
CIRCLE
  5
11039
330
18
100
AcDbEntity
  8
DRAW3
100
AcDbCircle
 10
1224.237572528476
 20
-1007.42403892489
 30
0.0
 40
10.475
  0
CIRCLE
  5
1103A
330
18
100
AcDbEntity
  8
DRAW2
100
AcDbCircle
 10
1224.237587528476
 20
-1007.42402392489
 30
0.0
 40
14.75
  0
CIRCLE
  5
1103B
330
18
100
AcDbEntity
  8
DRAW2
100
AcDbCircle
 10
1224.237572528476
 20
-1007.42403892489
 30
0.0
 40
9.3
  0
LINE
  5
1103D
330
18
100
AcDbEntity
  8
DRAW2
100
AcDbLine
 10
1209.623794782801
 20
-1009.42403892489
 30
0.0
 11
1212.91282087557
 21
-1009.42403892489
 31
0.0
  0
LINE
  5
1103E
330
18
100
AcDbEntity
  8
DRAW2
100
AcDbLine
 10
1209.623794782801
 20
-1005.42403892489
 30
0.0
 11
1212.91282087557
 21
-1005.42403892489
 31
0.0
  0
LINE
  5
1103F
330
18
100
AcDbEntity
  8
DRAW2
100
AcDbLine
 10
1235.562339181382
 20
-1009.42402392489
 30
0.0
 11
1238.851365274151
 21
-1009.42402392489
 31
0.0
  0
LINE
  5
11040
330
18
100
AcDbEntity
  8
DRAW2
100
AcDbLine
 10
1235.562339181382
 20
-1005.42402392489
 30
0.0
 11
1238.851365274151
 21
-1005.42402392489
 31
0.0
  0
LINE
  5
11041
330
18
100
AcDbEntity
  8
DRAW2
100
AcDbLine
 10
1122.734849678615
 20
-478.7014794074625
 30
0.0
 11
1034.734849678615
 21
-478.7014794074625
 31
0.0
  0
LINE
  5
11042
330
18
100
AcDbEntity
  8
DRAW2
100
AcDbLine
 10
1122.734849678615
 20
-384.7014794074625
 30
0.0
 11
1034.734849678615
 21
-384.7014794074625
 31
0.0
  0
LINE
  5
11043
330
18
100
AcDbEntity
  8
DRAW2
100
AcDbLine
 10
1034.734869678615
 20
-494.2014794074625
 30
0.0
 11
1122.734869678615
 21
-494.2014794074624
 31
0.0
  0
LINE
  5
11044
330
18
100
AcDbEntity
  8
DRAW2
100
AcDbLine
 10
1034.237506372522
 20
-579.7014794074625
 30
0.0
 11
1122.237506372522
 21
-579.7014794074625
 31
0.0
  0
LINE
  5
11045
330
18
100
AcDbEntity
  8
DRAW2
100
AcDbLine
 10
1034.637472528476
 20
-867.4240239248902
 30
0.0
 11
1122.637472528476
 21
-867.4240239248902
 31
0.0
  0
LINE
  5
11046
330
18
100
AcDbEntity
  8
DRAW2
100
AcDbLine
 10
1034.737472528476
 20
-768.4240239248903
 30
0.0
 11
1122.737572528476
 21
-768.4240239248903
 31
0.0
  0
LINE
  5
11047
330
18
100
AcDbEntity
  8
DRAW2
100
AcDbLine
 10
1034.737472528476
 20
-783.4240239248903
 30
0.0
 11
1122.737572528476
 21
-783.4240239248903
 31
0.0
  0
LINE
  5
11048
330
18
100
AcDbEntity
  8
DRAW2
100
AcDbLine
 10
1034.237472528476
 20
-867.4240239248902
 30
0.0
 11
1122.237472528476
 21
-867.4240239248902
 31
0.0
  0
LINE
  5
1104A
330
18
100
AcDbEntity
  8
DRAW2
100
AcDbLine
 10
1034.737472528476
 20
-867.4240239248902
 30
0.0
 11
1034.737472528476
 21
-768.4240239248903
 31
0.0
  0
LINE
  5
1104B
330
18
100
AcDbEntity
  8
DRAW2
100
AcDbLine
 10
993.2374725284763
 20
-877.0913239248903
 30
0.0
 11
993.2374725284763
 21
-903.0913839248903
 31
0.0
  0
LINE
  5
1104C
330
18
100
AcDbEntity
  8
DRAW2
100
AcDbLine
 10
991.2374725284761
 20
-879.0911939248905
 30
0.0
 11
991.2374725284761
 21
-901.0913839248901
 31
0.0
  0
LINE
  5
1104D
330
18
100
AcDbEntity
  8
DRAW2
100
AcDbLine
 10
993.2374725284763
 20
-903.0913839248903
 30
0.0
 11
1018.237472528476
 21
-903.0913839248903
 31
0.0
  0
LINE
  5
1104E
330
18
100
AcDbEntity
  8
DRAW2
100
AcDbLine
 10
993.2374725284763
 20
-971.8233139248903
 30
0.0
 11
1018.237472528476
 21
-971.8233139248903
 31
0.0
  0
LINE
  5
1104F
330
18
100
AcDbEntity
  8
DRAW2
100
AcDbLine
 10
993.2374725284763
 20
-945.8232539248903
 30
0.0
 11
1018.237472528476
 21
-945.8232539248903
 31
0.0
  0
LINE
  5
11050
330
18
100
AcDbEntity
  8
DRAW2
100
AcDbLine
 10
993.2375725284762
 20
-945.8233139248903
 30
0.0
 11
991.2376725284762
 21
-947.8232539248903
 31
0.0
  0
LINE
  5
11051
330
18
100
AcDbEntity
  8
DRAW2
100
AcDbLine
 10
991.2374725284761
 20
-969.8233739248903
 30
0.0
 11
993.2374725284763
 21
-971.8233139248903
 31
0.0
  0
LINE
  5
11052
330
18
100
AcDbEntity
  8
DRAW2
100
AcDbLine
 10
991.2374725284761
 20
-947.8231339248903
 30
0.0
 11
991.2374725284761
 21
-969.8233139248904
 31
0.0
  0
LINE
  5
11053
330
18
100
AcDbEntity
  8
DRAW2
100
AcDbLine
 10
993.2374725284763
 20
-945.8232539248903
 30
0.0
 11
993.2374725284763
 21
-971.8233139248903
 31
0.0
  0
LINE
  5
11054
330
18
100
AcDbEntity
  8
DRAW2
100
AcDbLine
 10
991.2374725284761
 20
-901.0914439248903
 30
0.0
 11
993.2374725284763
 21
-903.0913839248903
 31
0.0
  0
LINE
  5
11055
330
18
100
AcDbEntity
  8
DRAW2
100
AcDbLine
 10
993.2374725284763
 20
-877.0913239248903
 30
0.0
 11
1018.237472528476
 21
-877.0913239248903
 31
0.0
  0
LINE
  5
11057
330
18
100
AcDbEntity
  8
DRAW2
100
AcDbLine
 10
993.2375725284762
 20
-877.0913839248903
 30
0.0
 11
991.2375725284762
 21
-879.0912539248903
 31
0.0
  0
LINE
  5
11058
330
18
100
AcDbEntity
  8
DRAW2
100
AcDbLine
 10
1018.237472528476
 20
-869.4240239248903
 30
0.0
 11
1034.237472528476
 21
-869.4240239248903
 31
0.0
  0
LINE
  5
11059
330
18
100
AcDbEntity
  8
DRAW2
100
AcDbLine
 10
994.2375063725226
 20
-536.0341815744022
 30
0.0
 11
1019.237506372522
 21
-536.0341815744022
 31
0.0
  0
LINE
  5
1105A
330
18
100
AcDbEntity
  8
DRAW2
100
AcDbLine
 10
994.2375063725226
 20
-562.0342415744021
 30
0.0
 11
1019.237506372522
 21
-562.0342415744021
 31
0.0
  0
LINE
  5
1105C
330
18
100
AcDbEntity
  8
DRAW2
100
AcDbLine
 10
994.2376063725223
 20
-536.0342415744021
 30
0.0
 11
992.2376063725224
 21
-538.0341115744022
 31
0.0
  0
LINE
  5
1105D
330
18
100
AcDbEntity
  8
DRAW2
100
AcDbLine
 10
992.2375063725226
 20
-560.0343015744022
 30
0.0
 11
994.2375063725226
 21
-562.0342415744021
 31
0.0
  0
LINE
  5
1105E
330
18
100
AcDbEntity
  8
DRAW2
100
AcDbLine
 10
994.2375063725226
 20
-536.0341815744022
 30
0.0
 11
994.2375063725226
 21
-562.0342415744021
 31
0.0
  0
LINE
  5
1105F
330
18
100
AcDbEntity
  8
DRAW2
100
AcDbLine
 10
992.2375063725226
 20
-538.0340515744023
 30
0.0
 11
992.2375063725226
 21
-560.0342415744021
 31
0.0
  0
LINE
  5
11060
330
18
100
AcDbEntity
  8
DRAW2
100
AcDbLine
 10
1034.237506372522
 20
-579.7014794074621
 30
0.0
 11
1019.237506372522
 21
-579.7014794074621
 31
0.0
  0
LINE
  5
11061
330
18
100
AcDbEntity
  8
DRAW2
100
AcDbLine
 10
1034.734849678615
 20
-384.7014794074625
 30
0.0
 11
1034.734849678615
 21
-478.7014794074625
 31
0.0
  0
LINE
  5
11062
330
18
100
AcDbEntity
  8
DRAW2
100
AcDbLine
 10
994.2375063725226
 20
-467.302273772587
 30
0.0
 11
1019.237506372522
 21
-467.302273772587
 31
0.0
  0
LINE
  5
11063
330
18
100
AcDbEntity
  8
DRAW2
100
AcDbLine
 10
994.2375063725226
 20
-493.3023337725868
 30
0.0
 11
1019.237506372522
 21
-493.3023337725868
 31
0.0
  0
LINE
  5
11065
330
18
100
AcDbEntity
  8
DRAW2
100
AcDbLine
 10
994.2375063725226
 20
-467.302273772587
 30
0.0
 11
994.2375063725226
 21
-493.3023337725868
 31
0.0
  0
LINE
  5
11066
330
18
100
AcDbEntity
  8
DRAW2
100
AcDbLine
 10
992.2375063725226
 20
-469.3021437725871
 30
0.0
 11
992.2375063725226
 21
-491.3023337725868
 31
0.0
  0
LINE
  5
11067
330
18
100
AcDbEntity
  8
DRAW2
100
AcDbLine
 10
992.2375063725226
 20
-491.3023937725869
 30
0.0
 11
994.2375063725226
 21
-493.3023337725868
 31
0.0
  0
LINE
  5
11068
330
18
100
AcDbEntity
  8
DRAW2
100
AcDbLine
 10
994.2376063725223
 20
-467.3023337725868
 30
0.0
 11
992.2376063725224
 21
-469.3022037725869
 31
0.0
  0
LINE
  5
11069
330
18
100
AcDbEntity
  8
DRAW2
100
AcDbLine
 10
1034.237506372522
 20
-485.1804472359463
 30
0.0
 11
1019.237506372522
 21
-485.1804472359463
 31
0.0
  0
LINE
  5
1106A
330
18
100
AcDbEntity
  8
DRAW2
100
AcDbLine
 10
1034.237506372522
 20
-479.7014794074624
 30
0.0
 11
1034.734869678615
 21
-479.7014794074624
 31
0.0
  0
LINE
  5
1106B
330
18
100
AcDbEntity
  8
DRAW2
100
AcDbLine
 10
994.2375063725226
 20
-396.100746833627
 30
0.0
 11
1019.237506372522
 21
-396.100746833627
 31
0.0
  0
LINE
  5
1106D
330
18
100
AcDbEntity
  8
DRAW2
100
AcDbLine
 10
992.2375063725226
 20
-394.100806833627
 30
0.0
 11
994.2375063725226
 21
-396.100746833627
 31
0.0
  0
LINE
  5
1106E
330
18
100
AcDbEntity
  8
DRAW2
100
AcDbLine
 10
1034.237506372522
 20
-378.2225062918759
 30
0.0
 11
1019.237506372522
 21
-378.2225062918759
 31
0.0
  0
LINE
  5
1106F
330
18
100
AcDbEntity
  8
DRAW2
100
AcDbLine
 10
1034.237506372522
 20
-383.7014794074623
 30
0.0
 11
1034.734869678615
 21
-383.7014794074624
 31
0.0
  0
LINE
  5
11070
330
18
100
AcDbEntity
  8
DRAW2
100
AcDbLine
 10
1122.737572528476
 20
-866.4239639248904
 30
0.0
 11
1192.737576941816
 21
-866.4239639248906
 31
0.0
  0
LINE
  5
11071
330
18
100
AcDbEntity
  8
DRAW2
100
AcDbLine
 10
1122.737572528476
 20
-784.4240239248903
 30
0.0
 11
1265.737552528476
 21
-784.4240239248903
 31
0.0
  0
LINE
  5
11072
330
18
100
AcDbEntity
  8
DRAW2
100
AcDbLine
 10
1124.237572528476
 20
-869.4239939248904
 30
0.0
 11
1192.737576941816
 21
-869.4239939248904
 31
0.0
  0
LINE
  5
11074
330
18
100
AcDbEntity
  8
DRAW2
100
AcDbLine
 10
1122.737572528476
 20
-867.4240239248902
 30
0.0
 11
1122.737572528476
 21
-784.4240239248903
 31
0.0
  0
LINE
  5
11075
330
18
100
AcDbEntity
  8
DRAW2
100
AcDbLine
 10
1169.988861222512
 20
-910.823756509033
 30
0.0
 11
1172.488861222512
 21
-909.8031357828734
 31
0.0
  0
LINE
  5
11076
330
18
100
AcDbEntity
  8
DRAW2
100
AcDbLine
 10
1167.488861222512
 20
-909.8031357828734
 30
0.0
 11
1169.988861222512
 21
-910.823756509033
 31
0.0
  0
LINE
  5
11077
330
18
100
AcDbEntity
  8
DRAW2
100
AcDbLine
 10
1169.988861222512
 20
-906.7412736043946
 30
0.0
 11
1172.488861222512
 21
-907.7618943305539
 31
0.0
  0
LINE
  5
11078
330
18
100
AcDbEntity
  8
DRAW2
100
AcDbLine
 10
1167.488861222512
 20
-907.7618943305539
 30
0.0
 11
1169.988861222512
 21
-906.7412736043946
 31
0.0
  0
LINE
  5
11079
330
18
100
AcDbEntity
  8
DRAW2
100
AcDbLine
 10
1167.488861222512
 20
-909.8031357828734
 30
0.0
 11
1167.488861222512
 21
-907.7618943305539
 31
0.0
  0
LINE
  5
1107A
330
18
100
AcDbEntity
  8
DRAW2
100
AcDbLine
 10
1172.488861222512
 20
-907.7618943305539
 30
0.0
 11
1172.488861222512
 21
-909.8031357828734
 31
0.0
  0
LINE
  5
1107B
330
18
100
AcDbEntity
  8
DRAW2
100
AcDbLine
 10
1163.488861222512
 20
-914.0858159156131
 30
0.0
 11
1163.488861222512
 21
-913.0251557438333
 31
0.0
  0
LINE
  5
1107C
330
18
100
AcDbEntity
  8
DRAW2
100
AcDbLine
 10
1164.988861222512
 20
-913.0251557438333
 30
0.0
 11
1164.988861222512
 21
-909.2067791254258
 31
0.0
  0
LINE
  5
1107D
330
18
100
AcDbEntity
  8
DRAW2
100
AcDbLine
 10
1159.487572528476
 20
-908.6933604972408
 30
0.0
 11
1159.487572528476
 21
-904.8934582672929
 31
0.0
  0
LINE
  5
1107E
330
18
100
AcDbEntity
  8
DRAW2
100
AcDbLine
 10
1085.737672528476
 20
-743.4240239248903
 30
0.0
 11
1085.737672528476
 21
-768.4240239248903
 31
0.0
  0
LINE
  5
1107F
330
18
100
AcDbEntity
  8
DRAW2
100
AcDbLine
 10
1059.737672528476
 20
-743.4240239248903
 30
0.0
 11
1059.737672528476
 21
-768.4240239248903
 31
0.0
  0
LINE
  5
11080
330
18
100
AcDbEntity
  8
DRAW2
100
AcDbLine
 10
1085.737572528476
 20
-743.4240839248901
 30
0.0
 11
1059.737472528476
 21
-743.4240839248901
 31
0.0
  0
LINE
  5
11081
330
18
100
AcDbEntity
  8
DRAW2
100
AcDbLine
 10
1083.737672528476
 20
-741.4241439248904
 30
0.0
 11
1061.737472528476
 21
-741.4241439248904
 31
0.0
  0
LINE
  5
11082
330
18
100
AcDbEntity
  8
DRAW2
100
AcDbLine
 10
1061.737572528476
 20
-741.4241439248904
 30
0.0
 11
1059.737572528476
 21
-743.4241439248904
 31
0.0
  0
LINE
  5
11083
330
18
100
AcDbEntity
  8
DRAW2
100
AcDbLine
 10
1085.737672528476
 20
-743.4242039248903
 30
0.0
 11
1083.737772528476
 21
-741.4242039248903
 31
0.0
  0
LINE
  5
11084
330
18
100
AcDbEntity
  8
DRAW2
100
AcDbLine
 10
1122.737572528476
 20
-784.4240239248903
 30
0.0
 11
1122.737572528476
 21
-768.4240239248903
 31
0.0
  0
LINE
  5
11085
330
18
100
AcDbEntity
  8
DRAW2
100
AcDbLine
 10
1265.737552528476
 20
-867.4240239248902
 30
0.0
 11
1265.737552528476
 21
-784.4240239248903
 31
0.0
  0
LINE
  5
11086
330
18
100
AcDbEntity
  8
DRAW2
100
AcDbLine
 10
1195.737576941816
 20
-869.4239939248902
 30
0.0
 11
1264.237572528476
 21
-869.4239939248904
 31
0.0
  0
LINE
  5
11087
330
18
100
AcDbEntity
  8
DRAW2
100
AcDbLine
 10
1195.737576941816
 20
-866.4239639248906
 30
0.0
 11
1265.737552528476
 21
-866.4239639248904
 31
0.0
  0
LINE
  5
11088
330
18
100
AcDbEntity
  8
DRAW2
100
AcDbLine
 10
1176.488861222512
 20
-913.0251557438333
 30
0.0
 11
1176.488861222512
 21
-914.0858159156131
 31
0.0
  0
LINE
  5
11089
330
18
100
AcDbEntity
  8
DRAW2
100
AcDbLine
 10
1174.988861222512
 20
-909.2067791254258
 30
0.0
 11
1174.988861222512
 21
-913.0251557438333
 31
0.0
  0
LINE
  5
1108A
330
18
100
AcDbEntity
  8
DRAW2
100
AcDbLine
 10
1220.98628383444
 20
-907.7618943305539
 30
0.0
 11
1220.98628383444
 21
-909.8031357828734
 31
0.0
  0
LINE
  5
1108B
330
18
100
AcDbEntity
  8
DRAW2
100
AcDbLine
 10
1215.98628383444
 20
-909.8031357828734
 30
0.0
 11
1215.98628383444
 21
-907.7618943305539
 31
0.0
  0
LINE
  5
1108C
330
18
100
AcDbEntity
  8
DRAW2
100
AcDbLine
 10
1215.98628383444
 20
-907.7618943305539
 30
0.0
 11
1218.48628383444
 21
-906.7412736043946
 31
0.0
  0
LINE
  5
1108D
330
18
100
AcDbEntity
  8
DRAW2
100
AcDbLine
 10
1218.48628383444
 20
-906.7412736043946
 30
0.0
 11
1220.98628383444
 21
-907.7618943305539
 31
0.0
  0
LINE
  5
1108E
330
18
100
AcDbEntity
  8
DRAW2
100
AcDbLine
 10
1215.98628383444
 20
-909.8031357828734
 30
0.0
 11
1218.48628383444
 21
-910.823756509033
 31
0.0
  0
LINE
  5
1108F
330
18
100
AcDbEntity
  8
DRAW2
100
AcDbLine
 10
1218.48628383444
 20
-910.823756509033
 30
0.0
 11
1220.98628383444
 21
-909.8031357828734
 31
0.0
  0
LINE
  5
11090
330
18
100
AcDbEntity
  8
DRAW2
100
AcDbLine
 10
1213.48628383444
 20
-909.2067791254258
 30
0.0
 11
1213.48628383444
 21
-913.0251557438333
 31
0.0
  0
LINE
  5
11091
330
18
100
AcDbEntity
  8
DRAW2
100
AcDbLine
 10
1223.48628383444
 20
-913.0251557438333
 30
0.0
 11
1223.48628383444
 21
-909.2067791254258
 31
0.0
  0
LINE
  5
11092
330
18
100
AcDbEntity
  8
DRAW2
100
AcDbLine
 10
1211.98628383444
 20
-913.0251557438333
 30
0.0
 11
1211.98628383444
 21
-914.0858159156131
 31
0.0
  0
LINE
  5
11093
330
18
100
AcDbEntity
  8
DRAW2
100
AcDbLine
 10
1224.98628383444
 20
-914.0858159156131
 30
0.0
 11
1224.98628383444
 21
-913.0251557438333
 31
0.0
  0
LINE
  5
11094
330
18
100
AcDbEntity
  8
DRAW2
100
AcDbLine
 10
1228.987572528476
 20
-908.6933604972408
 30
0.0
 11
1228.987572528476
 21
-904.8934582672929
 31
0.0
  0
LINE
  5
11095
330
18
100
AcDbEntity
  8
DRAW2
100
AcDbLine
 10
1195.737576941816
 20
-878.7375644304924
 30
0.0
 11
1195.737576941816
 21
-856.7893723838876
 31
0.0
  0
LINE
  5
11096
330
18
100
AcDbEntity
  8
DRAW2
100
AcDbLine
 10
1192.737576941816
 20
-878.7375644304924
 30
0.0
 11
1192.737576941816
 21
-856.8845847386006
 31
0.0
  0
LINE
  5
11097
330
18
100
AcDbEntity
  8
DRAW2
100
AcDbLine
 10
1193.237576941816
 20
-897.4212133741982
 30
0.0
 11
1186.237576941816
 21
-893.178572687079
 31
0.0
  0
LINE
  5
11098
330
18
100
AcDbEntity
  8
DRAW2
100
AcDbLine
 10
1193.237576941816
 20
-892.879714196356
 30
0.0
 11
1186.237576941816
 21
-888.6370735092368
 31
0.0
  0
LINE
  5
11099
330
18
100
AcDbEntity
  8
DRAW2
100
AcDbLine
 10
1187.522812859484
 20
-893.9575432866281
 30
0.0
 11
1187.661901532223
 21
-896.9787680127208
 31
0.0
  0
LINE
  5
1109A
330
18
100
AcDbEntity
  8
DRAW2
100
AcDbLine
 10
1186.237576941816
 20
-888.6370735092368
 30
0.0
 11
1186.237576941816
 21
-893.178572687079
 31
0.0
  0
LINE
  5
1109B
330
18
100
AcDbEntity
  8
DRAW2
100
AcDbLine
 10
1186.237576941816
 20
-887.2228599468638
 30
0.0
 11
1189.237576941816
 21
-885.4045853666699
 31
0.0
  0
LINE
  5
1109C
330
18
100
AcDbEntity
  8
DRAW2
100
AcDbLine
 10
1186.237576941816
 20
-888.6370735092368
 30
0.0
 11
1186.237576941816
 21
-887.2228599468638
 31
0.0
  0
LINE
  5
1109D
330
18
100
AcDbEntity
  8
DRAW2
100
AcDbLine
 10
1189.237576941816
 20
-885.4550788517647
 30
0.0
 11
1189.237576941816
 21
-879.0911178210857
 31
0.0
  0
LINE
  5
1109E
330
18
100
AcDbEntity
  8
DRAW2
100
AcDbLine
 10
1189.237572528476
 20
-883.3266933417011
 30
0.0
 11
1189.237572528476
 21
-879.5083167232936
 31
0.0
  0
LINE
  5
1109F
330
18
100
AcDbEntity
  8
DRAW2
100
AcDbLine
 10
1187.737572528476
 20
-884.3873535134809
 30
0.0
 11
1187.737572528476
 21
-883.3266933417011
 31
0.0
  0
LINE
  5
110A0
330
18
100
AcDbEntity
  8
DRAW2
100
AcDbLine
 10
1200.952337651955
 20
-893.9575453304863
 30
0.0
 11
1200.813243524729
 21
-896.9787680127208
 31
0.0
  0
LINE
  5
110A1
330
18
100
AcDbEntity
  8
DRAW2
100
AcDbLine
 10
1202.237576941816
 20
-888.6370735092368
 30
0.0
 11
1202.237576941816
 21
-893.178572687079
 31
0.0
  0
LINE
  5
110A2
330
18
100
AcDbEntity
  8
DRAW2
100
AcDbLine
 10
1195.237576941816
 20
-892.879714196356
 30
0.0
 11
1195.237576941816
 21
-897.4212133741982
 31
0.0
  0
LINE
  5
110A3
330
18
100
AcDbEntity
  8
DRAW2
100
AcDbLine
 10
1193.237576941816
 20
-892.879714196356
 30
0.0
 11
1193.237576941816
 21
-897.4212133741982
 31
0.0
  0
LINE
  5
110A4
330
18
100
AcDbEntity
  8
DRAW2
100
AcDbLine
 10
1202.237576941816
 20
-893.178572687079
 30
0.0
 11
1195.237576941816
 21
-897.4212133741982
 31
0.0
  0
LINE
  5
110A5
330
18
100
AcDbEntity
  8
DRAW2
100
AcDbLine
 10
1193.237576941816
 20
-897.4212133741982
 30
0.0
 11
1195.237576941816
 21
-897.4212133741982
 31
0.0
  0
LINE
  5
110A6
330
18
100
AcDbEntity
  8
DRAW2
100
AcDbLine
 10
1202.237576941816
 20
-888.6370735092368
 30
0.0
 11
1195.237576941816
 21
-892.879714196356
 31
0.0
  0
LINE
  5
110A7
330
18
100
AcDbEntity
  8
DRAW2
100
AcDbLine
 10
1199.237576941816
 20
-885.4045853666699
 30
0.0
 11
1202.237576941816
 21
-887.2228599468638
 31
0.0
  0
LINE
  5
110A8
330
18
100
AcDbEntity
  8
DRAW2
100
AcDbLine
 10
1202.237576941816
 20
-887.2228599468638
 30
0.0
 11
1202.237576941816
 21
-888.6370735092368
 31
0.0
  0
LINE
  5
110A9
330
18
100
AcDbEntity
  8
DRAW2
100
AcDbLine
 10
1193.237576941816
 20
-892.879714196356
 30
0.0
 11
1195.237576941816
 21
-892.879714196356
 31
0.0
  0
LINE
  5
110AA
330
18
100
AcDbEntity
  8
DRAW2
100
AcDbLine
 10
1199.237576941816
 20
-879.0911178210857
 30
0.0
 11
1199.237576941816
 21
-885.4550788517647
 31
0.0
  0
LINE
  5
110AB
330
18
100
AcDbEntity
  8
DRAW2
100
AcDbLine
 10
1199.237572528476
 20
-879.5083167232936
 30
0.0
 11
1199.237572528476
 21
-883.3266933417011
 31
0.0
  0
LINE
  5
110AC
330
18
100
AcDbEntity
  8
DRAW2
100
AcDbLine
 10
1200.737572528476
 20
-883.3266933417011
 30
0.0
 11
1200.737572528476
 21
-884.3873535134809
 31
0.0
  0
LINE
  5
110AD
330
18
100
AcDbEntity
  8
DRAW2
100
AcDbLine
 10
1302.837522528476
 20
-743.4240239248903
 30
0.0
 11
1302.837522528476
 21
-768.4240239248903
 31
0.0
  0
LINE
  5
110AE
330
18
100
AcDbEntity
  8
DRAW2
100
AcDbLine
 10
1265.737552528476
 20
-784.4240239248903
 30
0.0
 11
1265.737552528476
 21
-768.4240239248903
 31
0.0
  0
LINE
  5
110AF
330
18
100
AcDbEntity
  8
DRAW2
100
AcDbLine
 10
1302.837702528476
 20
-743.4241539248902
 30
0.0
 11
1304.837522528476
 21
-741.4242739248903
 31
0.0
  0
LINE
  5
110B0
330
18
100
AcDbEntity
  8
DRAW2
100
AcDbLine
 10
1149.487572528476
 20
-607.7014794074625
 30
0.0
 11
1178.987572528476
 21
-607.7014794074625
 31
0.0
  0
LINE
  5
110B1
330
18
100
AcDbEntity
  8
DRAW2
100
AcDbLine
 10
1124.237586372522
 20
-579.7014794074624
 30
0.0
 11
1192.737572528476
 21
-579.7014794074624
 31
0.0
  0
LINE
  5
110B2
330
18
100
AcDbEntity
  8
DRAW2
100
AcDbLine
 10
1122.734869678615
 20
-472.7014794074624
 30
0.0
 11
1265.734869678615
 21
-472.7014794074626
 31
0.0
  0
LINE
  5
110B3
330
18
100
AcDbEntity
  8
DRAW2
100
AcDbLine
 10
1122.734869678615
 20
-390.7014794074625
 30
0.0
 11
1265.734869678615
 21
-390.7014794074626
 31
0.0
  0
LINE
  5
110B4
330
18
100
AcDbEntity
  8
DRAW2
100
AcDbLine
 10
1124.237586372522
 20
-378.2225115789825
 30
0.0
 11
1264.237586372522
 21
-378.2225115789825
 31
0.0
  0
LINE
  5
110B5
330
18
100
AcDbEntity
  8
DRAW2
100
AcDbLine
 10
1124.237586372522
 20
-485.1804472359423
 30
0.0
 11
1264.237586372522
 21
-485.1804472359423
 31
0.0
  0
LINE
  5
110B6
330
18
100
AcDbEntity
  8
DRAW2
100
AcDbLine
 10
1124.237586372522
 20
-485.1804472359423
 30
0.0
 11
1124.237586372522
 21
-579.7014794074624
 31
0.0
  0
LINE
  5
110B7
330
18
100
AcDbEntity
  8
DRAW2
100
AcDbLine
 10
1122.237506372522
 20
-494.2014794074625
 30
0.0
 11
1122.237506372522
 21
-579.7014794074625
 31
0.0
  0
LINE
  5
110B8
330
18
100
AcDbEntity
  8
DRAW2
100
AcDbLine
 10
1149.487572528476
 20
-581.7014794074625
 30
0.0
 11
1044.737572528476
 21
-581.7014794074626
 31
0.0
  0
LINE
  5
110B9
330
18
100
AcDbEntity
  8
DRAW2
100
AcDbLine
 10
1042.737572528476
 20
-579.7014794074625
 30
0.0
 11
1044.737572528476
 21
-581.7014794074625
 31
0.0
  0
LINE
  5
110BA
330
18
100
AcDbEntity
  8
DRAW2
100
AcDbLine
 10
1149.487572528476
 20
-607.7014794074625
 30
0.0
 11
1149.487572528476
 21
-579.7014794074624
 31
0.0
  0
LINE
  5
110BB
330
18
100
AcDbEntity
  8
DRAW2
100
AcDbLine
 10
1163.488861222512
 20
-563.1377001647627
 30
0.0
 11
1163.488861222512
 21
-564.1983603365425
 31
0.0
  0
LINE
  5
110BC
330
18
100
AcDbEntity
  8
DRAW2
100
AcDbLine
 10
1172.488861222512
 20
-567.4203802975021
 30
0.0
 11
1172.488861222512
 21
-569.4616217498215
 31
0.0
  0
LINE
  5
110BD
330
18
100
AcDbEntity
  8
DRAW2
100
AcDbLine
 10
1167.488861222512
 20
-567.4203802975021
 30
0.0
 11
1169.988861222512
 21
-566.3997595713425
 31
0.0
  0
LINE
  5
110BE
330
18
100
AcDbEntity
  8
DRAW2
100
AcDbLine
 10
1167.488861222512
 20
-569.4616217498215
 30
0.0
 11
1169.988861222512
 21
-570.4822424759812
 31
0.0
  0
LINE
  5
110BF
330
18
100
AcDbEntity
  8
DRAW2
100
AcDbLine
 10
1167.488861222512
 20
-569.4616217498215
 30
0.0
 11
1167.488861222512
 21
-567.4203802975021
 31
0.0
  0
LINE
  5
110C0
330
18
100
AcDbEntity
  8
DRAW2
100
AcDbLine
 10
1169.988861222512
 20
-566.3997595713425
 30
0.0
 11
1172.488861222512
 21
-567.4203802975021
 31
0.0
  0
LINE
  5
110C1
330
18
100
AcDbEntity
  8
DRAW2
100
AcDbLine
 10
1169.988861222512
 20
-570.4822424759812
 30
0.0
 11
1172.488861222512
 21
-569.4616217498215
 31
0.0
  0
LINE
  5
110C2
330
18
100
AcDbEntity
  8
DRAW2
100
AcDbLine
 10
1164.988861222512
 20
-568.0167369549496
 30
0.0
 11
1164.988861222512
 21
-564.1983603365425
 31
0.0
  0
CIRCLE
  5
110C3
330
18
100
AcDbEntity
  8
DRAW2
100
AcDbCircle
 10
1072.734849178615
 20
-464.7014794074626
 30
0.0
 40
13.0
  0
CIRCLE
  5
110C4
330
18
100
AcDbEntity
  8
DRAW2
100
AcDbCircle
 10
1072.734909678615
 20
-464.7014794074626
 30
0.0
 40
11.0
  0
CIRCLE
  5
110C8
330
18
100
AcDbEntity
  8
DRAW2
100
AcDbCircle
 10
1072.734788678615
 20
-398.7014794074625
 30
0.0
 40
13.0
  0
CIRCLE
  5
110C9
330
18
100
AcDbEntity
  8
DRAW2
100
AcDbCircle
 10
1072.734849178615
 20
-398.7014794074625
 30
0.0
 40
11.0
  0
LINE
  5
110CB
330
18
100
AcDbEntity
  8
DRAW2
100
AcDbLine
 10
1122.734849678615
 20
-384.7014794074625
 30
0.0
 11
1122.734849678615
 21
-478.7014794074625
 31
0.0
  0
LINE
  5
110CC
330
18
100
AcDbEntity
  8
DRAW2
100
AcDbLine
 10
1266.231202811472
 20
-494.2014794074626
 30
0.0
 11
1266.231202811472
 21
-579.7014794074625
 31
0.0
  0
LINE
  5
110CD
330
18
100
AcDbEntity
  8
DRAW2
100
AcDbLine
 10
1264.237586372522
 20
-485.1804472359423
 30
0.0
 11
1264.237586372522
 21
-579.7014794074624
 31
0.0
  0
LINE
  5
110CE
330
18
100
AcDbEntity
  8
DRAW2
100
AcDbLine
 10
1195.737572528476
 20
-579.7014794074624
 30
0.0
 11
1264.237586372522
 21
-579.7014794074624
 31
0.0
  0
LINE
  5
110CF
330
18
100
AcDbEntity
  8
DRAW2
100
AcDbLine
 10
1178.987572528476
 20
-607.7014794074625
 30
0.0
 11
1178.987572528476
 21
-579.7014794074624
 31
0.0
  0
LINE
  5
110D0
330
18
100
AcDbEntity
  8
DRAW2
100
AcDbLine
 10
1238.987572528476
 20
-607.7014794074625
 30
0.0
 11
1238.987572528476
 21
-579.7014794074624
 31
0.0
  0
LINE
  5
110D1
330
18
100
AcDbEntity
  8
DRAW2
100
AcDbLine
 10
1209.487572528476
 20
-607.7014794074625
 30
0.0
 11
1209.487572528476
 21
-579.7014794074624
 31
0.0
  0
LINE
  5
110D2
330
18
100
AcDbEntity
  8
DRAW2
100
AcDbLine
 10
1209.487572528476
 20
-607.7014794074625
 30
0.0
 11
1238.987572528476
 21
-607.7014794074625
 31
0.0
  0
LINE
  5
110D3
330
18
100
AcDbEntity
  8
DRAW2
100
AcDbLine
 10
1209.487572528476
 20
-581.7014794074625
 30
0.0
 11
1195.737572528476
 21
-581.7014794074625
 31
0.0
  0
LINE
  5
110D4
330
18
100
AcDbEntity
  8
DRAW2
100
AcDbLine
 10
1199.237572528476
 20
-557.8273101038653
 30
0.0
 11
1199.237572528476
 21
-564.1912711345443
 31
0.0
  0
LINE
  5
110D5
330
18
100
AcDbEntity
  8
DRAW2
100
AcDbLine
 10
1189.237572528476
 20
-564.1912711345443
 30
0.0
 11
1189.237572528476
 21
-557.8273101038653
 31
0.0
  0
LINE
  5
110D6
330
18
100
AcDbEntity
  8
DRAW2
100
AcDbLine
 10
1176.488861222512
 20
-564.1983603365425
 30
0.0
 11
1176.488861222512
 21
-563.1377001647627
 31
0.0
  0
LINE
  5
110D7
330
18
100
AcDbEntity
  8
DRAW2
100
AcDbLine
 10
1192.737572528476
 20
-581.7014794074625
 30
0.0
 11
1178.987572528476
 21
-581.7014794074625
 31
0.0
  0
LINE
  5
110D8
330
18
100
AcDbEntity
  8
DRAW2
100
AcDbLine
 10
1174.988861222512
 20
-564.1983603365425
 30
0.0
 11
1174.988861222512
 21
-568.0167369549496
 31
0.0
  0
LINE
  5
110D9
330
18
100
AcDbEntity
  8
DRAW2
100
AcDbLine
 10
1195.737572528476
 20
-564.5448245251376
 30
0.0
 11
1195.737572528476
 21
-590.5837831005029
 31
0.0
  0
LINE
  5
110DA
330
18
100
AcDbEntity
  8
DRAW2
100
AcDbLine
 10
1192.737572528476
 20
-564.5448245251376
 30
0.0
 11
1192.737572528476
 21
-590.6789954552161
 31
0.0
  0
LINE
  5
110DB
330
18
100
AcDbEntity
  8
DRAW2
100
AcDbLine
 10
1186.237572528476
 20
-550.1038162685509
 30
0.0
 11
1193.237572528476
 21
-545.8611755814318
 31
0.0
  0
LINE
  5
110DC
330
18
100
AcDbEntity
  8
DRAW2
100
AcDbLine
 10
1186.237572528476
 20
-554.6453154463929
 30
0.0
 11
1193.237572528476
 21
-550.4026747592737
 31
0.0
  0
LINE
  5
110DD
330
18
100
AcDbEntity
  8
DRAW2
100
AcDbLine
 10
1187.659063695546
 20
-546.1670990399822
 30
0.0
 11
1187.519424880022
 21
-549.326896419758
 31
0.0
  0
LINE
  5
110DE
330
18
100
AcDbEntity
  8
DRAW2
100
AcDbLine
 10
1186.237572528476
 20
-550.1038162685509
 30
0.0
 11
1186.237572528476
 21
-554.6453154463929
 31
0.0
  0
LINE
  5
110DF
330
18
100
AcDbEntity
  8
DRAW2
100
AcDbLine
 10
1186.237572528476
 20
-556.0595290087662
 30
0.0
 11
1189.237572528476
 21
-557.8778035889603
 31
0.0
  0
LINE
  5
110E0
330
18
100
AcDbEntity
  8
DRAW2
100
AcDbLine
 10
1186.237572528476
 20
-556.0595290087662
 30
0.0
 11
1186.237572528476
 21
-554.6453154463929
 31
0.0
  0
LINE
  5
110E1
330
18
100
AcDbEntity
  8
DRAW2
100
AcDbLine
 10
1187.737572528476
 20
-533.4392377626304
 30
0.0
 11
1187.737572528476
 21
-534.4998979344103
 31
0.0
  0
LINE
  5
110E2
330
18
100
AcDbEntity
  8
DRAW2
100
AcDbLine
 10
1189.237572528476
 20
-538.3182745528174
 30
0.0
 11
1189.237572528476
 21
-534.4998979344103
 31
0.0
  0
LINE
  5
110E3
330
18
100
AcDbEntity
  8
DRAW2
100
AcDbLine
 10
1194.237572528476
 20
-540.783780073849
 30
0.0
 11
1196.737572528476
 21
-539.7631593476893
 31
0.0
  0
LINE
  5
110E4
330
18
100
AcDbEntity
  8
DRAW2
100
AcDbLine
 10
1191.737572528476
 20
-539.7631593476893
 30
0.0
 11
1194.237572528476
 21
-540.783780073849
 31
0.0
  0
LINE
  5
110E5
330
18
100
AcDbEntity
  8
DRAW2
100
AcDbLine
 10
1194.237572528476
 20
-536.7012971692103
 30
0.0
 11
1196.737572528476
 21
-537.72191789537
 31
0.0
  0
LINE
  5
110E6
330
18
100
AcDbEntity
  8
DRAW2
100
AcDbLine
 10
1191.737572528476
 20
-537.72191789537
 30
0.0
 11
1194.237572528476
 21
-536.7012971692103
 31
0.0
  0
LINE
  5
110E7
330
18
100
AcDbEntity
  8
DRAW2
100
AcDbLine
 10
1196.737572528476
 20
-537.72191789537
 30
0.0
 11
1196.737572528476
 21
-539.7631593476893
 31
0.0
  0
LINE
  5
110E8
330
18
100
AcDbEntity
  8
DRAW2
100
AcDbLine
 10
1191.737572528476
 20
-539.7631593476893
 30
0.0
 11
1191.737572528476
 21
-537.72191789537
 31
0.0
  0
LINE
  5
110E9
330
18
100
AcDbEntity
  8
DRAW2
100
AcDbLine
 10
1200.816072534726
 20
-546.1670990399822
 30
0.0
 11
1200.95571690541
 21
-549.3268944369176
 31
0.0
  0
LINE
  5
110EA
330
18
100
AcDbEntity
  8
DRAW2
100
AcDbLine
 10
1202.237572528476
 20
-550.1038162685509
 30
0.0
 11
1202.237572528476
 21
-554.6453154463929
 31
0.0
  0
LINE
  5
110EB
330
18
100
AcDbEntity
  8
DRAW2
100
AcDbLine
 10
1195.237572528476
 20
-545.8611755814318
 30
0.0
 11
1195.237572528476
 21
-550.4026747592737
 31
0.0
  0
LINE
  5
110EC
330
18
100
AcDbEntity
  8
DRAW2
100
AcDbLine
 10
1193.237572528476
 20
-545.8611755814318
 30
0.0
 11
1193.237572528476
 21
-550.4026747592737
 31
0.0
  0
LINE
  5
110ED
330
18
100
AcDbEntity
  8
DRAW2
100
AcDbLine
 10
1195.237572528476
 20
-545.8611755814318
 30
0.0
 11
1202.237572528476
 21
-550.1038162685509
 31
0.0
  0
LINE
  5
110EE
330
18
100
AcDbEntity
  8
DRAW2
100
AcDbLine
 10
1195.237572528476
 20
-545.8611755814318
 30
0.0
 11
1193.237572528476
 21
-545.8611755814318
 31
0.0
  0
LINE
  5
110EF
330
18
100
AcDbEntity
  8
DRAW2
100
AcDbLine
 10
1202.237572528476
 20
-556.0595290087662
 30
0.0
 11
1199.237572528476
 21
-557.8778035889601
 31
0.0
  0
LINE
  5
110F0
330
18
100
AcDbEntity
  8
DRAW2
100
AcDbLine
 10
1195.237572528476
 20
-550.4026747592737
 30
0.0
 11
1202.237572528476
 21
-554.6453154463929
 31
0.0
  0
LINE
  5
110F1
330
18
100
AcDbEntity
  8
DRAW2
100
AcDbLine
 10
1195.237572528476
 20
-550.4026747592737
 30
0.0
 11
1193.237572528476
 21
-550.4026747592737
 31
0.0
  0
LINE
  5
110F2
330
18
100
AcDbEntity
  8
DRAW2
100
AcDbLine
 10
1202.237572528476
 20
-554.6453154463929
 30
0.0
 11
1202.237572528476
 21
-556.0595290087662
 31
0.0
  0
LINE
  5
110F3
330
18
100
AcDbEntity
  8
DRAW2
100
AcDbLine
 10
1200.737572528476
 20
-534.4998979344103
 30
0.0
 11
1200.737572528476
 21
-533.4392377626304
 31
0.0
  0
LINE
  5
110F4
330
18
100
AcDbEntity
  8
DRAW2
100
AcDbLine
 10
1199.237572528476
 20
-534.4998979344103
 30
0.0
 11
1199.237572528476
 21
-538.3182745528174
 31
0.0
  0
LINE
  5
110F5
330
18
100
AcDbEntity
  8
DRAW2
100
AcDbLine
 10
1211.98628383444
 20
-564.1983603365425
 30
0.0
 11
1211.98628383444
 21
-563.1377001647627
 31
0.0
  0
LINE
  5
110F6
330
18
100
AcDbEntity
  8
DRAW2
100
AcDbLine
 10
1224.98628383444
 20
-563.1377001647627
 30
0.0
 11
1224.98628383444
 21
-564.1983603365425
 31
0.0
  0
LINE
  5
110F7
330
18
100
AcDbEntity
  8
DRAW2
100
AcDbLine
 10
1220.98628383444
 20
-567.4203802975021
 30
0.0
 11
1220.98628383444
 21
-569.4616217498215
 31
0.0
  0
LINE
  5
110F8
330
18
100
AcDbEntity
  8
DRAW2
100
AcDbLine
 10
1215.98628383444
 20
-567.4203802975021
 30
0.0
 11
1218.48628383444
 21
-566.3997595713425
 31
0.0
  0
LINE
  5
110F9
330
18
100
AcDbEntity
  8
DRAW2
100
AcDbLine
 10
1215.98628383444
 20
-569.4616217498215
 30
0.0
 11
1218.48628383444
 21
-570.4822424759812
 31
0.0
  0
LINE
  5
110FA
330
18
100
AcDbEntity
  8
DRAW2
100
AcDbLine
 10
1215.98628383444
 20
-569.4616217498215
 30
0.0
 11
1215.98628383444
 21
-567.4203802975021
 31
0.0
  0
LINE
  5
110FB
330
18
100
AcDbEntity
  8
DRAW2
100
AcDbLine
 10
1218.48628383444
 20
-566.3997595713425
 30
0.0
 11
1220.98628383444
 21
-567.4203802975021
 31
0.0
  0
LINE
  5
110FC
330
18
100
AcDbEntity
  8
DRAW2
100
AcDbLine
 10
1218.48628383444
 20
-570.4822424759812
 30
0.0
 11
1220.98628383444
 21
-569.4616217498215
 31
0.0
  0
LINE
  5
110FD
330
18
100
AcDbEntity
  8
DRAW2
100
AcDbLine
 10
1223.48628383444
 20
-568.0167369549496
 30
0.0
 11
1223.48628383444
 21
-564.1983603365425
 31
0.0
  0
LINE
  5
110FE
330
18
100
AcDbEntity
  8
DRAW2
100
AcDbLine
 10
1213.48628383444
 20
-564.1983603365425
 30
0.0
 11
1213.48628383444
 21
-568.0167369549496
 31
0.0
  0
LINE
  5
11100
330
18
100
AcDbEntity
  8
DRAW2
100
AcDbLine
 10
1265.734929678615
 20
-384.7014794074625
 30
0.0
 11
1265.734929678615
 21
-478.7014794074625
 31
0.0
  0
LINE
  5
11103
330
18
100
AcDbEntity
  8
DRAW2
100
AcDbLine
 10
1370.237592528476
 20
-869.4240239248903
 30
0.0
 11
1370.237592528476
 21
-1145.42408392489
 31
0.0
  0
LINE
  5
11104
330
18
100
AcDbEntity
  8
DRAW2
100
AcDbLine
 10
1370.237592528476
 20
-869.4240239248903
 30
0.0
 11
1370.237592528476
 21
-1145.42408392489
 31
0.0
  0
LINE
  5
11105
330
18
100
AcDbEntity
  8
DRAW2
100
AcDbLine
 10
1354.237592528476
 20
-867.4240239248902
 30
0.0
 11
1354.237592528476
 21
-1147.42402392489
 31
0.0
  0
ARC
  5
11106
330
18
100
AcDbEntity
  8
DRAW2
100
AcDbCircle
 10
1858.387569635025
 20
-1007.423941539344
 30
0.0
 40
148.0
100
AcDbArc
 50
108.924640500349
 51
251.0754232880906
  0
LINE
  5
11107
330
18
100
AcDbEntity
  8
DRAW2
100
AcDbLine
 10
1395.237592528476
 20
-1137.75678392489
 30
0.0
 11
1395.237592528476
 21
-1111.75672392489
 31
0.0
  0
LINE
  5
11108
330
18
100
AcDbEntity
  8
DRAW2
100
AcDbLine
 10
1397.237522528476
 20
-1135.75684392489
 30
0.0
 11
1397.237522528476
 21
-1113.75666392489
 31
0.0
  0
LINE
  5
11109
330
18
100
AcDbEntity
  8
DRAW2
100
AcDbLine
 10
1353.737552528476
 20
-1161.42405392489
 30
0.0
 11
1388.737432528476
 21
-1161.42405392489
 31
0.0
  0
LINE
  5
1110B
330
18
100
AcDbEntity
  8
DRAW2
100
AcDbLine
 10
1395.237592528476
 20
-1137.75678392489
 30
0.0
 11
1370.237592528476
 21
-1137.75678392489
 31
0.0
  0
LINE
  5
1110C
330
18
100
AcDbEntity
  8
DRAW2
100
AcDbLine
 10
1353.737552528476
 20
-1217.42402392489
 30
0.0
 11
1388.737432528476
 21
-1217.42396392489
 31
0.0
  0
LINE
  5
1110D
330
18
100
AcDbEntity
  8
DRAW2
100
AcDbLine
 10
1353.737552528476
 20
-1147.42402392489
 30
0.0
 11
1353.737492528476
 21
-1231.42405392489
 31
0.0
  0
ARC
  5
1110F
330
18
100
AcDbEntity
  8
DRAW2
100
AcDbCircle
 10
1329.876342528476
 20
-1265.42405392489
 30
0.0
 40
1.0
100
AcDbArc
 50
269.9999600000024
 51
351.4683699999937
  0
LINE
  5
11110
330
18
100
AcDbEntity
  8
DRAW2
100
AcDbLine
 10
1333.737492528476
 20
-1246.42405392489
 30
0.0
 11
1330.865232528476
 21
-1265.57242392489
 31
0.0
  0
LINE
  5
11111
330
18
100
AcDbEntity
  8
DRAW2
100
AcDbLine
 10
1353.737492528476
 20
-1231.42405392489
 30
0.0
 11
1353.737492528476
 21
-1246.42405392489
 31
0.0
  0
LINE
  5
11112
330
18
100
AcDbEntity
  8
DRAW2
100
AcDbLine
 10
1370.237592528476
 20
-1145.42408392489
 30
0.0
 11
1354.237592528476
 21
-1145.42408392489
 31
0.0
  0
LINE
  5
11113
330
18
100
AcDbEntity
  8
DRAW2
100
AcDbLine
 10
1370.237592528476
 20
-1145.42408392489
 30
0.0
 11
1354.237592528476
 21
-1145.42408392489
 31
0.0
  0
LINE
  5
11114
330
18
100
AcDbEntity
  8
DRAW2
100
AcDbLine
 10
1394.737492528476
 20
-1137.75678392489
 30
0.0
 11
1394.737492528476
 21
-1251.92402392489
 31
0.0
  0
LINE
  5
11115
330
18
100
AcDbEntity
  8
DRAW2
100
AcDbLine
 10
1414.737592528476
 20
-1126.92402392489
 30
0.0
 11
1414.737592528476
 21
-1251.92402392489
 31
0.0
  0
LINE
  5
11116
330
18
100
AcDbEntity
  8
DRAW2
100
AcDbLine
 10
1388.737432528476
 20
-1137.75678392489
 30
0.0
 11
1388.737432528476
 21
-1251.42396392489
 31
0.0
  0
LINE
  5
11117
330
18
100
AcDbEntity
  8
DRAW2
100
AcDbLine
 10
1391.737432528476
 20
-1137.75678392489
 30
0.0
 11
1391.737432528476
 21
-1251.42396392489
 31
0.0
  0
LINE
  5
11118
330
18
100
AcDbEntity
  8
DRAW2
100
AcDbLine
 10
1394.737492528476
 20
-1251.92402392489
 30
0.0
 11
1414.737592528476
 21
-1251.92402392489
 31
0.0
  0
LINE
  5
1111A
330
18
100
AcDbEntity
  8
DRAW2
100
AcDbLine
 10
1388.737432528476
 20
-1251.42396392489
 30
0.0
 11
1394.737492528476
 21
-1251.42396392489
 31
0.0
  0
LINE
  5
1111B
330
18
100
AcDbEntity
  8
DRAW2
100
AcDbLine
 10
1397.237622528476
 20
-1126.92402392489
 30
0.0
 11
1414.737592528476
 21
-1126.92402392489
 31
0.0
  0
LINE
  5
1111D
330
18
100
AcDbEntity
  8
DRAW2
100
AcDbLine
 10
1395.237462528476
 20
-1137.75666392489
 30
0.0
 11
1397.237462528476
 21
-1135.75678392489
 31
0.0
  0
LINE
  5
11122
330
18
100
AcDbEntity
  8
DRAW2
100
AcDbLine
 10
1395.237592528476
 20
-1069.02485392489
 30
0.0
 11
1370.237592528476
 21
-1069.02485392489
 31
0.0
  0
LINE
  5
11123
330
18
100
AcDbEntity
  8
DRAW2
100
AcDbLine
 10
1395.237592528476
 20
-1043.02479392489
 30
0.0
 11
1370.237592528476
 21
-1043.02479392489
 31
0.0
  0
LINE
  5
11124
330
18
100
AcDbEntity
  8
DRAW2
100
AcDbLine
 10
1395.237592528476
 20
-1111.75672392489
 30
0.0
 11
1370.237592528476
 21
-1111.75672392489
 31
0.0
  0
LINE
  5
11125
330
18
100
AcDbEntity
  8
DRAW2
100
AcDbLine
 10
1397.237522528476
 20
-1067.02491392489
 30
0.0
 11
1397.237522528476
 21
-1045.02473392489
 31
0.0
  0
LINE
  5
11126
330
18
100
AcDbEntity
  8
DRAW2
100
AcDbLine
 10
1395.237592528476
 20
-1069.02485392489
 30
0.0
 11
1395.237592528476
 21
-1043.02479392489
 31
0.0
  0
LINE
  5
11127
330
18
100
AcDbEntity
  8
DRAW2
100
AcDbLine
 10
1397.237592528476
 20
-1113.75659392489
 30
0.0
 11
1395.237652528476
 21
-1111.75659392489
 31
0.0
  0
LINE
  5
11128
330
18
100
AcDbEntity
  8
DRAW2
100
AcDbLine
 10
1395.237462528476
 20
-1069.02473392489
 30
0.0
 11
1397.237462528476
 21
-1067.02485392489
 31
0.0
  0
LINE
  5
11129
330
18
100
AcDbEntity
  8
DRAW2
100
AcDbLine
 10
1397.237592528476
 20
-1045.02466392489
 30
0.0
 11
1395.237652528476
 21
-1043.02466392489
 31
0.0
  0
LINE
  5
1112A
330
18
100
AcDbEntity
  8
DRAW2
100
AcDbLine
 10
1682.387599635025
 20
-992.6739278686524
 30
0.0
 11
1711.124419635025
 21
-992.6739278686524
 31
0.0
  0
LINE
  5
1112B
330
18
100
AcDbEntity
  8
DRAW2
100
AcDbLine
 10
1682.387599635025
 20
-1022.173927868652
 30
0.0
 11
1711.124419635025
 21
-1022.173927868652
 31
0.0
  0
LINE
  5
11132
330
18
100
AcDbEntity
  8
DRAW2
100
AcDbLine
 10
1682.387599635025
 20
-1009.423927868652
 30
0.0
 11
1682.387599635025
 21
-1022.173927868652
 31
0.0
  0
LINE
  5
11133
330
18
100
AcDbEntity
  8
DRAW2
100
AcDbLine
 10
1684.887599635025
 20
-1005.423987868652
 30
0.0
 11
1684.887599635025
 21
-1009.423927868652
 31
0.0
  0
LINE
  5
11134
330
18
100
AcDbEntity
  8
DRAW2
100
AcDbLine
 10
1682.387599635025
 20
-1009.423927868652
 30
0.0
 11
1684.887599635025
 21
-1009.423927868652
 31
0.0
  0
LINE
  5
11135
330
18
100
AcDbEntity
  8
DRAW2
100
AcDbLine
 10
1682.387599635025
 20
-1005.423987868652
 30
0.0
 11
1684.887599635025
 21
-1005.423987868652
 31
0.0
  0
LINE
  5
11136
330
18
100
AcDbEntity
  8
DRAW2
100
AcDbLine
 10
1682.387599635025
 20
-992.6739278686524
 30
0.0
 11
1682.387599635025
 21
-1005.423987868652
 31
0.0
  0
CIRCLE
  5
11139
330
18
100
AcDbEntity
  8
DRAW2
100
AcDbCircle
 10
1809.786739635025
 20
-1124.756641539343
 30
0.0
 40
11.0
  0
CIRCLE
  5
1113A
330
18
100
AcDbEntity
  8
DRAW2
100
AcDbCircle
 10
1809.786739635025
 20
-1124.756641539343
 30
0.0
 40
13.000001
  0
LINE
  5
1113B
330
18
100
AcDbEntity
  8
DRAW2
100
AcDbLine
 10
1708.387629635025
 20
-1246.424001539343
 30
0.0
 11
1832.750756142862
 21
-1246.424001539343
 31
0.0
  0
LINE
  5
1113C
330
18
100
AcDbEntity
  8
DRAW2
100
AcDbLine
 10
1708.387629635025
 20
-1231.423991539344
 30
0.0
 11
1812.103144128762
 21
-1231.423991539344
 31
0.0
  0
LINE
  5
1113D
330
18
100
AcDbEntity
  8
DRAW2
100
AcDbLine
 10
1751.887569635025
 20
-1211.424001539343
 30
0.0
 11
1730.887509635025
 21
-1211.424001539343
 31
0.0
  0
LINE
  5
1113E
330
18
100
AcDbEntity
  8
DRAW2
100
AcDbLine
 10
1749.887569635025
 20
-1209.424031539344
 30
0.0
 11
1732.887449635025
 21
-1209.424031539344
 31
0.0
  0
LINE
  5
1113F
330
18
100
AcDbEntity
  8
DRAW2
100
AcDbLine
 10
1755.526359635025
 20
-1266.423971539343
 30
0.0
 11
1727.248779635025
 21
-1266.423971539343
 31
0.0
  0
LINE
  5
11140
330
18
100
AcDbEntity
  8
DRAW2
100
AcDbLine
 10
1718.387629635025
 20
-1231.423991539344
 30
0.0
 11
1718.387629635025
 21
-1246.424001539343
 31
0.0
  0
LINE
  5
11141
330
18
100
AcDbEntity
  8
DRAW2
100
AcDbLine
 10
1708.387629635025
 20
-1231.423991539344
 30
0.0
 11
1708.387629635025
 21
-1246.424001539343
 31
0.0
  0
ARC
  5
11142
330
18
100
AcDbEntity
  8
DRAW2
100
AcDbCircle
 10
1727.248779635025
 20
-1265.424001539344
 30
0.0
 40
1.0
100
AcDbArc
 50
188.5316099999993
 51
269.9999599999959
  0
LINE
  5
11143
330
18
100
AcDbEntity
  8
DRAW2
100
AcDbLine
 10
1726.259879635025
 20
-1265.572321539344
 30
0.0
 11
1723.387569635025
 21
-1246.423971539344
 31
0.0
  0
LINE
  5
11144
330
18
100
AcDbEntity
  8
DRAW2
100
AcDbLine
 10
1732.887389635025
 20
-1209.424001539344
 30
0.0
 11
1730.887449635025
 21
-1211.423971539344
 31
0.0
  0
LINE
  5
11145
330
18
100
AcDbEntity
  8
DRAW2
100
AcDbLine
 10
1730.887509635025
 20
-1211.423941539344
 30
0.0
 11
1730.887509635025
 21
-1231.423991539344
 31
0.0
  0
ARC
  5
11147
330
18
100
AcDbEntity
  8
DRAW2
100
AcDbCircle
 10
1755.526359635025
 20
-1265.424001539344
 30
0.0
 40
1.0
100
AcDbArc
 50
270.000040000004
 51
351.4683900000006
  0
LINE
  5
11148
330
18
100
AcDbEntity
  8
DRAW2
100
AcDbLine
 10
1759.387509635025
 20
-1246.423961539344
 30
0.0
 11
1756.515189635025
 21
-1265.572351539343
 31
0.0
  0
LINE
  5
11149
330
18
100
AcDbEntity
  8
DRAW2
100
AcDbLine
 10
1751.887629635025
 20
-1211.423881539344
 30
0.0
 11
1749.887569635025
 21
-1209.423851539344
 31
0.0
  0
LINE
  5
1114A
330
18
100
AcDbEntity
  8
DRAW2
100
AcDbLine
 10
1751.887569635025
 20
-1211.424001539343
 30
0.0
 11
1751.887569635025
 21
-1231.423991539344
 31
0.0
  0
LINE
  5
1114C
330
18
100
AcDbEntity
  8
DRAW2
100
AcDbLine
 10
1836.387659635025
 20
-1266.423891539344
 30
0.0
 11
1814.387449635025
 21
-1266.423891539344
 31
0.0
  0
LINE
  5
1114D
330
18
100
AcDbEntity
  8
DRAW2
100
AcDbLine
 10
1814.387749635025
 20
-1266.423891539344
 30
0.0
 11
1812.387749635025
 21
-1264.423891539343
 31
0.0
  0
LINE
  5
1114E
330
18
100
AcDbEntity
  8
DRAW2
100
AcDbLine
 10
1812.387749635025
 20
-1264.423971539343
 30
0.0
 11
1812.387749635025
 21
-1246.424001539343
 31
0.0
  0
CIRCLE
  5
1114F
330
18
100
AcDbEntity
  8
DRAW2
100
AcDbCircle
 10
1826.567809635025
 20
-1221.243758258931
 30
0.0
 40
9.5
  0
CIRCLE
  5
11150
330
18
100
AcDbEntity
  8
DRAW2
100
AcDbCircle
 10
1826.567809635025
 20
-1157.604148258931
 30
0.0
 40
9.5
  0
LINE
  5
11151
330
18
100
AcDbEntity
  8
DRAW2
100
AcDbLine
 10
1810.387735067475
 20
-1147.423998258932
 30
0.0
 11
1812.103095780404
 21
-1147.423998258932
 31
0.0
  0
CIRCLE
  5
11153
330
18
100
AcDbEntity
  8
DRAW2
100
AcDbCircle
 10
1741.054869635025
 20
-1056.024711539344
 30
0.0
 40
11.0
  0
CIRCLE
  5
11154
330
18
100
AcDbEntity
  8
DRAW2
100
AcDbCircle
 10
1741.054869635025
 20
-1056.024711539344
 30
0.0
 40
13.000001
  0
LINE
  5
11158
330
18
100
AcDbEntity
  8
DRAW2
100
AcDbLine
 10
1745.879255600421
 20
-1108.302723662615
 30
0.0
 11
1748.258635072863
 21
-1106.176066708024
 31
0.0
  0
LINE
  5
11159
330
18
100
AcDbEntity
  8
DRAW3
100
AcDbLine
 10
1745.505795999194
 20
-1107.857651841162
 30
0.0
 11
1747.858415835002
 21
-1105.754912285208
 31
0.0
  0
LINE
  5
1115D
330
18
100
AcDbEntity
  8
DRAW3
100
AcDbLine
 10
1739.877949431034
 20
-1101.15064547499
 30
0.0
 11
1742.357271795535
 21
-1099.198904112795
 31
0.0
  0
LINE
  5
1115E
330
18
100
AcDbEntity
  8
DRAW2
100
AcDbLine
 10
1739.504489829806
 20
-1100.705573653538
 30
0.0
 11
1742.012012996052
 21
-1098.731632406406
 31
0.0
  0
LINE
  5
1115F
330
18
100
AcDbEntity
  8
DRAW2
100
AcDbLine
 10
1745.879255600421
 20
-1108.302723662615
 30
0.0
 11
1739.504489829806
 21
-1100.705573653538
 31
0.0
  0
LINE
  5
11160
330
18
100
AcDbEntity
  8
DRAW2
100
AcDbLine
 10
1353.737552528476
 20
-867.4240239248902
 30
0.0
 11
1353.737552528476
 21
-768.4240239248903
 31
0.0
  0
LINE
  5
11161
330
18
100
AcDbEntity
  8
DRAW2
100
AcDbLine
 10
1394.737492528476
 20
-877.0913239248903
 30
0.0
 11
1394.737492528476
 21
-762.9240839248901
 31
0.0
  0
LINE
  5
11162
330
18
100
AcDbEntity
  8
DRAW2
100
AcDbLine
 10
1388.737432528476
 20
-763.4240839248901
 30
0.0
 11
1388.737432528476
 21
-877.0913239248903
 31
0.0
  0
LINE
  5
11163
330
18
100
AcDbEntity
  8
DRAW2
100
AcDbLine
 10
1391.737432528476
 20
-763.4240839248901
 30
0.0
 11
1391.737432528476
 21
-877.0913239248903
 31
0.0
  0
LINE
  5
11164
330
18
100
AcDbEntity
  8
DRAW2
100
AcDbLine
 10
1414.737492528476
 20
-887.9240839248904
 30
0.0
 11
1414.737492528476
 21
-762.9240839248901
 31
0.0
  0
LINE
  5
11165
330
18
100
AcDbEntity
  8
DRAW2
100
AcDbLine
 10
1353.737552528476
 20
-853.4240239248903
 30
0.0
 11
1388.737432528476
 21
-853.4240239248903
 31
0.0
  0
LINE
  5
11166
330
18
100
AcDbEntity
  8
DRAW2
100
AcDbLine
 10
1395.237592528476
 20
-877.0913239248903
 30
0.0
 11
1370.237592528476
 21
-877.0913239248903
 31
0.0
  0
LINE
  5
11169
330
18
100
AcDbEntity
  8
DRAW2
100
AcDbLine
 10
1395.237592528476
 20
-971.8233139248903
 30
0.0
 11
1370.237592528476
 21
-971.8233139248903
 31
0.0
  0
LINE
  5
1116A
330
18
100
AcDbEntity
  8
DRAW2
100
AcDbLine
 10
1395.237592528476
 20
-945.8232539248903
 30
0.0
 11
1370.237592528476
 21
-945.8232539248903
 31
0.0
  0
LINE
  5
1116B
330
18
100
AcDbEntity
  8
DRAW2
100
AcDbLine
 10
1395.237592528476
 20
-903.0913839248905
 30
0.0
 11
1370.237592528476
 21
-903.0913839248905
 31
0.0
  0
LINE
  5
1116C
330
18
100
AcDbEntity
  8
DRAW2
100
AcDbLine
 10
1370.237592528476
 20
-869.4240239248903
 30
0.0
 11
1354.237592528476
 21
-869.4240239248903
 31
0.0
  0
LINE
  5
1116D
330
18
100
AcDbEntity
  8
DRAW2
100
AcDbLine
 10
1370.237592528476
 20
-869.4240239248903
 30
0.0
 11
1354.237592528476
 21
-869.4240239248903
 31
0.0
  0
LINE
  5
1116E
330
18
100
AcDbEntity
  8
DRAW2
100
AcDbLine
 10
1395.237592528476
 20
-903.0913839248905
 30
0.0
 11
1395.237592528476
 21
-877.0913239248903
 31
0.0
  0
LINE
  5
1116F
330
18
100
AcDbEntity
  8
DRAW2
100
AcDbLine
 10
1397.237522528476
 20
-901.0914439248905
 30
0.0
 11
1397.237522528476
 21
-879.0912639248904
 31
0.0
  0
LINE
  5
11170
330
18
100
AcDbEntity
  8
DRAW2
100
AcDbLine
 10
1395.237462528476
 20
-945.8234339248903
 30
0.0
 11
1397.237342528476
 21
-947.8232539248903
 31
0.0
  0
LINE
  5
11171
330
18
100
AcDbEntity
  8
DRAW2
100
AcDbLine
 10
1397.237522528476
 20
-969.8233139248904
 30
0.0
 11
1395.237592528476
 21
-971.8233139248903
 31
0.0
  0
LINE
  5
11172
330
18
100
AcDbEntity
  8
DRAW2
100
AcDbLine
 10
1397.237522528476
 20
-947.8231339248903
 30
0.0
 11
1397.237522528476
 21
-969.8233139248904
 31
0.0
  0
LINE
  5
11173
330
18
100
AcDbEntity
  8
DRAW2
100
AcDbLine
 10
1395.237592528476
 20
-945.8232539248903
 30
0.0
 11
1395.237592528476
 21
-971.8233139248903
 31
0.0
  0
LINE
  5
11174
330
18
100
AcDbEntity
  8
DRAW2
100
AcDbLine
 10
1395.237462528476
 20
-903.0912639248905
 30
0.0
 11
1397.237462528476
 21
-901.0913839248905
 31
0.0
  0
LINE
  5
11176
330
18
100
AcDbEntity
  8
DRAW2
100
AcDbLine
 10
1397.237522528476
 20
-887.9240839248904
 30
0.0
 11
1414.737492528476
 21
-887.9240839248904
 31
0.0
  0
LINE
  5
11177
330
18
100
AcDbEntity
  8
DRAW2
100
AcDbLine
 10
1397.237592528476
 20
-879.0911939248905
 30
0.0
 11
1395.237652528476
 21
-877.0911939248904
 31
0.0
  0
LINE
  5
11178
330
18
100
AcDbEntity
  8
DRAW2
100
AcDbLine
 10
1353.737552528476
 20
-797.4240239248903
 30
0.0
 11
1388.737432528476
 21
-797.4240239248903
 31
0.0
  0
LINE
  5
11179
330
18
100
AcDbEntity
  8
DRAW2
100
AcDbLine
 10
1328.837582528476
 20
-743.4240239248903
 30
0.0
 11
1328.837582528476
 21
-768.4240239248903
 31
0.0
  0
LINE
  5
1117A
330
18
100
AcDbEntity
  8
DRAW2
100
AcDbLine
 10
1326.837582528476
 20
-741.4240939248903
 30
0.0
 11
1328.837582528476
 21
-743.4240239248903
 31
0.0
  0
LINE
  5
1117B
330
18
100
AcDbEntity
  8
DRAW2
100
AcDbLine
 10
1394.737492528476
 20
-762.9240839248901
 30
0.0
 11
1414.737492528476
 21
-762.9240839248901
 31
0.0
  0
LINE
  5
1117D
330
18
100
AcDbEntity
  8
DRAW2
100
AcDbLine
 10
1388.737432528476
 20
-763.4240839248901
 30
0.0
 11
1394.737492528476
 21
-763.4240839248901
 31
0.0
  0
LINE
  5
11181
330
18
100
AcDbEntity
  8
DRAW2
100
AcDbLine
 10
1369.237638441508
 20
-459.7014794074625
 30
0.0
 11
1369.237638441508
 21
-579.701479407462
 31
0.0
  0
LINE
  5
11182
330
18
100
AcDbEntity
  8
DRAW2
100
AcDbLine
 10
1354.237626372522
 20
-459.7014794074625
 30
0.0
 11
1354.237626372522
 21
-579.701479407462
 31
0.0
  0
LINE
  5
11183
330
18
100
AcDbEntity
  8
DRAW2
100
AcDbLine
 10
1354.231202811472
 20
-459.7014794074625
 30
0.0
 11
1354.231202811472
 21
-579.7014794074625
 31
0.0
  0
LINE
  5
11184
330
18
100
AcDbEntity
  8
DRAW2
100
AcDbLine
 10
1394.237638441508
 20
-536.0341815744022
 30
0.0
 11
1369.237638441508
 21
-536.0341815744022
 31
0.0
  0
LINE
  5
11185
330
18
100
AcDbEntity
  8
DRAW2
100
AcDbLine
 10
1394.237638441508
 20
-562.0342415744021
 30
0.0
 11
1369.237638441508
 21
-562.0342415744021
 31
0.0
  0
LINE
  5
11187
330
18
100
AcDbEntity
  8
DRAW2
100
AcDbLine
 10
1369.237638441508
 20
-579.7014794074621
 30
0.0
 11
1354.237626372522
 21
-579.701479407462
 31
0.0
  0
LINE
  5
11188
330
18
100
AcDbEntity
  8
DRAW2
100
AcDbLine
 10
1343.737572528476
 20
-581.7014794074626
 30
0.0
 11
1345.737572528476
 21
-579.7014794074625
 31
0.0
  0
LINE
  5
11189
330
18
100
AcDbEntity
  8
DRAW2
100
AcDbLine
 10
1394.237538441509
 20
-536.0342415744021
 30
0.0
 11
1396.237538441509
 21
-538.0341115744022
 31
0.0
  0
LINE
  5
1118A
330
18
100
AcDbEntity
  8
DRAW2
100
AcDbLine
 10
1396.237638441508
 20
-560.0343015744022
 30
0.0
 11
1394.237638441508
 21
-562.0342415744021
 31
0.0
  0
LINE
  5
1118B
330
18
100
AcDbEntity
  8
DRAW2
100
AcDbLine
 10
1394.237638441508
 20
-536.0341815744022
 30
0.0
 11
1394.237638441508
 21
-562.0342415744021
 31
0.0
  0
LINE
  5
1118C
330
18
100
AcDbEntity
  8
DRAW2
100
AcDbLine
 10
1396.237638441508
 20
-538.0340515744023
 30
0.0
 11
1396.237638441508
 21
-560.0342415744021
 31
0.0
  0
LINE
  5
1118D
330
18
100
AcDbEntity
  8
DRAW2
100
AcDbLine
 10
1388.734809678615
 20
-396.100746833627
 30
0.0
 11
1369.237638441508
 21
-396.100746833627
 31
0.0
  0
LINE
  5
1118E
330
18
100
AcDbEntity
  8
DRAW2
100
AcDbLine
 10
1388.734809678615
 20
-467.302273772587
 30
0.0
 11
1369.237638441508
 21
-467.302273772587
 31
0.0
  0
LINE
  5
11191
330
18
100
AcDbEntity
  8
DRAW2
100
AcDbLine
 10
1353.734869678615
 20
-459.7014794074625
 30
0.0
 11
1388.734809678615
 21
-459.7014794074625
 31
0.0
  0
LINE
  5
11192
330
18
100
AcDbEntity
  8
DRAW2
100
AcDbLine
 10
1353.734869678615
 20
-403.7014794074624
 30
0.0
 11
1388.734809678615
 21
-403.7014794074624
 31
0.0
  0
LINE
  5
11193
330
18
100
AcDbEntity
  8
DRAW2
100
AcDbLine
 10
1388.734809678615
 20
-493.3023337725868
 30
0.0
 11
1369.237638441508
 21
-493.3023337725868
 31
0.0
  0
LINE
  5
11194
330
18
100
AcDbEntity
  8
DRAW2
100
AcDbLine
 10
1353.734929678615
 20
-384.7014794074625
 30
0.0
 11
1353.734929678615
 21
-478.7014794074625
 31
0.0
  0
LINE
  5
11196
330
18
100
AcDbEntity
  8
DRAW2
100
AcDbLine
 10
1369.237638441508
 20
-476.0889776473949
 30
0.0
 11
1354.237626372522
 21
-476.0889776473949
 31
0.0
  0
LINE
  5
11197
330
18
100
AcDbEntity
  8
DRAW2
100
AcDbLine
 10
1369.237638441508
 20
-485.180447235946
 30
0.0
 11
1354.237626372522
 21
-485.1804472359462
 31
0.0
  0
LINE
  5
11198
330
18
100
AcDbEntity
  8
DRAW2
100
AcDbLine
 10
1354.231202811472
 20
-479.7014794074624
 30
0.0
 11
1353.734869678615
 21
-479.7014794074624
 31
0.0
  0
LINE
  5
1119A
330
18
100
AcDbEntity
  8
DRAW2
100
AcDbLine
 10
1369.237638441508
 20
-378.2225115789789
 30
0.0
 11
1354.237626372522
 21
-378.2225115789789
 31
0.0
  0
LINE
  5
1119B
330
18
100
AcDbEntity
  8
DRAW2
100
AcDbLine
 10
1369.237638441508
 20
-387.313981167529
 30
0.0
 11
1354.237626372522
 21
-387.313981167529
 31
0.0
  0
LINE
  5
1119C
330
18
100
AcDbEntity
  8
DRAW2
100
AcDbLine
 10
1354.231202811472
 20
-383.7014794074623
 30
0.0
 11
1353.734869678615
 21
-383.7014794074624
 31
0.0
  0
LINE
  5
1119E
330
18
100
AcDbEntity
  8
DRAW2
100
AcDbLine
 10
1394.734869678615
 20
-494.2014794074624
 30
0.0
 11
1414.734869678615
 21
-494.2014794074625
 31
0.0
  0
LINE
  5
1119F
330
18
100
AcDbEntity
  8
DRAW2
100
AcDbLine
 10
1388.734809678615
 20
-493.7014794074626
 30
0.0
 11
1394.734869678615
 21
-493.7014794074626
 31
0.0
  0
LINE
  5
111A1
330
18
100
AcDbEntity
  8
DRAW2
100
AcDbLine
 10
1744.903988321684
 20
-877.6769042587126
 30
0.0
 11
1660.666565809388
 21
-793.4394817464159
 31
0.0
  0
LINE
  5
111A2
330
18
100
AcDbEntity
  8
DRAW2
100
AcDbLine
 10
1742.782667978125
 20
-879.7982246022721
 30
0.0
 11
1658.538611757997
 21
-795.5541683821451
 31
0.0
  0
LINE
  5
111A4
330
18
100
AcDbEntity
  8
DRAW2
100
AcDbLine
 10
1621.305063591989
 20
-809.604357513545
 30
0.0
 11
1621.305063591989
 21
-835.3809956498961
 31
0.0
  0
LINE
  5
111A5
330
18
100
AcDbEntity
  8
DRAW2
100
AcDbLine
 10
1624.305063591989
 20
-809.604357513545
 30
0.0
 11
1624.305063591989
 21
-836.1958082778725
 31
0.0
  0
LINE
  5
111A7
330
18
100
AcDbEntity
  8
DRAW2
100
AcDbLine
 10
1624.305063591989
 20
-839.304571716242
 30
0.0
 11
1624.305063591989
 21
-882.9239975135452
 31
0.0
  0
LINE
  5
111A8
330
18
100
AcDbEntity
  8
DRAW2
100
AcDbLine
 10
1621.305063591989
 20
-838.4897613819862
 30
0.0
 11
1621.305063591989
 21
-882.9239975135452
 31
0.0
  0
LINE
  5
111A9
330
18
100
AcDbEntity
  8
DRAW2
100
AcDbLine
 10
1621.105103591989
 20
-887.4239975135452
 30
0.0
 11
1624.505073591989
 21
-887.4239975135452
 31
0.0
  0
LINE
  5
111AA
330
18
100
AcDbEntity
  8
DRAW2
100
AcDbLine
 10
1617.555063591989
 20
-896.9239975135453
 30
0.0
 11
1628.055123591989
 21
-896.9239975135453
 31
0.0
  0
LINE
  5
111AB
330
18
100
AcDbEntity
  8
DRAW2
100
AcDbLine
 10
1617.555063591989
 20
-882.9239975135452
 30
0.0
 11
1628.055123591989
 21
-882.9239975135452
 31
0.0
  0
LINE
  5
111AC
330
18
100
AcDbEntity
  8
DRAW2
100
AcDbLine
 10
1617.555063591989
 20
-882.9239975135452
 30
0.0
 11
1617.555063591989
 21
-896.9239975135453
 31
0.0
  0
LINE
  5
111AD
330
18
100
AcDbEntity
  8
DRAW2
100
AcDbLine
 10
1621.105103591989
 20
-887.4239975135452
 30
0.0
 11
1621.105103591989
 21
-896.9239975135453
 31
0.0
  0
LINE
  5
111AE
330
18
100
AcDbEntity
  8
DRAW2
100
AcDbLine
 10
1628.055123591989
 20
-882.9239975135452
 30
0.0
 11
1628.055123591989
 21
-896.9239975135453
 31
0.0
  0
LINE
  5
111AF
330
18
100
AcDbEntity
  8
DRAW2
100
AcDbLine
 10
1624.505073591989
 20
-887.4239975135452
 30
0.0
 11
1624.505073591989
 21
-896.9239975135453
 31
0.0
  0
LINE
  5
111B0
330
18
100
AcDbEntity
  8
DRAW3
100
AcDbLine
 10
1614.514343591989
 20
-833.5366075135453
 30
0.0
 11
1632.466863591989
 21
-838.4125875135451
 31
0.0
  0
LINE
  5
111B1
330
18
100
AcDbEntity
  8
DRAW3
100
AcDbLine
 10
1614.306463591989
 20
-836.5889175135452
 30
0.0
 11
1632.409363591989
 21
-841.5057275135453
 31
0.0
  0
ARC
  5
111B3
330
18
100
AcDbEntity
  8
DRAW2
100
AcDbCircle
 10
1644.305063591989
 20
-809.6048914635982
 30
0.0
 40
23.0
100
AcDbArc
 50
44.99999999999539
 51
180.0
  0
ARC
  5
111B4
330
18
100
AcDbEntity
  8
DRAW2
100
AcDbCircle
 10
1644.305063591989
 20
-809.6048914635982
 30
0.0
 40
20.0
100
AcDbArc
 50
44.99999999999539
 51
180.0
  0
LINE
  5
111B5
330
18
100
AcDbEntity
  8
DRAW2
100
AcDbLine
 10
1766.534344216291
 20
-883.0438506292264
 30
0.0
 11
1770.352720834698
 21
-886.8622272476338
 31
0.0
  0
LINE
  5
111B6
330
18
100
AcDbEntity
  8
DRAW2
100
AcDbLine
 10
1773.605412028156
 20
-875.9727828173607
 30
0.0
 11
1766.534344216291
 21
-883.0438506292264
 31
0.0
  0
LINE
  5
111B7
330
18
100
AcDbEntity
  8
DRAW2
100
AcDbLine
 10
1772.756883890732
 20
-875.9727828173605
 30
0.0
 11
1766.534344216291
 21
-882.195322491802
 31
0.0
  0
LINE
  5
111B8
330
18
100
AcDbEntity
  8
DRAW2
100
AcDbLine
 10
1769.292060662918
 20
-887.9228874194135
 30
0.0
 11
1778.484448818343
 21
-878.7304992639885
 31
0.0
  0
LINE
  5
111B9
330
18
100
AcDbEntity
  8
DRAW2
100
AcDbLine
 10
1752.472210537031
 20
-896.9787680127208
 30
0.0
 11
1756.138756689673
 21
-900.4230992470212
 31
0.0
  0
LINE
  5
111BA
330
18
100
AcDbEntity
  8
DRAW3
100
AcDbLine
 10
1755.476574667771
 20
-898.6271665021883
 30
0.0
 11
1756.760036563536
 21
-899.8328428285137
 31
0.0
  0
LINE
  5
111BB
330
18
100
AcDbEntity
  8
DRAW2
100
AcDbLine
 10
1764.338213626296
 20
-889.7655275436632
 30
0.0
 11
1754.871291263075
 21
-899.2324499068837
 31
0.0
  0
LINE
  5
111BC
330
18
100
AcDbEntity
  8
DRAW2
100
AcDbLine
 10
1743.0584214886
 20
-905.6712452194927
 30
0.0
 11
1736.835881814159
 21
-911.8937848939344
 31
0.0
  0
LINE
  5
111BD
330
18
100
AcDbEntity
  8
DRAW2
100
AcDbLine
 10
1736.835881814158
 20
-912.7423130313585
 30
0.0
 11
1740.654258432566
 21
-916.560689649766
 31
0.0
  0
LINE
  5
111BE
330
18
100
AcDbEntity
  8
DRAW2
100
AcDbLine
 10
1743.906949626024
 20
-905.6712452194929
 30
0.0
 11
1736.835881814158
 21
-912.7423130313585
 31
0.0
  0
CIRCLE
  5
111C0
330
18
100
AcDbEntity
  8
DRAW2
100
AcDbCircle
 10
1741.054869635025
 20
-958.8231115393439
 30
0.0
 40
11.0
  0
CIRCLE
  5
111C1
330
18
100
AcDbEntity
  8
DRAW2
100
AcDbCircle
 10
1741.054869635025
 20
-958.8231115393439
 30
0.0
 40
13.000001
  0
LINE
  5
111C2
330
18
100
AcDbEntity
  8
DRAW2
100
AcDbLine
 10
1731.285125716745
 20
-928.0512053511525
 30
0.0
 11
1738.003551382306
 21
-921.3327796855905
 31
0.0
  0
LINE
  5
111C3
330
18
100
AcDbEntity
  8
DRAW2
100
AcDbLine
 10
1736.835881814158
 20
-912.7423130313585
 30
0.0
 11
1736.835881814159
 21
-911.8937848939344
 31
0.0
  0
LINE
  5
111C4
330
18
100
AcDbEntity
  8
DRAW2
100
AcDbLine
 10
1731.285125716745
 20
-929.4654189135254
 30
0.0
 11
1732.089413984754
 21
-930.2697071815344
 31
0.0
  0
LINE
  5
111C5
330
18
100
AcDbEntity
  8
DRAW2
100
AcDbLine
 10
1731.285125716745
 20
-929.4654189135254
 30
0.0
 11
1731.285125716745
 21
-928.0512053511525
 31
0.0
  0
LINE
  5
111C6
330
18
100
AcDbEntity
  8
DRAW2
100
AcDbLine
 10
1747.565482258537
 20
-909.3297778520062
 30
0.0
 11
1743.906949626024
 21
-905.6712452194929
 31
0.0
  0
LINE
  5
111C7
330
18
100
AcDbEntity
  8
DRAW2
100
AcDbLine
 10
1739.593598260786
 20
-917.6213498215458
 30
0.0
 11
1740.248862789719
 21
-918.2766143504778
 31
0.0
  0
LINE
  5
111C8
330
18
100
AcDbEntity
  8
DRAW2
100
AcDbLine
 10
1739.593598260786
 20
-917.6213498215458
 30
0.0
 11
1745.49461144893
 21
-911.7203366334011
 31
0.0
  0
LINE
  5
111C9
330
18
100
AcDbEntity
  8
DRAW2
100
AcDbLine
 10
1745.49461144893
 20
-911.7203366334011
 30
0.0
 11
1740.654258432566
 21
-916.560689649766
 31
0.0
  0
LINE
  5
111CA
330
18
100
AcDbEntity
  8
DRAW2
100
AcDbLine
 10
1743.906949626024
 20
-905.6712452194929
 30
0.0
 11
1743.0584214886
 21
-905.6712452194927
 31
0.0
  0
LINE
  5
111CB
330
18
100
AcDbEntity
  8
DRAW2
100
AcDbLine
 10
1757.985477915768
 20
-882.9802192597446
 30
0.0
 11
1748.085982979157
 21
-892.879714196356
 31
0.0
  0
LINE
  5
111CC
330
18
100
AcDbEntity
  8
DRAW2
100
AcDbLine
 10
1752.328623666276
 20
-888.637073509237
 30
0.0
 11
1756.571264353395
 21
-892.879714196356
 31
0.0
  0
LINE
  5
111CD
330
18
100
AcDbEntity
  8
DRAW2
100
AcDbLine
 10
1754.09637647711
 20
-882.6266517270184
 30
0.0
 11
1747.732415446431
 21
-888.9906127576974
 31
0.0
  0
LINE
  5
111CE
330
18
100
AcDbEntity
  8
DRAW2
100
AcDbLine
 10
1755.157050791022
 20
-885.8086463844907
 30
0.0
 11
1753.03571630533
 21
-883.6873118987984
 31
0.0
  0
LINE
  5
111CF
330
18
100
AcDbEntity
  8
DRAW2
100
AcDbLine
 10
1754.09637647711
 20
-881.919544945832
 30
0.0
 11
1747.025308665244
 21
-888.9906127576974
 31
0.0
  0
LINE
  5
111D0
330
18
100
AcDbEntity
  8
DRAW2
100
AcDbLine
 10
1762.228118602888
 20
-887.2228599468639
 30
0.0
 11
1752.328623666276
 21
-897.1223548834755
 31
0.0
  0
LINE
  5
111D1
330
18
100
AcDbEntity
  8
DRAW2
100
AcDbLine
 10
1747.732415446431
 20
-875.5555839151531
 30
0.0
 11
1754.09637647711
 21
-881.919544945832
 31
0.0
  0
LINE
  5
111D2
330
18
100
AcDbEntity
  8
DRAW2
100
AcDbLine
 10
1747.025308665244
 20
-875.5555839151528
 30
0.0
 11
1747.732415446431
 21
-875.5555839151531
 31
0.0
  0
LINE
  5
111D3
330
18
100
AcDbEntity
  8
DRAW2
100
AcDbLine
 10
1748.085982979157
 20
-892.8797141963563
 30
0.0
 11
1752.328623666276
 21
-897.1223548834755
 31
0.0
  0
LINE
  5
111D4
330
18
100
AcDbEntity
  8
DRAW2
100
AcDbLine
 10
1747.787124488434
 20
-893.9950692680067
 30
0.0
 11
1751.213268594626
 21
-897.4212133741982
 31
0.0
  0
LINE
  5
111D5
330
18
100
AcDbEntity
  8
DRAW2
100
AcDbLine
 10
1752.328623666276
 20
-897.1223548834755
 30
0.0
 11
1751.213268594626
 21
-897.4212133741982
 31
0.0
  0
LINE
  5
111D6
330
18
100
AcDbEntity
  8
DRAW2
100
AcDbLine
 10
1748.085982979157
 20
-892.8797141963563
 30
0.0
 11
1747.787124488434
 21
-893.9950692680067
 31
0.0
  0
LINE
  5
111D7
330
18
100
AcDbEntity
  8
DRAW2
100
AcDbLine
 10
1750.914410103903
 20
-890.0512870716099
 30
0.0
 11
1748.793075618211
 21
-887.9299525859174
 31
0.0
  0
LINE
  5
111D8
330
18
100
AcDbEntity
  8
DRAW2
100
AcDbLine
 10
1747.025308665244
 20
-888.9906127576974
 30
0.0
 11
1747.732415446431
 21
-888.9906127576974
 31
0.0
  0
LINE
  5
111D9
330
18
100
AcDbEntity
  8
DRAW2
100
AcDbLine
 10
1740.661347634565
 20
-881.9195449458318
 30
0.0
 11
1740.661347634565
 21
-882.6266517270184
 31
0.0
  0
LINE
  5
111DA
330
18
100
AcDbEntity
  8
DRAW2
100
AcDbLine
 10
1740.661347634565
 20
-882.6266517270184
 30
0.0
 11
1747.025308665244
 21
-888.9906127576974
 31
0.0
  0
LINE
  5
111DB
330
18
100
AcDbEntity
  8
DRAW2
100
AcDbLine
 10
1747.025308665244
 20
-875.5555839151528
 30
0.0
 11
1740.661347634565
 21
-881.9195449458318
 31
0.0
  0
LINE
  5
111DC
330
18
100
AcDbEntity
  8
DRAW2
100
AcDbLine
 10
1740.661347634565
 20
-882.6266517270184
 30
0.0
 11
1747.732415446431
 21
-875.5555839151531
 31
0.0
  0
LINE
  5
111DD
330
18
100
AcDbEntity
  8
DRAW3
100
AcDbLine
 10
1763.732930221601
 20
-890.3708109483588
 30
0.0
 11
1765.47379139885
 21
-892.2239857499473
 31
0.0
  0
LINE
  5
111DE
330
18
100
AcDbEntity
  8
DRAW2
100
AcDbLine
 10
1762.084531732133
 20
-887.3664468176185
 30
0.0
 11
1766.143366045999
 21
-891.6871414097984
 31
0.0
  0
LINE
  5
111E0
330
18
100
AcDbEntity
  8
DRAW3
100
AcDbLine
 10
1763.264476198609
 20
-888.6225167335442
 30
0.0
 11
1763.732930221601
 21
-890.3708109483588
 31
0.0
  0
LINE
  5
111E1
330
18
100
AcDbEntity
  8
DRAW2
100
AcDbLine
 10
1762.228118602888
 20
-887.2228599468639
 30
0.0
 11
1762.52697709361
 21
-886.1075048752136
 31
0.0
  0
LINE
  5
111E2
330
18
100
AcDbEntity
  8
DRAW2
100
AcDbLine
 10
1766.534344216291
 20
-883.0438506292264
 30
0.0
 11
1766.534344216291
 21
-882.195322491802
 31
0.0
  0
LINE
  5
111E3
330
18
100
AcDbEntity
  8
DRAW2
100
AcDbLine
 10
1769.292060662918
 20
-887.9228874194135
 30
0.0
 11
1770.048680516332
 21
-888.6795072728267
 31
0.0
  0
LINE
  5
111E4
330
18
100
AcDbEntity
  8
DRAW2
100
AcDbLine
 10
1753.742837228649
 20
-887.2228599468636
 30
0.0
 11
1757.985477915768
 21
-891.4655006339831
 31
0.0
  0
LINE
  5
111E5
330
18
100
AcDbEntity
  8
DRAW3
100
AcDbLine
 10
1753.728280452957
 20
-898.1587124791966
 30
0.0
 11
1755.476574667771
 21
-898.6271665021883
 31
0.0
  0
LINE
  5
111E6
330
18
100
AcDbEntity
  8
DRAW2
100
AcDbLine
 10
1754.09637647711
 20
-881.919544945832
 30
0.0
 11
1754.09637647711
 21
-882.6266517270184
 31
0.0
  0
LINE
  5
111E7
330
18
100
AcDbEntity
  8
DRAW2
100
AcDbLine
 10
1757.985477915768
 20
-882.9802192597446
 30
0.0
 11
1759.100832987419
 21
-882.6813607690221
 31
0.0
  0
LINE
  5
111E8
330
18
100
AcDbEntity
  8
DRAW2
100
AcDbLine
 10
1757.985477915768
 20
-882.9802192597446
 30
0.0
 11
1762.228118602888
 21
-887.2228599468639
 31
0.0
  0
LINE
  5
111E9
330
18
100
AcDbEntity
  8
DRAW2
100
AcDbLine
 10
1759.100832987419
 20
-882.6813607690221
 30
0.0
 11
1762.52697709361
 21
-886.1075048752136
 31
0.0
  0
CIRCLE
  5
111EC
330
18
100
AcDbEntity
  8
DRAW2
100
AcDbCircle
 10
1809.786859635025
 20
-890.091241539344
 30
0.0
 40
11.0
  0
CIRCLE
  5
111ED
330
18
100
AcDbEntity
  8
DRAW2
100
AcDbCircle
 10
1809.786859635025
 20
-890.091241539344
 30
0.0
 40
13.000001
  0
LINE
  5
111EE
330
18
100
AcDbEntity
  8
DRAW2
100
AcDbLine
 10
1773.605412028156
 20
-875.9727828173607
 30
0.0
 11
1772.756883890732
 21
-875.9727828173605
 31
0.0
  0
LINE
  5
111EF
330
18
100
AcDbEntity
  8
DRAW2
100
AcDbLine
 10
1777.77739657976
 20
-881.5589344881367
 30
0.0
 11
1779.014833446836
 21
-880.3214976210606
 31
0.0
  0
LINE
  5
111F0
330
18
100
AcDbEntity
  8
DRAW2
100
AcDbLine
 10
1780.429047009209
 20
-880.3214976210606
 30
0.0
 11
1781.233335277219
 21
-881.1257858890702
 31
0.0
  0
LINE
  5
111F1
330
18
100
AcDbEntity
  8
DRAW2
100
AcDbLine
 10
1780.429047009209
 20
-880.3214976210606
 30
0.0
 11
1779.014833446836
 21
-880.3214976210606
 31
0.0
  0
LINE
  5
111F2
330
18
100
AcDbEntity
  8
DRAW2
100
AcDbLine
 10
1779.545108990123
 20
-879.7911594357682
 30
0.0
 11
1772.296187877372
 21
-887.0400805485195
 31
0.0
  0
LINE
  5
111F3
330
18
100
AcDbEntity
  8
DRAW2
100
AcDbLine
 10
1777.423788646563
 20
-879.791159435768
 30
0.0
 11
1773.605412028156
 21
-875.9727828173607
 31
0.0
  0
LINE
  5
111F4
330
18
100
AcDbEntity
  8
DRAW2
100
AcDbLine
 10
1778.484448818343
 20
-878.7304992639885
 30
0.0
 11
1779.545108990123
 21
-879.7911594357682
 31
0.0
  0
CIRCLE
  5
111F5
330
18
100
AcDbEntity
  8
DRAW2
100
AcDbCircle
 10
1826.567809635025
 20
-857.2438182589319
 30
0.0
 40
9.5
  0
LINE
  5
111F6
330
18
100
AcDbEntity
  8
DRAW2
100
AcDbLine
 10
1810.387579202894
 20
-867.4239382589318
 30
0.0
 11
1812.103068557489
 21
-867.4239382589318
 31
0.0
  0
LINE
  5
111F7
330
18
100
AcDbEntity
  8
DRAW2
100
AcDbLine
 10
1812.387749635025
 20
-743.424001539344
 30
0.0
 11
1812.387749635025
 21
-768.424001539344
 31
0.0
  0
CIRCLE
  5
111F9
330
18
100
AcDbEntity
  8
DRAW2
100
AcDbCircle
 10
1826.567809635025
 20
-793.604238258932
 30
0.0
 40
9.5
  0
LINE
  5
111FA
330
18
100
AcDbEntity
  8
DRAW2
100
AcDbLine
 10
1811.387569635025
 20
-768.424001539344
 30
0.0
 11
1832.750674854904
 21
-768.424001539344
 31
0.0
  0
LINE
  5
111FB
330
18
100
AcDbEntity
  8
DRAW2
100
AcDbLine
 10
1811.387569635025
 20
-768.424001539344
 30
0.0
 11
1811.387569635025
 21
-783.4240015393439
 31
0.0
  0
LINE
  5
111FC
330
18
100
AcDbEntity
  8
DRAW2
100
AcDbLine
 10
1811.387569635025
 20
-783.4240015393439
 30
0.0
 11
1812.103120026602
 21
-783.4240015393439
 31
0.0
  0
LINE
  5
111FD
330
18
100
AcDbEntity
  8
DRAW2
100
AcDbLine
 10
1836.387659635025
 20
-741.4240015393439
 30
0.0
 11
1814.387449635025
 21
-741.4240015393439
 31
0.0
  0
LINE
  5
111FE
330
18
100
AcDbEntity
  8
DRAW2
100
AcDbLine
 10
1814.387629635025
 20
-741.424061539344
 30
0.0
 11
1812.387689635025
 21
-743.4240615393441
 31
0.0
  0
LINE
  5
111FF
330
18
100
AcDbEntity
  8
DRAW2
100
AcDbLine
 10
1354.231202811472
 20
-283.7014794074625
 30
0.0
 11
1266.231202811472
 21
-283.7014794074625
 31
0.0
  0
LINE
  5
11200
330
18
100
AcDbEntity
  8
DRAW2
100
AcDbLine
 10
1044.737572528475
 20
-281.701479407463
 30
0.0
 11
1343.737572528476
 21
-281.7014794074624
 31
0.0
  0
LINE
  5
11201
330
18
100
AcDbEntity
  8
DRAW2
100
AcDbLine
 10
1265.734869678615
 20
-369.2014794074625
 30
0.0
 11
1353.734869678615
 21
-369.2014794074625
 31
0.0
  0
LINE
  5
11202
330
18
100
AcDbEntity
  8
DRAW2
100
AcDbLine
 10
1034.734869678615
 20
-369.2014794074624
 30
0.0
 11
1122.734869678615
 21
-369.2014794074624
 31
0.0
  0
LINE
  5
11203
330
18
100
AcDbEntity
  8
DRAW2
100
AcDbLine
 10
1034.237506372522
 20
-283.7014794074625
 30
0.0
 11
1122.237506372522
 21
-283.7014794074625
 31
0.0
  0
LINE
  5
11204
330
18
100
AcDbEntity
  8
DRAW2
100
AcDbLine
 10
994.2376063725223
 20
-301.3688360083726
 30
0.0
 11
992.2376063725224
 21
-303.3687060083727
 31
0.0
  0
LINE
  5
11205
330
18
100
AcDbEntity
  8
DRAW2
100
AcDbLine
 10
994.2375063725226
 20
-301.3687760083728
 30
0.0
 11
994.2375063725226
 21
-327.3688360083726
 31
0.0
  0
LINE
  5
11206
330
18
100
AcDbEntity
  8
DRAW2
100
AcDbLine
 10
994.2375063725226
 20
-327.3688360083726
 30
0.0
 11
1019.237506372522
 21
-327.3688360083726
 31
0.0
  0
LINE
  5
11207
330
18
100
AcDbEntity
  8
DRAW2
100
AcDbLine
 10
994.2375063725226
 20
-370.1006868336271
 30
0.0
 11
1019.237506372522
 21
-370.1006868336271
 31
0.0
  0
LINE
  5
11209
330
18
100
AcDbEntity
  8
DRAW2
100
AcDbLine
 10
994.2376063725223
 20
-370.1007468336269
 30
0.0
 11
992.2376063725224
 21
-372.1006168336271
 31
0.0
  0
LINE
  5
1120A
330
18
100
AcDbEntity
  8
DRAW2
100
AcDbLine
 10
992.2375063725226
 20
-325.3688960083727
 30
0.0
 11
994.2375063725226
 21
-327.3688360083726
 31
0.0
  0
LINE
  5
1120B
330
18
100
AcDbEntity
  8
DRAW2
100
AcDbLine
 10
992.2375063725226
 20
-303.3686460083729
 30
0.0
 11
992.2375063725226
 21
-325.3688360083726
 31
0.0
  0
LINE
  5
1120C
330
18
100
AcDbEntity
  8
DRAW2
100
AcDbLine
 10
994.2375063725226
 20
-301.3687760083728
 30
0.0
 11
1019.237506372522
 21
-301.3687760083728
 31
0.0
  0
LINE
  5
1120D
330
18
100
AcDbEntity
  8
DRAW2
100
AcDbLine
 10
1034.237506372522
 20
-283.7014794074629
 30
0.0
 11
1019.237506372522
 21
-283.7014794074629
 31
0.0
  0
LINE
  5
1120E
330
18
100
AcDbEntity
  8
DRAW2
100
AcDbLine
 10
1124.237586372522
 20
-283.7014794074624
 30
0.0
 11
1264.237586372522
 21
-283.7014794074624
 31
0.0
  0
LINE
  5
1120F
330
18
100
AcDbEntity
  8
DRAW2
100
AcDbLine
 10
1044.737572528476
 20
-281.7014794074625
 30
0.0
 11
1042.737572528475
 21
-283.7014794074626
 31
0.0
  0
LINE
  5
11210
330
18
100
AcDbEntity
  8
DRAW2
100
AcDbLine
 10
1122.237506372522
 20
-283.7014794074625
 30
0.0
 11
1122.237506372522
 21
-369.2014794074625
 31
0.0
  0
LINE
  5
11211
330
18
100
AcDbEntity
  8
DRAW2
100
AcDbLine
 10
1266.231202811472
 20
-283.7014794074625
 30
0.0
 11
1266.231202811472
 21
-369.2014794074625
 31
0.0
  0
LINE
  5
11212
330
18
100
AcDbEntity
  8
DRAW2
100
AcDbLine
 10
1394.237638441508
 20
-301.3687760083728
 30
0.0
 11
1369.237638441508
 21
-301.3687760083728
 31
0.0
  0
LINE
  5
11213
330
18
100
AcDbEntity
  8
DRAW2
100
AcDbLine
 10
1394.237638441508
 20
-327.3688360083726
 30
0.0
 11
1369.237638441508
 21
-327.3688360083726
 31
0.0
  0
LINE
  5
11215
330
18
100
AcDbEntity
  8
DRAW2
100
AcDbLine
 10
1388.734809678615
 20
-370.1006868336271
 30
0.0
 11
1369.237638441508
 21
-370.1006868336271
 31
0.0
  0
LINE
  5
11216
330
18
100
AcDbEntity
  8
DRAW2
100
AcDbLine
 10
1369.237638441508
 20
-283.7014794074629
 30
0.0
 11
1354.237626372522
 21
-283.7014794074629
 31
0.0
  0
LINE
  5
11217
330
18
100
AcDbEntity
  8
DRAW2
100
AcDbLine
 10
1345.737572528476
 20
-283.7014794074624
 30
0.0
 11
1343.737572528476
 21
-281.7014794074624
 31
0.0
  0
LINE
  5
11218
330
18
100
AcDbEntity
  8
DRAW2
100
AcDbLine
 10
1394.237538441509
 20
-301.3688360083726
 30
0.0
 11
1396.237538441509
 21
-303.3687060083727
 31
0.0
  0
LINE
  5
11219
330
18
100
AcDbEntity
  8
DRAW2
100
AcDbLine
 10
1394.237638441508
 20
-301.3687760083728
 30
0.0
 11
1394.237638441508
 21
-327.3688360083726
 31
0.0
  0
LINE
  5
1121A
330
18
100
AcDbEntity
  8
DRAW2
100
AcDbLine
 10
1394.734869678615
 20
-369.2014794074624
 30
0.0
 11
1414.734869678615
 21
-369.2014794074624
 31
0.0
  0
LINE
  5
1121B
330
18
100
AcDbEntity
  8
DRAW2
100
AcDbLine
 10
1388.734809678615
 20
-369.7014794074624
 30
0.0
 11
1394.734869678615
 21
-369.7014794074624
 31
0.0
  0
LINE
  5
1121C
330
18
100
AcDbEntity
  8
DRAW2
100
AcDbLine
 10
1396.237638441508
 20
-325.3688960083727
 30
0.0
 11
1394.237638441508
 21
-327.3688360083726
 31
0.0
  0
LINE
  5
1121D
330
18
100
AcDbEntity
  8
DRAW2
100
AcDbLine
 10
1396.237638441508
 20
-303.3686460083729
 30
0.0
 11
1396.237638441508
 21
-325.3688360083726
 31
0.0
  0
SPLINE
  5
1121E
330
18
100
AcDbEntity
  8
DRAW3
100
AcDbSpline
210
0.0
220
0.0
230
1.0
 70
     8
 71
     3
 72
    10
 73
     6
 74
     0
 42
0.0000000001
 43
0.0000000001
 40
4.491492883510634
 40
4.491492883510634
 40
4.491492883510634
 40
4.491492883510634
 40
6.821020915320963
 40
11.08660824925465
 40
14.11505779256892
 40
14.11505779256892
 40
14.11505779256892
 40
14.11505779256892
 10
1915.823303510933
 20
-1101.423941539344
 30
0.0
 10
1916.026306414875
 20
-1102.129902780852
 30
0.0
 10
1916.030980611842
 20
-1104.044464186013
 30
0.0
 10
1912.461477189187
 20
-1106.310675407058
 30
0.0
 10
1912.803701713737
 20
-1108.480801230004
 30
0.0
 10
1913.229449551515
 20
-1109.423941539344
 30
0.0
  0
ARC
  5
11220
330
18
100
AcDbEntity
  8
DRAW2
100
AcDbCircle
 10
1858.387569635025
 20
-1007.423941539344
 30
0.0
 40
148.0
100
AcDbArc
 50
288.9245767119093
 51
71.07535949965098
  0
CIRCLE
  5
11223
330
18
100
AcDbEntity
  8
DRAW2
100
AcDbCircle
 10
1975.720269635025
 20
-1056.024831539343
 30
0.0
 40
11.0
  0
CIRCLE
  5
11224
330
18
100
AcDbEntity
  8
DRAW2
100
AcDbCircle
 10
1975.720269635025
 20
-1056.024831539343
 30
0.0
 40
13.000001
  0
LINE
  5
11225
330
18
100
AcDbEntity
  8
DRAW2
100
AcDbLine
 10
1904.671995141288
 20
-1231.423991539344
 30
0.0
 11
2008.387569635025
 21
-1231.423991539344
 31
0.0
  0
LINE
  5
11226
330
18
100
AcDbEntity
  8
DRAW2
100
AcDbLine
 10
1884.024383127187
 20
-1246.424001539343
 30
0.0
 11
2008.387569635025
 21
-1246.424001539343
 31
0.0
  0
LINE
  5
11227
330
18
100
AcDbEntity
  8
HIDDEN
100
AcDbLine
 10
1956.387569635025
 20
-1094.423941539343
 30
0.0
 11
1978.11642998206
 21
-1094.423941539343
 31
0.0
  0
LINE
  5
11229
330
18
100
AcDbEntity
  8
DRAW2
100
AcDbLine
 10
1983.887509635025
 20
-1209.424031539344
 30
0.0
 11
1966.887509635025
 21
-1209.424031539344
 31
0.0
  0
LINE
  5
1122A
330
18
100
AcDbEntity
  8
DRAW2
100
AcDbLine
 10
1985.887599635025
 20
-1211.424001539343
 30
0.0
 11
1964.887539635025
 21
-1211.424001539343
 31
0.0
  0
LINE
  5
1122C
330
18
100
AcDbEntity
  8
DRAW2
100
AcDbLine
 10
1989.526359635025
 20
-1266.423971539343
 30
0.0
 11
1961.248779635025
 21
-1266.423971539343
 31
0.0
  0
CIRCLE
  5
1122F
330
18
100
AcDbEntity
  8
DRAW2
100
AcDbCircle
 10
1906.988279635025
 20
-1124.756671539344
 30
0.0
 40
11.0
  0
CIRCLE
  5
11230
330
18
100
AcDbEntity
  8
DRAW2
100
AcDbCircle
 10
1906.988279635025
 20
-1124.756671539344
 30
0.0
 40
13.000001
  0
LINE
  5
11231
330
18
100
AcDbEntity
  8
DRAW2
100
AcDbLine
 10
1904.387809635025
 20
-1264.423891539343
 30
0.0
 11
1902.387899635025
 21
-1266.423881539344
 31
0.0
  0
LINE
  5
11232
330
18
100
AcDbEntity
  8
DRAW2
100
AcDbLine
 10
1904.387539635025
 20
-1264.423921539344
 30
0.0
 11
1878.387479635025
 21
-1264.423921539344
 31
0.0
  0
CIRCLE
  5
11233
330
18
100
AcDbEntity
  8
DRAW2
100
AcDbCircle
 10
1858.387569635025
 20
-1189.423968258932
 30
0.0
 40
12.500001
  0
CIRCLE
  5
11234
330
18
100
AcDbEntity
  8
DRAW2
100
AcDbCircle
 10
1858.387569635025
 20
-1189.423968258932
 30
0.0
 40
13.5
  0
LINE
  5
11235
330
18
100
AcDbEntity
  8
DRAW2
100
AcDbLine
 10
1872.526359635025
 20
-1266.423971539343
 30
0.0
 11
1844.248779635025
 21
-1266.423971539343
 31
0.0
  0
LINE
  5
11236
330
18
100
AcDbEntity
  8
DRAW2
100
AcDbLine
 10
1843.259849635025
 20
-1265.572301539344
 30
0.0
 11
1840.835292368654
 21
-1249.408696004954
 31
0.0
  0
LINE
  5
11237
330
18
100
AcDbEntity
  8
DRAW2
100
AcDbLine
 10
1838.387749635025
 20
-1264.423971539343
 30
0.0
 11
1838.387749635025
 21
-1248.637625467109
 31
0.0
  0
ARC
  5
11238
330
18
100
AcDbEntity
  8
DRAW2
100
AcDbCircle
 10
1844.248779635025
 20
-1265.424001539344
 30
0.0
 40
1.0
100
AcDbArc
 50
188.5316099999993
 51
269.9999599999959
  0
LINE
  5
1123A
330
18
100
AcDbEntity
  8
DRAW2
100
AcDbLine
 10
1902.387659635025
 20
-1266.423891539344
 30
0.0
 11
1880.387479635025
 21
-1266.423891539344
 31
0.0
  0
LINE
  5
1123B
330
18
100
AcDbEntity
  8
DRAW2
100
AcDbLine
 10
1880.387719635025
 20
-1266.423821539343
 30
0.0
 11
1878.387749635025
 21
-1264.423831539344
 31
0.0
  0
ARC
  5
1123C
330
18
100
AcDbEntity
  8
DRAW2
100
AcDbCircle
 10
1872.526359635025
 20
-1265.424001539344
 30
0.0
 40
1.0
100
AcDbArc
 50
269.9999599999959
 51
351.4683700000066
  0
LINE
  5
1123D
330
18
100
AcDbEntity
  8
DRAW2
100
AcDbLine
 10
1875.939809132688
 20
-1249.408707056535
 30
0.0
 11
1873.515219635025
 21
-1265.572361539344
 31
0.0
  0
LINE
  5
1123E
330
18
100
AcDbEntity
  8
DRAW2
100
AcDbLine
 10
1878.387719635025
 20
-1264.423971539343
 30
0.0
 11
1878.387719635025
 21
-1248.637514006315
 31
0.0
  0
CIRCLE
  5
11241
330
18
100
AcDbEntity
  8
DRAW2
100
AcDbCircle
 10
1890.207389635025
 20
-1221.243758258931
 30
0.0
 40
9.5
  0
CIRCLE
  5
11244
330
18
100
AcDbEntity
  8
DRAW2
100
AcDbCircle
 10
1890.207389635025
 20
-1157.604148258931
 30
0.0
 40
9.5
  0
LINE
  5
11245
330
18
100
AcDbEntity
  8
DRAW2
100
AcDbLine
 10
1904.387779635025
 20
-1264.423971539343
 30
0.0
 11
1904.387779635025
 21
-1246.424001539343
 31
0.0
  0
ARC
  5
11246
330
18
100
AcDbEntity
  8
DRAW2
100
AcDbCircle
 10
1961.248779635025
 20
-1265.424001539344
 30
0.0
 40
1.0
100
AcDbArc
 50
188.5316099999993
 51
269.9999599999959
  0
LINE
  5
11247
330
18
100
AcDbEntity
  8
DRAW2
100
AcDbLine
 10
1960.259879635025
 20
-1265.572321539344
 30
0.0
 11
1957.387599635024
 21
-1246.423961539344
 31
0.0
  0
LINE
  5
11248
330
18
100
AcDbEntity
  8
DRAW2
100
AcDbLine
 10
1966.887419635025
 20
-1209.424031539344
 30
0.0
 11
1964.887479635025
 21
-1211.423971539344
 31
0.0
  0
LINE
  5
11249
330
18
100
AcDbEntity
  8
DRAW2
100
AcDbLine
 10
1964.887539635025
 20
-1211.423941539344
 30
0.0
 11
1964.887539635025
 21
-1231.423991539344
 31
0.0
  0
LINE
  5
1124A
330
18
100
AcDbEntity
  8
DRAW2
100
AcDbLine
 10
1904.672043489646
 20
-1147.423998258932
 30
0.0
 11
1906.387404202575
 21
-1147.423998258932
 31
0.0
  0
LINE
  5
1124B
330
18
100
AcDbEntity
  8
HIDDEN
100
AcDbLine
 10
1915.823303510933
 20
-1101.423941539344
 30
0.0
 11
1940.66371673142
 21
-1101.423941539344
 31
0.0
  0
LINE
  5
1124C
330
18
100
AcDbEntity
  8
HIDDEN
100
AcDbLine
 10
1913.229449551515
 20
-1109.423941539344
 30
0.0
 11
1940.66371673142
 21
-1109.423941539344
 31
0.0
  0
LINE
  5
1124D
330
18
100
AcDbEntity
  8
HIDDEN
100
AcDbLine
 10
1960.377569435025
 20
-1112.127129039343
 30
0.0
 11
1951.576983926329
 21
-1111.852110742197
 31
0.0
  0
LINE
  5
1124E
330
18
100
AcDbEntity
  8
HIDDEN
100
AcDbLine
 10
1960.377569435025
 20
-1111.271129039343
 30
0.0
 11
1950.721401589198
 21
-1110.969373794162
 31
0.0
  0
LINE
  5
1124F
330
18
100
AcDbEntity
  8
HIDDEN
100
AcDbLine
 10
1960.377569435025
 20
-1098.720754039343
 30
0.0
 11
1951.576983926329
 21
-1098.99577233649
 31
0.0
  0
LINE
  5
11250
330
18
100
AcDbEntity
  8
HIDDEN
100
AcDbLine
 10
1960.377569435025
 20
-1099.576754039343
 30
0.0
 11
1950.721401589199
 21
-1099.878509284526
 31
0.0
  0
LINE
  5
11251
330
18
100
AcDbEntity
  8
HIDDEN
100
AcDbLine
 10
1946.987569635025
 20
-1111.72146354631
 30
0.0
 11
1946.987569635025
 21
-1099.15196353381
 31
0.0
  0
LINE
  5
11252
330
18
100
AcDbEntity
  8
HIDDEN
100
AcDbLine
 10
1951.576983926329
 20
-1111.852110742197
 30
0.0
 11
1946.987569635025
 21
-1111.72146354631
 31
0.0
  0
LINE
  5
11253
330
18
100
AcDbEntity
  8
HIDDEN
100
AcDbLine
 10
1945.420091923889
 20
-1110.816479867837
 30
0.0
 11
1946.987569635025
 21
-1111.72146354631
 31
0.0
  0
LINE
  5
11254
330
18
100
AcDbEntity
  8
HIDDEN
100
AcDbLine
 10
1951.576983926329
 20
-1098.99577233649
 30
0.0
 11
1946.987569635025
 21
-1099.15196353381
 31
0.0
  0
LINE
  5
11255
330
18
100
AcDbEntity
  8
HIDDEN
100
AcDbLine
 10
1945.420091923889
 20
-1100.056947212283
 30
0.0
 11
1946.987569635025
 21
-1099.15196353381
 31
0.0
  0
LINE
  5
11256
330
18
100
AcDbEntity
  8
HIDDEN
100
AcDbLine
 10
1950.377569435025
 20
-1100.233254039343
 30
0.0
 11
1951.576983926329
 21
-1098.99577233649
 31
0.0
  0
LINE
  5
11257
330
18
100
AcDbEntity
  8
HIDDEN
100
AcDbLine
 10
1950.377569435024
 20
-1110.614629039343
 30
0.0
 11
1951.576983926329
 21
-1111.852110742197
 31
0.0
  0
ARC
  5
11258
330
18
100
AcDbEntity
  8
HIDDEN
100
AcDbCircle
 10
1944.900343859973
 20
-1105.423941539344
 30
0.0
 40
6.5
100
AcDbArc
 50
327.421029607203
 51
32.57897039279696
  0
LINE
  5
11259
330
18
100
AcDbEntity
  8
HIDDEN
100
AcDbLine
 10
1951.576983926329
 20
-1111.852110742197
 30
0.0
 11
1951.576983926329
 21
-1098.99577233649
 31
0.0
  0
LINE
  5
1125A
330
18
100
AcDbEntity
  8
HIDDEN
100
AcDbLine
 10
1950.377569435024
 20
-1110.614629039343
 30
0.0
 11
1950.377569435025
 21
-1100.233254039343
 31
0.0
  0
LINE
  5
1125B
330
18
100
AcDbEntity
  8
HIDDEN
100
AcDbLine
 10
1940.66371673142
 20
-1101.43671354006
 30
0.0
 11
1941.387569635025
 21
-1100.18296353381
 31
0.0
  0
LINE
  5
1125C
330
18
100
AcDbEntity
  8
HIDDEN
100
AcDbLine
 10
1941.387569635025
 20
-1110.69046354631
 30
0.0
 11
1941.387569635025
 21
-1100.18296353381
 31
0.0
  0
LINE
  5
1125D
330
18
100
AcDbEntity
  8
HIDDEN
100
AcDbLine
 10
1941.387569635025
 20
-1110.69046354631
 30
0.0
 11
1940.66371673142
 21
-1109.43671354006
 31
0.0
  0
LINE
  5
1125E
330
18
100
AcDbEntity
  8
HIDDEN
100
AcDbLine
 10
1940.66371673142
 20
-1101.43671354006
 30
0.0
 11
1940.66371673142
 21
-1109.43671354006
 31
0.0
  0
LINE
  5
1125F
330
18
100
AcDbEntity
  8
HIDDEN
100
AcDbLine
 10
1950.73416735815
 20
-1110.982544725158
 30
0.0
 11
1941.387569635025
 21
-1110.69046354631
 31
0.0
  0
LINE
  5
11260
330
18
100
AcDbEntity
  8
HIDDEN
100
AcDbLine
 10
1950.708635820247
 20
-1099.891680215522
 30
0.0
 11
1941.387569635025
 21
-1100.18296353381
 31
0.0
  0
LINE
  5
11261
330
18
100
AcDbEntity
  8
HIDDEN
100
AcDbLine
 10
1956.387569635025
 20
-1116.423941539344
 30
0.0
 11
1958.502503585959
 21
-1116.423941539344
 31
0.0
  0
LINE
  5
11263
330
18
100
AcDbEntity
  8
HIDDEN
100
AcDbLine
 10
1956.387569635025
 20
-1116.423941539344
 30
0.0
 11
1956.387569635025
 21
-1112.002441545594
 31
0.0
  0
LINE
  5
11264
330
18
100
AcDbEntity
  8
HIDDEN
100
AcDbLine
 10
1956.387569635025
 20
-1098.845441533093
 30
0.0
 11
1956.387569635025
 21
-1094.423941539343
 31
0.0
  0
LINE
  5
11265
330
18
100
AcDbEntity
  8
HIDDEN
100
AcDbLine
 10
1960.377569435025
 20
-1112.127129039343
 30
0.0
 11
1960.377569435025
 21
-1098.720754039343
 31
0.0
  0
LINE
  5
11266
330
18
100
AcDbEntity
  8
HIDDEN
100
AcDbLine
 10
1960.377569435025
 20
-1100.823941539343
 30
0.0
 11
1956.877569435025
 21
-1100.823941539343
 31
0.0
  0
ARC
  5
11268
330
18
100
AcDbEntity
  8
HIDDEN
100
AcDbCircle
 10
1971.679258527828
 20
-1105.423941539344
 30
0.0
 40
15.49999999999998
100
AcDbArc
 50
162.736043677185
 51
197.2639563228149
  0
LINE
  5
11269
330
18
100
AcDbEntity
  8
HIDDEN
100
AcDbLine
 10
1960.377569435025
 20
-1110.023941539344
 30
0.0
 11
1956.877569435025
 21
-1110.023941539344
 31
0.0
  0
LINE
  5
1126A
330
18
100
AcDbEntity
  8
DRAW2
100
AcDbLine
 10
1998.387599635025
 20
-1231.423991539344
 30
0.0
 11
1998.387599635025
 21
-1246.424001539343
 31
0.0
  0
ARC
  5
1126C
330
18
100
AcDbEntity
  8
DRAW2
100
AcDbCircle
 10
1989.526359635025
 20
-1265.424001539344
 30
0.0
 40
1.0
100
AcDbArc
 50
269.9999599999959
 51
351.4683700000066
  0
LINE
  5
1126D
330
18
100
AcDbEntity
  8
DRAW2
100
AcDbLine
 10
1993.387569635025
 20
-1246.423971539344
 30
0.0
 11
1990.515289635025
 21
-1265.572361539344
 31
0.0
  0
LINE
  5
1126E
330
18
100
AcDbEntity
  8
DRAW2
100
AcDbLine
 10
1985.887629635025
 20
-1211.423881539344
 30
0.0
 11
1983.887599635025
 21
-1209.423851539344
 31
0.0
  0
LINE
  5
1126F
330
18
100
AcDbEntity
  8
DRAW2
100
AcDbLine
 10
1985.887599635025
 20
-1211.424001539343
 30
0.0
 11
1985.887599635025
 21
-1231.423991539344
 31
0.0
  0
LINE
  5
11270
330
18
100
AcDbEntity
  8
DRAW2
100
AcDbLine
 10
2008.387569635025
 20
-1231.423991539344
 30
0.0
 11
2008.387569635025
 21
-1246.424001539343
 31
0.0
  0
CIRCLE
  5
11275
330
18
100
AcDbEntity
  8
DRAW2
100
AcDbCircle
 10
1975.720329635025
 20
-958.823171539344
 30
0.0
 40
11.0
  0
CIRCLE
  5
11276
330
18
100
AcDbEntity
  8
DRAW2
100
AcDbCircle
 10
1975.720329635025
 20
-958.823171539344
 30
0.0
 40
13.000001
  0
CIRCLE
  5
11277
330
18
100
AcDbEntity
  8
DRAW2
100
AcDbCircle
 10
1858.387569635025
 20
-825.4239982589318
 30
0.0
 40
13.5
  0
CIRCLE
  5
11278
330
18
100
AcDbEntity
  8
DRAW2
100
AcDbCircle
 10
1858.387569635025
 20
-825.4239982589318
 30
0.0
 40
12.500001
  0
CIRCLE
  5
1127B
330
18
100
AcDbEntity
  8
DRAW2
100
AcDbCircle
 10
1906.988429635025
 20
-890.091301539344
 30
0.0
 40
11.0
  0
CIRCLE
  5
1127C
330
18
100
AcDbEntity
  8
DRAW2
100
AcDbCircle
 10
1906.988429635025
 20
-890.091301539344
 30
0.0
 40
13.000001
  0
CIRCLE
  5
1127E
330
18
100
AcDbEntity
  8
DRAW2
100
AcDbCircle
 10
1890.207389635025
 20
-857.2438182589319
 30
0.0
 40
9.5
  0
LINE
  5
11280
330
18
100
AcDbEntity
  8
DRAW2
100
AcDbLine
 10
1904.67207071256
 20
-867.4239382589318
 30
0.0
 11
1906.387560067155
 21
-867.4239382589318
 31
0.0
  0
LINE
  5
11281
330
18
100
AcDbEntity
  8
DRAW2
100
AcDbLine
 10
1904.387839635025
 20
-743.4241215393439
 30
0.0
 11
1902.387839635025
 21
-741.424061539344
 31
0.0
  0
LINE
  5
11282
330
18
100
AcDbEntity
  8
DRAW2
100
AcDbLine
 10
1904.387539635025
 20
-743.424001539344
 30
0.0
 11
1878.387479635025
 21
-743.424001539344
 31
0.0
  0
LINE
  5
11283
330
18
100
AcDbEntity
  8
DRAW2
100
AcDbLine
 10
1884.024464415145
 20
-768.424001539344
 30
0.0
 11
1905.387569635025
 21
-768.424001539344
 31
0.0
  0
LINE
  5
11284
330
18
100
AcDbEntity
  8
DRAW2
100
AcDbLine
 10
1878.387719635025
 20
-743.424001539344
 30
0.0
 11
1878.387719635025
 21
-766.2104525115482
 31
0.0
  0
LINE
  5
11286
330
18
100
AcDbEntity
  8
DRAW2
100
AcDbLine
 10
1838.387749635025
 20
-743.424001539344
 30
0.0
 11
1838.387749635025
 21
-766.210341050754
 31
0.0
  0
CIRCLE
  5
11288
330
18
100
AcDbEntity
  8
DRAW2
100
AcDbCircle
 10
1890.207389635025
 20
-793.604238258932
 30
0.0
 40
9.5
  0
LINE
  5
1128A
330
18
100
AcDbEntity
  8
DRAW2
100
AcDbLine
 10
1902.387659635025
 20
-741.4240015393439
 30
0.0
 11
1880.387479635025
 21
-741.4240015393439
 31
0.0
  0
LINE
  5
1128B
330
18
100
AcDbEntity
  8
DRAW2
100
AcDbLine
 10
1880.387689635025
 20
-741.4241215393438
 30
0.0
 11
1878.387749635025
 21
-743.4240615393441
 31
0.0
  0
LINE
  5
1128C
330
18
100
AcDbEntity
  8
DRAW2
100
AcDbLine
 10
1904.387779635025
 20
-743.424001539344
 30
0.0
 11
1904.387779635025
 21
-768.424001539344
 31
0.0
  0
LINE
  5
1128D
330
18
100
AcDbEntity
  8
DRAW2
100
AcDbLine
 10
1905.387569635025
 20
-768.424001539344
 30
0.0
 11
1905.387569635025
 21
-783.4240015393439
 31
0.0
  0
LINE
  5
1128E
330
18
100
AcDbEntity
  8
DRAW2
100
AcDbLine
 10
1904.672019243447
 20
-783.4240015393439
 30
0.0
 11
1905.387569635025
 21
-783.4240015393439
 31
0.0
  0
VIEWPORT
  5
37
330
15
100
AcDbEntity
 67
     1
  8
0
100
AcDbViewport
 10
296.9950122070312
 20
209.9950000476836
 30
0.0
 40
632.1056339387388
 41
423.1939163498098
 68
     1
 69
     1
 12
296.9950122070312
 22
209.9950000476836
 13
0.0
 23
0.0
 14
10.0
 24
10.0
 15
10.0
 25
10.0
 16
0.0
 26
0.0
 36
1.0
 17
0.0
 27
0.0
 37
0.0
 42
50.0
 43
0.0
 44
0.0
 45
423.1939163498098
 50
0.0
 51
0.0
 72
   100
 90
    32768
  1

281
     0
 71
     1
 74
     0
110
0.0
120
0.0
130
0.0
111
1.0
121
0.0
131
0.0
112
0.0
122
1.0
132
0.0
 79
     0
146
0.0
  0
ENDSEC
  0
SECTION
  2
OBJECTS
  0
DICTIONARY
  5
C
330
0
100
AcDbDictionary
281
     1
  3
ACAD_GROUP
350
D
  3
ACAD_IMAGE_VARS
350
7A9
  3
ACAD_LAYOUT
350
1AD
  3
ACAD_MLINESTYLE
350
1B
  3
ACAD_PLOTSETTINGS
350
1AE
  3
ACAD_PLOTSTYLENAME
350
1AB
  0
DICTIONARY
  5
D
102
{ACAD_REACTORS
330
C
102
}
330
C
100
AcDbDictionary
281
     1
  3
*A1
350
1485
  0
RASTERVARIABLES
  5
7A9
102
{ACAD_REACTORS
330
C
102
}
330
C
100
AcDbRasterVariables
 90
        0
 70
     1
 71
     1
 72
     0
  0
DICTIONARY
  5
1AD
102
{ACAD_REACTORS
330
C
102
}
330
C
100
AcDbDictionary
281
     1
  3
Model
350
1AF
  3
ﾚｲｱｳﾄ1
350
1B0
  0
DICTIONARY
  5
1B
102
{ACAD_REACTORS
330
C
102
}
330
C
100
AcDbDictionary
281
     1
  3
STANDARD
350
1C
  0
DICTIONARY
  5
1AE
102
{ACAD_REACTORS
330
C
102
}
330
C
100
AcDbDictionary
281
     1
  3
AdobePDF_A1
350
E808
  3
AdobePDF_A2
350
112C0
  3
普通紙Ａ２からＡ３_CX7500_WinXP
350
112C1
  3
普通紙Ａ２からＡ４_CX7500_WinXP
350
112C2
  3
普通紙Ａ３_XL-5800_WinNT40
350
298B
  3
普通紙Ａ３からＡ４_XL-5800_WinNT40
350
298C
  0
ACDBDICTIONARYWDFLT
  5
1AB
102
{ACAD_REACTORS
330
C
102
}
330
C
100
AcDbDictionary
281
     1
  3
Normal
350
1AC
100
AcDbDictionaryWithDefault
340
1AC
  0
GROUP
  5
1485
102
{ACAD_REACTORS
330
D
102
}
330
D
100
AcDbGroup
300

 70
     1
 71
     1
  0
LAYOUT
  5
1AF
102
{ACAD_REACTORS
330
1AD
102
}
330
1AD
100
AcDbPlotSettings
  1

  2
FUJITSU XL-5800
  4
A4
  6

 40
5.873749732971191
 41
5.704405784606933
 42
5.873748779296875
 43
5.873748779296875
 44
210.0579986572265
 45
296.9259948730469
 46
-934.06
 47
-482.3299999999999
 48
0.0
 49
0.0
140
0.0
141
0.0
142
1.0
143
1.0
 70
 11956
 72
     1
 73
     0
 74
     0
  7
LineScale_10.ctb
 75
    16
147
1.0
148
1033.210332103321
149
625.0
100
AcDbLayout
  1
Model
 70
     1
 71
     0
 10
0.0
 20
0.0
 11
12.0
 21
9.0
 12
0.0
 22
0.0
 32
0.0
 14
0.0
 24
0.0
 34
0.0
 15
0.0
 25
0.0
 35
0.0
146
0.0
 13
0.0
 23
0.0
 33
0.0
 16
1.0
 26
0.0
 36
0.0
 17
0.0
 27
1.0
 37
0.0
 76
     0
330
18
  0
LAYOUT
  5
1B0
102
{ACAD_REACTORS
330
1AD
102
}
330
1AD
100
AcDbPlotSettings
  1
AdobePDF_A2
  2
Adobe PDF
  4
User66
  6
A1
 40
3.174999952316284
 41
3.174999952316284
 42
3.17498779296875
 43
3.17498779296875
 44
420.0
 45
594.0
 46
-3.169999999999999
 47
-3.169999999999999
 48
0.0
 49
0.0
140
594.0
141
420.0
142
1.0
143
1.0
 70
   692
 72
     1
 73
     1
 74
     4
  7
LineScale_10.ctb
 75
    16
147
1.0
148
0.0
149
0.0
100
AcDbLayout
  1
ﾚｲｱｳﾄ1
 70
     1
 71
     1
 10
-0.0049877929687501
 20
-0.0049999523162843
 11
593.9950122070312
 21
419.9950000476837
 12
0.0
 22
0.0
 32
0.0
 14
1.000000000000000E+20
 24
1.000000000000000E+20
 34
1.000000000000000E+20
 15
-1.000000000000000E+20
 25
-1.000000000000000E+20
 35
-1.000000000000000E+20
146
0.0
 13
0.0
 23
0.0
 33
0.0
 16
1.0
 26
0.0
 36
0.0
 17
0.0
 27
1.0
 37
0.0
 76
     0
330
15
331
37
  0
MLINESTYLE
  5
1C
102
{ACAD_REACTORS
330
1B
102
}
330
1B
100
AcDbMlineStyle
  2
STANDARD
 70
     0
  3

 62
   256
 51
90.0
 52
90.0
 71
     2
 49
0.5
 62
   256
  6
BYLAYER
 49
-0.5
 62
   256
  6
BYLAYER
  0
PLOTSETTINGS
  5
E808
102
{ACAD_REACTORS
330
1AE
102
}
330
1AE
100
AcDbPlotSettings
  1
AdobePDF_A1
  2
Adobe PDF
  4
User120
  6
A1
 40
3.174999952316284
 41
3.174999952316284
 42
3.17498779296875
 43
3.17498779296875
 44
594.0
 45
841.0
 46
-3.169999999999999
 47
-3.169999999999999
 48
0.0
 49
0.0
140
841.0
141
594.0
142
1.0
143
1.0
 70
   692
 72
     1
 73
     1
 74
     4
  7
LineScale_10.ctb
 75
    16
147
1.0
148
0.0
149
0.0
  0
PLOTSETTINGS
  5
112C0
102
{ACAD_REACTORS
330
1AE
102
}
330
1AE
100
AcDbPlotSettings
  1
AdobePDF_A2
  2
Adobe PDF
  4
User66
  6
A1
 40
3.174999952316284
 41
3.174999952316284
 42
3.17498779296875
 43
3.17498779296875
 44
420.0
 45
594.0
 46
-3.169999999999999
 47
-3.169999999999999
 48
0.0
 49
0.0
140
594.0
141
420.0
142
1.0
143
1.0
 70
   692
 72
     1
 73
     1
 74
     4
  7
LineScale_10.ctb
 75
    16
147
1.0
148
0.0
149
0.0
  0
PLOTSETTINGS
  5
112C1
102
{ACAD_REACTORS
330
1AE
102
}
330
1AE
100
AcDbPlotSettings
  1
普通紙Ａ２からＡ３_CX7500_WinXP
  2
RICOH IPSiO CX7500 RPCS
  4
A3
  6
A1
 40
5.873749732971191
 41
5.873747825622558
 42
5.873748779296875
 43
5.873748779296875
 44
296.9259948730469
 45
419.9466552734374
 46
-3.0
 47
-8.019999999999999
 48
0.0
 49
0.0
140
594.0
141
420.0
142
0.7071066999999999
143
1.0
 70
   672
 72
     1
 73
     1
 74
     4
  7
LineScale_07.ctb
 75
     0
147
0.7071066999999999
148
0.0
149
0.0
  0
PLOTSETTINGS
  5
112C2
102
{ACAD_REACTORS
330
1AE
102
}
330
1AE
100
AcDbPlotSettings
  1
普通紙Ａ２からＡ４_CX7500_WinXP
  2
RICOH IPSiO CX7500 RPCS
  4
A4
  6
A1
 40
5.873749732971191
 41
5.873747825622558
 42
5.873748779296875
 43
5.873748779296875
 44
209.9733276367187
 45
296.9259948730469
 46
-6.5
 47
-7.2
 48
0.0
 49
0.0
140
594.0
141
420.0
142
1.0
143
2.0
 70
   688
 72
     1
 73
     1
 74
     4
  7
LineScale_05.ctb
 75
    17
147
0.5
148
0.0
149
0.0
  0
PLOTSETTINGS
  5
298B
102
{ACAD_REACTORS
330
1AE
102
}
330
1AE
100
AcDbPlotSettings
  1
普通紙Ａ３_XL-5800_WinNT40
  2
FUJITSU XL-5800
  4
A3
  6
A1
 40
5.873749732971191
 41
5.873747825622558
 42
5.70440673828125
 43
5.873748779296875
 44
296.9259948730469
 45
420.1159973144531
 46
-5.009999999999999
 47
-6.7
 48
0.0
 49
0.0
140
420.0
141
297.0
142
1.0
143
1.0
 70
   688
 72
     1
 73
     1
 74
     4
  7
LineScale_10.ctb
 75
    16
147
1.0
148
0.0
149
0.0
  0
PLOTSETTINGS
  5
298C
102
{ACAD_REACTORS
330
1AE
102
}
330
1AE
100
AcDbPlotSettings
  1
普通紙Ａ３からＡ４_XL-5800_WinNT40
  2
FUJITSU XL-5800
  4
A4
  6
A1
 40
5.873749732971191
 41
5.704405784606933
 42
5.873748779296875
 43
5.873748779296875
 44
210.0579986572265
 45
296.9259948730469
 46
-6.4
 47
-5.459999999999999
 48
0.0
 49
0.0
140
420.0
141
297.0
142
0.7071066999999999
143
1.0
 70
   672
 72
     1
 73
     1
 74
     4
  7
LineScale_07.ctb
 75
     0
147
0.7071066999999999
148
0.0
149
0.0
  0
ACDBPLACEHOLDER
  5
1AC
102
{ACAD_REACTORS
330
1AB
102
}
330
1AB
  0
ENDSEC
  0
EOF
