  0
SECTION
  2
HEADER
  9
$ACADVER
  1
AC1015
  9
$ACADMAINTVER
 70
     6
  9
$DWGCODEPAGE
  3
ANSI_932
  9
$INSBASE
 10
0.0
 20
0.0
 30
0.0
  9
$EXTMIN
 10
1138.492893329343
 20
-39.55892989859103
 30
-0.0000000100021362
  9
$EXTMAX
 10
2167.417896134166
 20
962.6533289243107
 30
0.0000000100021363
  9
$LIMMIN
 10
-841.0
 20
-594.0
  9
$LIMMAX
 10
841.0
 20
594.0
  9
$ORTHOMODE
 70
     0
  9
$REGENMODE
 70
     1
  9
$FILLMODE
 70
     1
  9
$QTEXTMODE
 70
     0
  9
$MIRRTEXT
 70
     0
  9
$LTSCALE
 40
7.0
  9
$ATTMODE
 70
     1
  9
$TEXTSIZE
 40
3.2
  9
$TRACEWID
 40
1.0
  9
$TEXTSTYLE
  7
DIMFONT
  9
$CLAYER
  8
DRAW2
  9
$CELTYPE
  6
BYLAYER
  9
$CECOLOR
 62
   256
  9
$CELTSCALE
 40
1.0
  9
$DISPSILH
 70
     0
  9
$DIMSCALE
 40
4.0
  9
$DIMASZ
 40
3.0
  9
$DIMEXO
 40
0.0
  9
$DIMDLI
 40
10.0
  9
$DIMRND
 40
0.0
  9
$DIMDLE
 40
0.0
  9
$DIMEXE
 40
1.0
  9
$DIMTP
 40
0.0
  9
$DIMTM
 40
0.0
  9
$DIMTXT
 40
3.2
  9
$DIMCEN
 40
0.0
  9
$DIMTSZ
 40
0.0
  9
$DIMTOL
 70
     0
  9
$DIMLIM
 70
     0
  9
$DIMTIH
 70
     0
  9
$DIMTOH
 70
     0
  9
$DIMSE1
 70
     0
  9
$DIMSE2
 70
     0
  9
$DIMTAD
 70
     3
  9
$DIMZIN
 70
     8
  9
$DIMBLK
  1

  9
$DIMASO
 70
     1
  9
$DIMSHO
 70
     1
  9
$DIMPOST
  1

  9
$DIMAPOST
  1

  9
$DIMALT
 70
     0
  9
$DIMALTD
 70
     2
  9
$DIMALTF
 40
25.4
  9
$DIMLFAC
 40
1.0
  9
$DIMTOFL
 70
     1
  9
$DIMTVP
 40
0.0
  9
$DIMTIX
 70
     0
  9
$DIMSOXD
 70
     0
  9
$DIMSAH
 70
     1
  9
$DIMBLK1
  1
OPEN
  9
$DIMBLK2
  1
OPEN
  9
$DIMSTYLE
  2
1_4
  9
$DIMCLRD
 70
     0
  9
$DIMCLRE
 70
     0
  9
$DIMCLRT
 70
     0
  9
$DIMTFAC
 40
0.75
  9
$DIMGAP
 40
1.0
  9
$DIMJUST
 70
     0
  9
$DIMSD1
 70
     0
  9
$DIMSD2
 70
     0
  9
$DIMTOLJ
 70
     1
  9
$DIMTZIN
 70
     8
  9
$DIMALTZ
 70
     0
  9
$DIMALTTZ
 70
     0
  9
$DIMUPT
 70
     0
  9
$DIMDEC
 70
     4
  9
$DIMTDEC
 70
     4
  9
$DIMALTU
 70
     2
  9
$DIMALTTD
 70
     2
  9
$DIMTXSTY
  7
DIMFONT
  9
$DIMAUNIT
 70
     0
  9
$DIMADEC
 70
     2
  9
$DIMALTRND
 40
0.0
  9
$DIMAZIN
 70
     2
  9
$DIMDSEP
 70
    46
  9
$DIMATFIT
 70
     1
  9
$DIMFRAC
 70
     0
  9
$DIMLDRBLK
  1
OPEN
  9
$DIMLUNIT
 70
     2
  9
$DIMLWD
 70
    -2
  9
$DIMLWE
 70
    -2
  9
$DIMTMOVE
 70
     0
  9
$LUNITS
 70
     2
  9
$LUPREC
 70
     4
  9
$SKETCHINC
 40
1.0
  9
$FILLETRAD
 40
0.0
  9
$AUNITS
 70
     0
  9
$AUPREC
 70
     4
  9
$MENU
  1
acad
  9
$ELEVATION
 40
0.0
  9
$PELEVATION
 40
0.0
  9
$THICKNESS
 40
0.0
  9
$LIMCHECK
 70
     0
  9
$CHAMFERA
 40
0.0
  9
$CHAMFERB
 40
0.0
  9
$CHAMFERC
 40
0.0
  9
$CHAMFERD
 40
0.0
  9
$SKPOLY
 70
     0
  9
$TDCREATE
 40
2452311.864408912
  9
$TDUCREATE
 40
2452311.489408912
  9
$TDUPDATE
 40
2454973.408376551
  9
$TDUUPDATE
 40
2454973.033376551
  9
$TDINDWG
 40
1.1508200926
  9
$TDUSRTIMER
 40
1.1508199769
  9
$USRTIMER
 70
     1
  9
$ANGBASE
 50
0.0
  9
$ANGDIR
 70
     0
  9
$PDMODE
 70
    35
  9
$PDSIZE
 40
0.5
  9
$PLINEWID
 40
0.0
  9
$SPLFRAME
 70
     0
  9
$SPLINETYPE
 70
     6
  9
$SPLINESEGS
 70
     8
  9
$HANDSEED
  5
11A2B
  9
$SURFTAB1
 70
     6
  9
$SURFTAB2
 70
     6
  9
$SURFTYPE
 70
     6
  9
$SURFU
 70
     6
  9
$SURFV
 70
     6
  9
$UCSBASE
  2

  9
$UCSNAME
  2

  9
$UCSORG
 10
0.0
 20
0.0
 30
0.0
  9
$UCSXDIR
 10
1.0
 20
0.0
 30
0.0
  9
$UCSYDIR
 10
0.0
 20
1.0
 30
0.0
  9
$UCSORTHOREF
  2

  9
$UCSORTHOVIEW
 70
     0
  9
$UCSORGTOP
 10
0.0
 20
0.0
 30
0.0
  9
$UCSORGBOTTOM
 10
0.0
 20
0.0
 30
0.0
  9
$UCSORGLEFT
 10
0.0
 20
0.0
 30
0.0
  9
$UCSORGRIGHT
 10
0.0
 20
0.0
 30
0.0
  9
$UCSORGFRONT
 10
0.0
 20
0.0
 30
0.0
  9
$UCSORGBACK
 10
0.0
 20
0.0
 30
0.0
  9
$PUCSBASE
  2

  9
$PUCSNAME
  2

  9
$PUCSORG
 10
0.0
 20
0.0
 30
0.0
  9
$PUCSXDIR
 10
1.0
 20
0.0
 30
0.0
  9
$PUCSYDIR
 10
0.0
 20
1.0
 30
0.0
  9
$PUCSORTHOREF
  2

  9
$PUCSORTHOVIEW
 70
     0
  9
$PUCSORGTOP
 10
0.0
 20
0.0
 30
0.0
  9
$PUCSORGBOTTOM
 10
0.0
 20
0.0
 30
0.0
  9
$PUCSORGLEFT
 10
0.0
 20
0.0
 30
0.0
  9
$PUCSORGRIGHT
 10
0.0
 20
0.0
 30
0.0
  9
$PUCSORGFRONT
 10
0.0
 20
0.0
 30
0.0
  9
$PUCSORGBACK
 10
0.0
 20
0.0
 30
0.0
  9
$USERI1
 70
     0
  9
$USERI2
 70
     0
  9
$USERI3
 70
     0
  9
$USERI4
 70
     0
  9
$USERI5
 70
     0
  9
$USERR1
 40
0.0
  9
$USERR2
 40
0.0
  9
$USERR3
 40
0.0
  9
$USERR4
 40
0.0
  9
$USERR5
 40
0.0
  9
$WORLDVIEW
 70
     1
  9
$SHADEDGE
 70
     3
  9
$SHADEDIF
 70
    70
  9
$TILEMODE
 70
     1
  9
$MAXACTVP
 70
    48
  9
$PINSBASE
 10
0.0
 20
0.0
 30
0.0
  9
$PLIMCHECK
 70
     0
  9
$PEXTMIN
 10
1.000000000000000E+20
 20
1.000000000000000E+20
 30
1.000000000000000E+20
  9
$PEXTMAX
 10
-1.000000000000000E+20
 20
-1.000000000000000E+20
 30
-1.000000000000000E+20
  9
$PLIMMIN
 10
-0.0049877929687501
 20
-0.0049999523162843
  9
$PLIMMAX
 10
593.9950122070312
 20
419.9950000476837
  9
$UNITMODE
 70
     0
  9
$VISRETAIN
 70
     0
  9
$PLINEGEN
 70
     1
  9
$PSLTSCALE
 70
     1
  9
$TREEDEPTH
 70
  3020
  9
$CMLSTYLE
  2
STANDARD
  9
$CMLJUST
 70
     0
  9
$CMLSCALE
 40
20.0
  9
$PROXYGRAPHICS
 70
     1
  9
$MEASUREMENT
 70
     1
  9
$CELWEIGHT
370
    -1
  9
$ENDCAPS
280
     0
  9
$JOINSTYLE
280
     0
  9
$LWDISPLAY
290
     0
  9
$INSUNITS
 70
     0
  9
$HYPERLINKBASE
  1

  9
$STYLESHEET
  1

  9
$XEDIT
290
     1
  9
$CEPSNTYPE
380
     0
  9
$PSTYLEMODE
290
     1
  9
$FINGERPRINTGUID
  2
{7FD28A7C-F8BA-11D3-9BCC-00A0C977751D}
  9
$VERSIONGUID
  2
{5CDC182D-5F2B-4C7A-8193-348A6EA60F4D}
  9
$EXTNAMES
290
     1
  9
$PSVPSCALE
 40
0.0
  9
$OLESTARTUP
290
     0
  0
ENDSEC
  0
SECTION
  2
CLASSES
  0
CLASS
  1
LWPOLYLINE
  2
AcDbPolyline
  3
AutoCAD 2000
 90
    32768
280
     0
281
     1
  0
CLASS
  1
ACDBDICTIONARYWDFLT
  2
AcDbDictionaryWithDefault
  3
AutoCAD 2000
 90
        0
280
     0
281
     0
  0
CLASS
  1
ACDBPLACEHOLDER
  2
AcDbPlaceHolder
  3
AutoCAD 2000
 90
        0
280
     0
281
     0
  0
CLASS
  1
LAYOUT
  2
AcDbLayout
  3
AutoCAD 2000
 90
        0
280
     0
281
     0
  0
CLASS
  1
PLOTSETTINGS
  2
AcDbPlotSettings
  3
AutoCAD 2000
 90
        0
280
     0
281
     0
  0
CLASS
  1
RASTERVARIABLES
  2
AcDbRasterVariables
  3
ISM
 90
        0
280
     0
281
     0
  0
ENDSEC
  0
SECTION
  2
TABLES
  0
TABLE
  2
VPORT
  5
8
330
0
100
AcDbSymbolTable
 70
     3
  0
VPORT
  5
11A2A
330
8
100
AcDbSymbolTableRecord
100
AcDbViewportTableRecord
  2
*Active
 70
     0
 10
0.0
 20
0.0
 11
1.0
 21
1.0
 12
1652.955394731755
 22
461.5471995128598
 13
0.0
 23
0.0
 14
5.0
 24
5.0
 15
10.0
 25
10.0
 16
0.0
 26
0.0
 36
1.0
 17
0.0
 27
0.0
 37
0.0
 40
1009.833644821555
 41
1.493654822335025
 42
50.0
 43
0.0
 44
0.0
 50
0.0
 51
0.0
 71
     0
 72
   100
 73
     1
 74
     0
 75
     0
 76
     0
 77
     0
 78
     1
281
     0
 65
     1
110
0.0
120
0.0
130
0.0
111
1.0
121
0.0
131
0.0
112
0.0
122
1.0
132
0.0
 79
     0
146
0.0
  0
ENDTAB
  0
TABLE
  2
LTYPE
  5
5
330
0
100
AcDbSymbolTable
 70
     7
  0
LTYPE
  5
12
330
5
100
AcDbSymbolTableRecord
100
AcDbLinetypeTableRecord
  2
BYBLOCK
 70
     0
  3

 72
    65
 73
     0
 40
0.0
  0
LTYPE
  5
13
330
5
100
AcDbSymbolTableRecord
100
AcDbLinetypeTableRecord
  2
BYLAYER
 70
     0
  3

 72
    65
 73
     0
 40
0.0
  0
LTYPE
  5
14
330
5
100
AcDbSymbolTableRecord
100
AcDbLinetypeTableRecord
  2
CONTINUOUS
 70
     0
  3
Solid line
 72
    65
 73
     0
 40
0.0
  0
LTYPE
  5
23
330
5
100
AcDbSymbolTableRecord
100
AcDbLinetypeTableRecord
  2
HIDDEN
 70
     0
  3
__ __ __ __ __ __ __ __ __ __ __ __ __ __ __ __
 72
    65
 73
     2
 40
0.375
 49
0.25
 74
     0
 49
-0.125
 74
     0
  0
ENDTAB
  0
TABLE
  2
LAYER
  5
2
330
0
100
AcDbSymbolTable
 70
    18
  0
LAYER
  5
E
330
2
100
AcDbSymbolTableRecord
100
AcDbLayerTableRecord
  2
0
 70
     0
 62
     7
  6
CONTINUOUS
370
    -3
390
1AC
  0
LAYER
  5
29
330
2
100
AcDbSymbolTableRecord
100
AcDbLayerTableRecord
  2
DRAW2
 70
     0
 62
     4
  6
CONTINUOUS
370
    -3
390
1AC
  0
LAYER
  5
2A
330
2
100
AcDbSymbolTableRecord
100
AcDbLayerTableRecord
  2
DRAW3
 70
     0
 62
     1
  6
CONTINUOUS
370
    -3
390
1AC
  0
LAYER
  5
2B
330
2
100
AcDbSymbolTableRecord
100
AcDbLayerTableRecord
  2
DRAW4
 70
     0
 62
     2
  6
CONTINUOUS
370
    -3
390
1AC
  0
LAYER
  5
2C
330
2
100
AcDbSymbolTableRecord
100
AcDbLayerTableRecord
  2
HIDDEN
 70
     0
 62
     7
  6
HIDDEN
370
    -3
390
1AC
  0
LAYER
  5
133
330
2
100
AcDbSymbolTableRecord
100
AcDbLayerTableRecord
  2
DEFPOINTS
 70
     0
 62
     7
  6
CONTINUOUS
290
     0
370
    -3
390
1AC
  0
ENDTAB
  0
TABLE
  2
STYLE
  5
3
330
0
100
AcDbSymbolTable
 70
     4
  0
STYLE
  5
F
330
3
100
AcDbSymbolTableRecord
100
AcDbTextStyleTableRecord
  2
STANDARD
 70
     0
 40
0.0
 41
1.0
 50
0.0
 71
     0
 42
2.5
  3
txt
  4

  0
STYLE
  5
30
330
3
100
AcDbSymbolTableRecord
100
AcDbTextStyleTableRecord
  2
DIMFONT
 70
     0
 40
0.0
 41
1.0
 50
10.0
 71
     0
 42
3.2
  3
romans.shx
  4
extfont.shx
  0
ENDTAB
  0
TABLE
  2
VIEW
  5
6
330
0
100
AcDbSymbolTable
 70
     5
  0
VIEW
  5
C27
330
6
100
AcDbSymbolTableRecord
100
AcDbViewTableRecord
  2
View1
 70
     0
 40
1250.0
 10
0.0
 20
0.0
 41
2066.420664206642
 11
0.0
 21
0.0
 31
1.0
 12
0.0
 22
0.0
 32
0.0
 42
50.0
 43
0.0
 44
0.0
 50
0.0
 71
     0
281
     0
 72
     1
110
0.0
120
0.0
130
0.0
111
1.0
121
0.0
131
0.0
112
0.0
122
1.0
132
0.0
 79
     0
146
0.0
  0
VIEW
  5
C2A
330
6
100
AcDbSymbolTableRecord
100
AcDbViewTableRecord
  2
A4
 70
     1
 40
314.2148930664062
 10
103.8222427368164
 20
144.5197510242462
 41
519.4401184271217
 11
0.0
 21
0.0
 31
1.0
 12
0.0
 22
0.0
 32
0.0
 42
50.0
 43
0.0
 44
0.0
 50
0.0
 71
     0
281
     0
 72
     1
110
0.0
120
0.0
130
0.0
111
1.0
121
0.0
131
0.0
112
0.0
122
1.0
132
0.0
 79
     0
146
0.0
  0
VIEW
  5
C2B
330
6
100
AcDbSymbolTableRecord
100
AcDbViewTableRecord
  2
A3
 70
     1
 40
314.2148930664062
 10
205.8194916248321
 20
151.3197510242462
 41
519.4401184271217
 11
0.0
 21
0.0
 31
1.0
 12
0.0
 22
0.0
 32
0.0
 42
50.0
 43
0.0
 44
0.0
 50
0.0
 71
     0
281
     0
 72
     1
110
0.0
120
0.0
130
0.0
111
1.0
121
0.0
131
0.0
112
0.0
122
1.0
132
0.0
 79
     0
146
0.0
  0
VIEW
  5
C2C
330
6
100
AcDbSymbolTableRecord
100
AcDbViewTableRecord
  2
A2
 70
     1
 40
444.3483441772461
 10
293.3145020008087
 20
213.3194916248321
 41
734.5684804110931
 11
0.0
 21
0.0
 31
1.0
 12
0.0
 22
0.0
 32
0.0
 42
50.0
 43
0.0
 44
0.0
 50
0.0
 71
     0
281
     0
 72
     1
110
0.0
120
0.0
130
0.0
111
1.0
121
0.0
131
0.0
112
0.0
122
1.0
132
0.0
 79
     0
146
0.0
  0
VIEW
  5
C2D
330
6
100
AcDbSymbolTableRecord
100
AcDbViewTableRecord
  2
A1
 70
     1
 40
628.2954051513671
 10
422.5084997558593
 20
293.4384954071044
 41
1038.658086744695
 11
0.0
 21
0.0
 31
1.0
 12
0.0
 22
0.0
 32
0.0
 42
50.0
 43
0.0
 44
0.0
 50
0.0
 71
     0
281
     0
 72
     1
110
0.0
120
0.0
130
0.0
111
1.0
121
0.0
131
0.0
112
0.0
122
1.0
132
0.0
 79
     0
146
0.0
  0
ENDTAB
  0
TABLE
  2
UCS
  5
7
330
0
100
AcDbSymbolTable
 70
     0
  0
ENDTAB
  0
TABLE
  2
APPID
  5
9
330
0
100
AcDbSymbolTable
 70
     1
  0
APPID
  5
10
330
9
100
AcDbSymbolTableRecord
100
AcDbRegAppTableRecord
  2
ACAD
 70
     0
  0
ENDTAB
  0
TABLE
  2
DIMSTYLE
  5
A
330
0
100
AcDbSymbolTable
 70
    12
100
AcDbDimStyleTable
 71
     1
340
4E
  0
DIMSTYLE
105
4E
102
{ACAD_REACTORS
330
5F4F
330
5C02
330
5B4A
330
5B49
330
119C0
330
10EAF
330
E6EF
330
AAA6
330
5B4B
330
5AB7
330
5AB6
330
11827
330
E720
330
6F32
330
6F1C
330
5BB6
330
AE9C
330
601B
102
}
330
A
100
AcDbSymbolTableRecord
100
AcDbDimStyleTableRecord
  2
1_4
 70
     0
 40
4.0
 41
3.0
 42
0.0
 43
10.0
 44
1.0
 73
     0
 74
     0
 77
     3
 78
     8
 79
     2
140
3.2
141
0.0
146
0.75
147
1.0
172
     1
173
     1
179
     2
284
     8
289
     1
340
30
341
125
343
125
344
125
  0
DIMSTYLE
105
26A3
330
A
100
AcDbSymbolTableRecord
100
AcDbDimStyleTableRecord
  2
STANDARD
 70
     0
340
F
  0
ENDTAB
  0
TABLE
  2
BLOCK_RECORD
  5
1
330
0
100
AcDbSymbolTable
 70
    38
  0
BLOCK_RECORD
  5
18
330
1
100
AcDbSymbolTableRecord
100
AcDbBlockTableRecord
  2
*MODEL_SPACE
340
1AF
  0
BLOCK_RECORD
  5
15
330
1
100
AcDbSymbolTableRecord
100
AcDbBlockTableRecord
  2
*PAPER_SPACE
340
1B0
  0
BLOCK_RECORD
  5
125
330
1
100
AcDbSymbolTableRecord
100
AcDbBlockTableRecord
  2
_OPEN
340
0
102
{BLKREFS
331
11849
331
1184A
331
11852
331
11853
331
11891
331
11892
331
1189A
331
1189B
331
118AC
331
118AD
331
118C7
331
118C8
331
11906
331
11907
331
1190F
331
11910
331
11918
331
11919
331
11970
331
11971
331
1198B
331
1198C
331
11994
331
11995
331
119A6
331
119A7
331
119AF
331
119B0
331
119D9
331
119DA
331
119EB
331
119EC
331
119FD
331
119FE
331
11A0E
331
11A0F
102
}
  0
ENDTAB
  0
ENDSEC
  0
SECTION
  2
BLOCKS
  0
BLOCK
  5
19
330
18
100
AcDbEntity
  8
0
100
AcDbBlockBegin
  2
*MODEL_SPACE
 70
     0
 10
0.0
 20
0.0
 30
0.0
  3
*MODEL_SPACE
  1

  0
ENDBLK
  5
1A
330
18
100
AcDbEntity
  8
0
100
AcDbBlockEnd
  0
BLOCK
  5
16
330
15
100
AcDbEntity
 67
     1
  8
0
100
AcDbBlockBegin
  2
*PAPER_SPACE
 70
     0
 10
0.0
 20
0.0
 30
0.0
  3
*PAPER_SPACE
  1

  0
ENDBLK
  5
17
330
15
100
AcDbEntity
 67
     1
  8
0
100
AcDbBlockEnd
  0
BLOCK
  5
126
330
125
100
AcDbEntity
  8
0
100
AcDbBlockBegin
  2
_OPEN
 70
     0
 10
0.0
 20
0.0
 30
0.0
  3
_OPEN
  1

  0
LINE
  5
127
330
125
100
AcDbEntity
  8
0
  6
ByBlock
 62
     0
100
AcDbLine
 10
-1.0
 20
0.1666666666666666
 30
0.0
 11
0.0
 21
0.0
 31
0.0
  0
LINE
  5
128
330
125
100
AcDbEntity
  8
0
  6
ByBlock
 62
     0
100
AcDbLine
 10
0.0
 20
0.0
 30
0.0
 11
-1.0
 21
-0.1666666666666666
 31
0.0
  0
LINE
  5
129
330
125
100
AcDbEntity
  8
0
  6
ByBlock
 62
     0
100
AcDbLine
 10
0.0
 20
0.0
 30
0.0
 11
-1.0
 21
0.0
 31
0.0
  0
ENDBLK
  5
12A
330
125
100
AcDbEntity
  8
0
100
AcDbBlockEnd
  0
ENDSEC
  0
SECTION
  2
ENTITIES
  0
TEXT
  5
2783
330
18
100
AcDbEntity
  8
0
100
AcDbText
 10
289.9791188454981
 20
596.53434424429
 30
0.0
 40
3.2
  1

 51
10.0
  7
DIMFONT
100
AcDbText
  0
TEXT
  5
2791
330
18
100
AcDbEntity
  8
0
100
AcDbText
 10
399.046620988657
 20
559.3598774521149
 30
0.0
 40
3.2
  1

 51
10.0
  7
DIMFONT
100
AcDbText
  0
ARC
  5
112DC
330
18
100
AcDbEntity
  8
DRAW2
100
AcDbCircle
 10
1724.465024921829
 20
341.7815699975387
 30
0.0
 40
26.25
100
AcDbArc
 50
90.0
 51
180.0
  0
ARC
  5
112DD
330
18
100
AcDbEntity
  8
DRAW2
100
AcDbCircle
 10
1724.465024921829
 20
341.7815699975387
 30
0.0
 40
25.0
100
AcDbArc
 50
90.0
 51
180.0
  0
ARC
  5
112DF
330
18
100
AcDbEntity
  8
DRAW2
100
AcDbCircle
 10
1725.465024921827
 20
339.7815699975401
 30
0.0
 40
26.0
100
AcDbArc
 50
90.0
 51
180.0
  0
ARC
  5
112E0
330
18
100
AcDbEntity
  8
DRAW2
100
AcDbCircle
 10
1725.465024921827
 20
339.7815699975401
 30
0.0
 40
25.0
100
AcDbArc
 50
90.0
 51
180.0
  0
LINE
  5
112E2
330
18
100
AcDbEntity
  8
DRAW2
100
AcDbLine
 10
1701.590024921825
 20
368.0315699975392
 30
0.0
 11
1822.837329856416
 21
368.0315699975372
 31
0.0
  0
LINE
  5
112E5
330
18
100
AcDbEntity
  8
DRAW2
100
AcDbLine
 10
1701.590024921825
 20
366.7815699975387
 30
0.0
 11
1716.461119625039
 21
366.7815699975392
 31
0.0
  0
LINE
  5
112E6
330
18
100
AcDbEntity
  8
DRAW2
100
AcDbLine
 10
1708.465024921824
 20
365.7815699975383
 30
0.0
 11
1713.83193976276
 21
365.7815699975387
 31
0.0
  0
LINE
  5
112E7
330
18
100
AcDbEntity
  8
DRAW2
100
AcDbLine
 10
1504.673130721233
 20
364.445305963411
 30
0.0
 11
1504.673130721233
 21
84.4453059634111
 31
0.0
  0
LINE
  5
112E8
330
18
100
AcDbEntity
  8
DRAW2
100
AcDbLine
 10
1520.673130721233
 20
362.445305963411
 30
0.0
 11
1520.673130721233
 21
86.44524596341103
 31
0.0
  0
LINE
  5
112E9
330
18
100
AcDbEntity
  8
DRAW2
100
AcDbLine
 10
1520.673130721233
 20
362.445305963411
 30
0.0
 11
1520.673130721233
 21
86.44524596341103
 31
0.0
  0
LINE
  5
112EA
330
18
100
AcDbEntity
  8
DRAW2
100
AcDbLine
 10
1416.673060721232
 20
364.445305963411
 30
0.0
 11
1416.673060721232
 21
84.4453059634111
 31
0.0
  0
LINE
  5
112EB
330
18
100
AcDbEntity
  8
DRAW2
100
AcDbLine
 10
1414.673110721233
 20
362.4453059634106
 30
0.0
 11
1414.673110721233
 21
86.44530596341065
 31
0.0
  0
LINE
  5
112EC
330
18
100
AcDbEntity
  8
DRAW2
100
AcDbLine
 10
1272.673010721232
 20
364.445305963411
 30
0.0
 11
1272.673010721232
 21
84.4453059634111
 31
0.0
  0
LINE
  5
112ED
330
18
100
AcDbEntity
  8
DRAW2
100
AcDbLine
 10
1274.673110721233
 20
86.44530596341065
 30
0.0
 11
1274.673110721233
 21
362.4453059634106
 31
0.0
  0
LINE
  5
112EE
330
18
100
AcDbEntity
  8
DRAW2
100
AcDbLine
 10
1184.673010721232
 20
364.445305963411
 30
0.0
 11
1184.673010721232
 21
84.4453059634111
 31
0.0
  0
LINE
  5
112F2
330
18
100
AcDbEntity
  8
DRAW2
100
AcDbLine
 10
1168.673010721232
 20
362.445305963411
 30
0.0
 11
1168.673010721232
 21
86.44524596341103
 31
0.0
  0
ELLIPSE
  5
112F3
330
18
100
AcDbEntity
  8
DRAW2
100
AcDbEllipse
 10
1362.673095396142
 20
129.3129540493383
 30
0.0
 11
-4.864002410451128
 21
0.0000051446181327
 31
0.0
210
0.0
220
0.0
230
1.0
 40
0.7863728371571654
 41
3.141593998615605
 42
6.283186652206899
  0
ELLIPSE
  5
112F4
330
18
100
AcDbEntity
  8
DRAW2
100
AcDbEllipse
 10
1362.673093335911
 20
127.3650980143326
 30
0.0
 11
-4.958687499996767
 21
0.0000052447652379
 31
0.0
210
0.0
220
0.0
230
1.0
 40
0.7713572140709201
 41
0.0
 42
6.283185307179586
  0
ELLIPSE
  5
112F5
330
18
100
AcDbEntity
  8
DRAW2
100
AcDbEllipse
 10
1326.67310301082
 20
129.3129540493383
 30
0.0
 11
-4.864002410451128
 21
0.0000051446181327
 31
0.0
210
0.0
220
0.0
230
1.0
 40
0.7863728371571654
 41
3.141593998615605
 42
6.283186652206899
  0
ELLIPSE
  5
112F6
330
18
100
AcDbEntity
  8
DRAW2
100
AcDbEllipse
 10
1326.673100950588
 20
127.3650980143326
 30
0.0
 11
-4.958687499996767
 21
0.0000052447652379
 31
0.0
210
0.0
220
0.0
230
1.0
 40
0.7713572140709201
 41
0.0
 42
6.283185307179586
  0
LINE
  5
112F9
330
18
100
AcDbEntity
  8
DRAW2
100
AcDbLine
 10
1185.073010721233
 20
84.4453059634111
 30
0.0
 11
1273.073010721233
 21
84.4453059634111
 31
0.0
  0
LINE
  5
112FA
330
18
100
AcDbEntity
  8
DRAW2
100
AcDbLine
 10
1272.673010721232
 20
84.4453059634111
 30
0.0
 11
1184.673010721232
 21
84.4453059634111
 31
0.0
  0
LINE
  5
112FB
330
18
100
AcDbEntity
  8
DRAW2
100
AcDbLine
 10
1185.173110721233
 20
-14.55472403658905
 30
0.0
 11
1504.173030721233
 21
-14.55472403658905
 31
0.0
  0
LINE
  5
112FD
330
18
100
AcDbEntity
  8
DRAW2
100
AcDbLine
 10
1504.173090721233
 20
0.4452759634109498
 30
0.0
 11
1185.173010721233
 21
0.4452759634109498
 31
0.0
  0
LINE
  5
112FE
330
18
100
AcDbEntity
  8
DRAW2
100
AcDbLine
 10
1185.173010721233
 20
84.4453059634111
 30
0.0
 11
1185.173010721233
 21
0.4452759634109498
 31
0.0
  0
LINE
  5
112FF
330
18
100
AcDbEntity
  8
DRAW2
100
AcDbLine
 10
1185.173110721233
 20
0.4452759634109498
 30
0.0
 11
1185.173110721233
 21
-14.55472403658905
 31
0.0
  0
LINE
  5
11300
330
18
100
AcDbEntity
  8
DRAW2
100
AcDbLine
 10
1143.673010721232
 20
120.112665963411
 30
0.0
 11
1168.673010721232
 21
120.112665963411
 31
0.0
  0
LINE
  5
11301
330
18
100
AcDbEntity
  8
DRAW2
100
AcDbLine
 10
1143.673010721232
 20
94.11260596341117
 30
0.0
 11
1168.673010721232
 21
94.11260596341117
 31
0.0
  0
LINE
  5
11302
330
18
100
AcDbEntity
  8
DRAW2
100
AcDbLine
 10
1141.673010721232
 20
96.11248596341102
 30
0.0
 11
1141.673010721232
 21
118.112665963411
 31
0.0
  0
LINE
  5
11303
330
18
100
AcDbEntity
  8
DRAW2
100
AcDbLine
 10
1143.673010721232
 20
94.11260596341117
 30
0.0
 11
1143.673010721232
 21
120.112665963411
 31
0.0
  0
LINE
  5
11304
330
18
100
AcDbEntity
  8
DRAW2
100
AcDbLine
 10
1143.673010721232
 20
94.11272596341087
 30
0.0
 11
1141.673110721232
 21
96.11254596341087
 31
0.0
  0
LINE
  5
11305
330
18
100
AcDbEntity
  8
DRAW2
100
AcDbLine
 10
1141.673110721232
 20
118.1126059634111
 30
0.0
 11
1143.673010721232
 21
120.1126059634111
 31
0.0
  0
LINE
  5
11306
330
18
100
AcDbEntity
  8
DRAW2
100
AcDbLine
 10
1168.673010721232
 20
86.44524596341103
 30
0.0
 11
1184.673010721232
 21
86.44524596341103
 31
0.0
  0
LINE
  5
11307
330
18
100
AcDbEntity
  8
DRAW2
100
AcDbLine
 10
1143.673010721232
 20
188.844535963411
 30
0.0
 11
1168.673010721232
 21
188.844535963411
 31
0.0
  0
LINE
  5
11308
330
18
100
AcDbEntity
  8
DRAW2
100
AcDbLine
 10
1143.673010721232
 20
162.844475963411
 30
0.0
 11
1168.673010721232
 21
162.844475963411
 31
0.0
  0
LINE
  5
11309
330
18
100
AcDbEntity
  8
DRAW2
100
AcDbLine
 10
1141.673010721232
 20
186.8446659634109
 30
0.0
 11
1143.673010721232
 21
188.8445959634109
 31
0.0
  0
LINE
  5
1130A
330
18
100
AcDbEntity
  8
DRAW2
100
AcDbLine
 10
1143.673110721233
 20
162.8446659634109
 30
0.0
 11
1141.673110721232
 21
164.8445959634109
 31
0.0
  0
LINE
  5
1130B
330
18
100
AcDbEntity
  8
DRAW2
100
AcDbLine
 10
1141.673010721232
 20
164.8444159634109
 30
0.0
 11
1141.673010721232
 21
186.8445959634109
 31
0.0
  0
LINE
  5
1130C
330
18
100
AcDbEntity
  8
DRAW2
100
AcDbLine
 10
1143.673010721232
 20
162.844475963411
 30
0.0
 11
1143.673010721232
 21
188.844535963411
 31
0.0
  0
LINE
  5
1130D
330
18
100
AcDbEntity
  8
DRAW2
100
AcDbLine
 10
1504.273130721233
 20
84.4453059634111
 30
0.0
 11
1416.273060721233
 21
84.4453059634111
 31
0.0
  0
LINE
  5
1130E
330
18
100
AcDbEntity
  8
DRAW2
100
AcDbLine
 10
1416.673060721232
 20
84.4453059634111
 30
0.0
 11
1504.673130721233
 21
84.4453059634111
 31
0.0
  0
LINE
  5
1130F
330
18
100
AcDbEntity
  8
DRAW2
100
AcDbLine
 10
1451.045340721233
 20
-33.70309403658893
 30
0.0
 11
1448.173030721233
 21
-14.55472403658905
 31
0.0
  0
LINE
  5
11311
330
18
100
AcDbEntity
  8
DRAW2
100
AcDbLine
 10
1273.173110721233
 20
83.44524596341102
 30
0.0
 11
1416.173090721233
 21
83.44524596341102
 31
0.0
  0
LINE
  5
11312
330
18
100
AcDbEntity
  8
DRAW2
100
AcDbLine
 10
1414.673110721233
 20
86.44530596341065
 30
0.0
 11
1274.673110721233
 21
86.44530596341065
 31
0.0
  0
LINE
  5
11313
330
18
100
AcDbEntity
  8
DRAW2
100
AcDbLine
 10
1273.173110721233
 20
1.445305963411101
 30
0.0
 11
1416.173090721233
 21
1.445305963411101
 31
0.0
  0
LINE
  5
11314
330
18
100
AcDbEntity
  8
DRAW2
100
AcDbLine
 10
1273.173110721233
 20
84.4453059634111
 30
0.0
 11
1273.173110721233
 21
0.4452759634108361
 31
0.0
  0
LINE
  5
11316
330
18
100
AcDbEntity
  8
DRAW2
100
AcDbLine
 10
1233.673285721233
 20
20.44533596341102
 30
0.0
 11
1233.673285721233
 21
0.4452859634109246
 31
0.0
  0
LINE
  5
11317
330
18
100
AcDbEntity
  8
DRAW2
100
AcDbLine
 10
1212.673285721233
 20
20.44527596341095
 30
0.0
 11
1212.673285721233
 21
0.4452859634109246
 31
0.0
  0
LINE
  5
11318
330
18
100
AcDbEntity
  8
DRAW2
100
AcDbLine
 10
1209.034310721233
 20
-34.55472403658905
 30
0.0
 11
1237.311910721233
 21
-34.55472403658905
 31
0.0
  0
LINE
  5
11319
330
18
100
AcDbEntity
  8
DRAW2
100
AcDbLine
 10
1205.173110721233
 20
-14.5546940365889
 30
0.0
 11
1208.045310721233
 21
-33.70306403658901
 31
0.0
  0
ARC
  5
1131A
330
18
100
AcDbEntity
  8
DRAW2
100
AcDbCircle
 10
1209.034310721233
 20
-33.55472403658905
 30
0.0
 40
1.0
100
AcDbArc
 50
188.5316099999993
 51
270.0000199999889
  0
LINE
  5
1131B
330
18
100
AcDbEntity
  8
DRAW2
100
AcDbLine
 10
1195.173085721233
 20
0.4452859634109246
 30
0.0
 11
1195.173085721233
 21
-14.55472403658905
 31
0.0
  0
LINE
  5
1131C
330
18
100
AcDbEntity
  8
DRAW2
100
AcDbLine
 10
1238.300810721232
 20
-33.70309403658893
 30
0.0
 11
1241.173110721233
 21
-14.55472403658905
 31
0.0
  0
LINE
  5
1131D
330
18
100
AcDbEntity
  8
DRAW2
100
AcDbLine
 10
1214.673285721233
 20
22.44524596341102
 30
0.0
 11
1231.673085721233
 21
22.44524596341102
 31
0.0
  0
LINE
  5
1131E
330
18
100
AcDbEntity
  8
DRAW2
100
AcDbLine
 10
1212.673285721233
 20
20.44527596341095
 30
0.0
 11
1233.673285721233
 21
20.44527596341095
 31
0.0
  0
LINE
  5
1131F
330
18
100
AcDbEntity
  8
DRAW2
100
AcDbLine
 10
1212.673085721232
 20
20.44533596341102
 30
0.0
 11
1214.673085721233
 21
22.44533596341102
 31
0.0
  0
LINE
  5
11320
330
18
100
AcDbEntity
  8
DRAW2
100
AcDbLine
 10
1231.673385721233
 20
22.44533596341102
 30
0.0
 11
1233.673385721233
 21
20.44536596341095
 31
0.0
  0
LINE
  5
11321
330
18
100
AcDbEntity
  8
DRAW2
100
AcDbLine
 10
1416.173090721233
 20
84.4453059634111
 30
0.0
 11
1416.173090721233
 21
0.4452759634109498
 31
0.0
  0
LINE
  5
11324
330
18
100
AcDbEntity
  8
DRAW2
100
AcDbLine
 10
1331.631788450589
 20
127.3650980143324
 30
0.0
 11
1331.537105421273
 21
129.3129540493383
 31
0.0
  0
LINE
  5
11325
330
18
100
AcDbEntity
  8
DRAW2
100
AcDbLine
 10
1321.714413450589
 20
127.3650980143328
 30
0.0
 11
1321.809100600368
 21
129.3129540493383
 31
0.0
  0
LINE
  5
11326
330
18
100
AcDbEntity
  8
DRAW2
100
AcDbLine
 10
1329.17310678377
 20
128.4707854778813
 30
0.0
 11
1326.673100950588
 21
129.5764727330185
 31
0.0
  0
LINE
  5
11327
330
18
100
AcDbEntity
  8
DRAW2
100
AcDbLine
 10
1329.17310678377
 20
126.2594056506515
 30
0.0
 11
1329.17310678377
 21
128.4707854778813
 31
0.0
  0
LINE
  5
11328
330
18
100
AcDbEntity
  8
DRAW2
100
AcDbLine
 10
1324.17310678377
 20
128.4707854778813
 30
0.0
 11
1324.17310678377
 21
126.2594056506515
 31
0.0
  0
LINE
  5
11329
330
18
100
AcDbEntity
  8
DRAW2
100
AcDbLine
 10
1326.673100950588
 20
129.5764727330185
 30
0.0
 11
1324.17310678377
 21
128.4707854778813
 31
0.0
  0
LINE
  5
1132A
330
18
100
AcDbEntity
  8
DRAW2
100
AcDbLine
 10
1326.673100950588
 20
125.1537157370366
 30
0.0
 11
1329.17310678377
 21
126.2594056506515
 31
0.0
  0
LINE
  5
1132B
330
18
100
AcDbEntity
  8
DRAW2
100
AcDbLine
 10
1324.17310678377
 20
126.2594056506515
 30
0.0
 11
1326.673100950588
 21
125.1537157370366
 31
0.0
  0
LINE
  5
1132D
330
18
100
AcDbEntity
  8
DRAW2
100
AcDbLine
 10
1357.714405835911
 20
127.3650980143328
 30
0.0
 11
1357.80909298569
 21
129.3129540493383
 31
0.0
  0
LINE
  5
1132E
330
18
100
AcDbEntity
  8
DRAW2
100
AcDbLine
 10
1367.63178083591
 20
127.3650980143324
 30
0.0
 11
1367.537097806595
 21
129.3129540493383
 31
0.0
  0
LINE
  5
1132F
330
18
100
AcDbEntity
  8
DRAW2
100
AcDbLine
 10
1362.673093335911
 20
129.5764727330185
 30
0.0
 11
1360.173099169092
 21
128.4707854778813
 31
0.0
  0
LINE
  5
11330
330
18
100
AcDbEntity
  8
DRAW2
100
AcDbLine
 10
1360.173099169092
 20
128.4707854778813
 30
0.0
 11
1360.173099169092
 21
126.2594056506515
 31
0.0
  0
LINE
  5
11331
330
18
100
AcDbEntity
  8
DRAW2
100
AcDbLine
 10
1360.173099169092
 20
126.2594056506515
 30
0.0
 11
1362.673093335911
 21
125.1537157370366
 31
0.0
  0
LINE
  5
11332
330
18
100
AcDbEntity
  8
DRAW2
100
AcDbLine
 10
1362.673093335911
 20
125.1537157370366
 30
0.0
 11
1365.173099169092
 21
126.2594056506515
 31
0.0
  0
LINE
  5
11333
330
18
100
AcDbEntity
  8
DRAW2
100
AcDbLine
 10
1365.173099169092
 20
126.2594056506515
 30
0.0
 11
1365.173099169092
 21
128.4707854778813
 31
0.0
  0
LINE
  5
11334
330
18
100
AcDbEntity
  8
DRAW2
100
AcDbLine
 10
1365.173099169092
 20
128.4707854778813
 30
0.0
 11
1362.673093335911
 21
129.5764727330185
 31
0.0
  0
LINE
  5
11335
330
18
100
AcDbEntity
  8
DRAW2
100
AcDbLine
 10
1545.173030721232
 20
94.11254596341109
 30
0.0
 11
1545.173030721232
 21
-19.55463403658905
 31
0.0
  0
LINE
  5
11336
330
18
100
AcDbEntity
  8
DRAW2
100
AcDbLine
 10
1504.173090721233
 20
84.4453059634111
 30
0.0
 11
1504.173090721233
 21
70.44527596341095
 31
0.0
  0
LINE
  5
11337
330
18
100
AcDbEntity
  8
DRAW2
100
AcDbLine
 10
1539.172970721233
 20
94.11254596341109
 30
0.0
 11
1539.172970721233
 21
-19.55463403658916
 31
0.0
  0
LINE
  5
11338
330
18
100
AcDbEntity
  8
DRAW2
100
AcDbLine
 10
1542.172970721233
 20
94.11254596341109
 30
0.0
 11
1542.172970721233
 21
-19.55463403658916
 31
0.0
  0
LINE
  5
1133A
330
18
100
AcDbEntity
  8
DRAW2
100
AcDbLine
 10
1565.173030721233
 20
104.945305963411
 30
0.0
 11
1565.173030721233
 21
-20.0546940365889
 31
0.0
  0
LINE
  5
1133B
330
18
100
AcDbEntity
  8
DRAW2
100
AcDbLine
 10
1504.173090721233
 20
70.44527596341095
 30
0.0
 11
1539.172970721233
 21
70.44527596341095
 31
0.0
  0
LINE
  5
1133C
330
18
100
AcDbEntity
  8
DRAW2
100
AcDbLine
 10
1504.173090721233
 20
14.4453059634111
 30
0.0
 11
1539.172970721233
 21
14.44536596341094
 31
0.0
  0
LINE
  5
1133D
330
18
100
AcDbEntity
  8
DRAW2
100
AcDbLine
 10
1455.673085721232
 20
20.44533596341102
 30
0.0
 11
1455.673085721232
 21
0.4452859634109246
 31
0.0
  0
LINE
  5
1133E
330
18
100
AcDbEntity
  8
DRAW2
100
AcDbLine
 10
1476.673185721233
 20
20.44527596341095
 30
0.0
 11
1476.673185721233
 21
0.4452859634109246
 31
0.0
  0
LINE
  5
1133F
330
18
100
AcDbEntity
  8
DRAW2
100
AcDbLine
 10
1504.173090721233
 20
14.4453059634111
 30
0.0
 11
1504.173090721233
 21
0.4452759634109498
 31
0.0
  0
LINE
  5
11340
330
18
100
AcDbEntity
  8
DRAW2
100
AcDbLine
 10
1484.173030721232
 20
-14.55472403658905
 30
0.0
 11
1481.300770721233
 21
-33.70309403658893
 31
0.0
  0
LINE
  5
11341
330
18
100
AcDbEntity
  8
DRAW2
100
AcDbLine
 10
1480.311880721233
 20
-34.55472403658905
 30
0.0
 11
1452.034300721233
 21
-34.55472403658905
 31
0.0
  0
ARC
  5
11342
330
18
100
AcDbEntity
  8
DRAW2
100
AcDbCircle
 10
1452.034300721233
 20
-33.55472403658905
 30
0.0
 40
1.0
100
AcDbArc
 50
188.5316099999993
 51
269.9999599999959
  0
ARC
  5
11343
330
18
100
AcDbEntity
  8
DRAW2
100
AcDbCircle
 10
1480.311880721233
 20
-33.55472403658905
 30
0.0
 40
1.0
100
AcDbArc
 50
269.9999599999959
 51
351.4683700000001
  0
LINE
  5
11344
330
18
100
AcDbEntity
  8
DRAW2
100
AcDbLine
 10
1494.173085721233
 20
0.4452859634109246
 30
0.0
 11
1494.173085721233
 21
-14.55472403658905
 31
0.0
  0
LINE
  5
11345
330
18
100
AcDbEntity
  8
DRAW2
100
AcDbLine
 10
1504.173030721233
 20
0.4452759634109498
 30
0.0
 11
1504.173030721233
 21
-14.55472403658905
 31
0.0
  0
LINE
  5
11346
330
18
100
AcDbEntity
  8
DRAW2
100
AcDbLine
 10
1474.673085721233
 20
22.44524596341102
 30
0.0
 11
1457.672985721233
 21
22.44524596341102
 31
0.0
  0
LINE
  5
11347
330
18
100
AcDbEntity
  8
DRAW2
100
AcDbLine
 10
1476.673185721233
 20
20.44527596341095
 30
0.0
 11
1455.673085721232
 21
20.44527596341095
 31
0.0
  0
LINE
  5
11348
330
18
100
AcDbEntity
  8
DRAW2
100
AcDbLine
 10
1457.672985721233
 20
22.44521596341098
 30
0.0
 11
1455.672985721233
 21
20.44530596341098
 31
0.0
  0
LINE
  5
11349
330
18
100
AcDbEntity
  8
DRAW2
100
AcDbLine
 10
1476.673385721233
 20
20.44539596341099
 30
0.0
 11
1474.673285721233
 21
22.44545596341095
 31
0.0
  0
LINE
  5
1134A
330
18
100
AcDbEntity
  8
DRAW2
100
AcDbLine
 10
1545.173030721232
 20
-20.0546940365889
 30
0.0
 11
1565.173030721233
 21
-20.0546940365889
 31
0.0
  0
LINE
  5
1134C
330
18
100
AcDbEntity
  8
DRAW2
100
AcDbLine
 10
1539.172970721233
 20
-19.55463403658905
 30
0.0
 11
1545.173030721232
 21
-19.55463403658905
 31
0.0
  0
LINE
  5
1134E
330
18
100
AcDbEntity
  8
DRAW2
100
AcDbLine
 10
1520.673130721233
 20
86.44524596341103
 30
0.0
 11
1504.673130721233
 21
86.44524596341103
 31
0.0
  0
LINE
  5
1134F
330
18
100
AcDbEntity
  8
DRAW2
100
AcDbLine
 10
1520.673130721233
 20
86.44524596341103
 30
0.0
 11
1504.673130721233
 21
86.44524596341103
 31
0.0
  0
LINE
  5
11351
330
18
100
AcDbEntity
  8
DRAW2
100
AcDbLine
 10
1547.673060721233
 20
104.945305963411
 30
0.0
 11
1565.173030721233
 21
104.945305963411
 31
0.0
  0
LINE
  5
11353
330
18
100
AcDbEntity
  8
DRAW2
100
AcDbLine
 10
1547.673060721233
 20
96.11248596341102
 30
0.0
 11
1547.673060721233
 21
118.112665963411
 31
0.0
  0
LINE
  5
11354
330
18
100
AcDbEntity
  8
DRAW2
100
AcDbLine
 10
1545.673130721233
 20
94.11254596341109
 30
0.0
 11
1545.673130721233
 21
120.1126059634111
 31
0.0
  0
LINE
  5
11355
330
18
100
AcDbEntity
  8
DRAW2
100
AcDbLine
 10
1545.673130721233
 20
94.11254596341109
 30
0.0
 11
1520.673130721233
 21
94.11254596341109
 31
0.0
  0
LINE
  5
11356
330
18
100
AcDbEntity
  8
DRAW2
100
AcDbLine
 10
1545.673000721233
 20
94.11266596341102
 30
0.0
 11
1547.673000721233
 21
96.1125459634111
 31
0.0
  0
LINE
  5
11357
330
18
100
AcDbEntity
  8
DRAW2
100
AcDbLine
 10
1545.673130721233
 20
120.1126059634111
 30
0.0
 11
1520.673130721233
 21
120.1126059634111
 31
0.0
  0
LINE
  5
11358
330
18
100
AcDbEntity
  8
DRAW2
100
AcDbLine
 10
1547.673130721233
 20
118.112735963411
 30
0.0
 11
1545.673190721233
 21
120.112735963411
 31
0.0
  0
LINE
  5
11359
330
18
100
AcDbEntity
  8
DRAW2
100
AcDbLine
 10
1545.673130721233
 20
162.844475963411
 30
0.0
 11
1520.673130721233
 21
162.844475963411
 31
0.0
  0
LINE
  5
1135A
330
18
100
AcDbEntity
  8
DRAW2
100
AcDbLine
 10
1545.673130721233
 20
188.844535963411
 30
0.0
 11
1520.673130721233
 21
188.844535963411
 31
0.0
  0
LINE
  5
1135B
330
18
100
AcDbEntity
  8
DRAW2
100
AcDbLine
 10
1547.673130721233
 20
186.8446659634109
 30
0.0
 11
1545.673190721233
 21
188.8446659634109
 31
0.0
  0
LINE
  5
1135C
330
18
100
AcDbEntity
  8
DRAW2
100
AcDbLine
 10
1545.673000721233
 20
162.8445959634109
 30
0.0
 11
1547.673000721233
 21
164.844475963411
 31
0.0
  0
LINE
  5
1135D
330
18
100
AcDbEntity
  8
DRAW2
100
AcDbLine
 10
1545.673130721233
 20
162.844475963411
 30
0.0
 11
1545.673130721233
 21
188.844535963411
 31
0.0
  0
LINE
  5
1135E
330
18
100
AcDbEntity
  8
DRAW2
100
AcDbLine
 10
1547.673060721233
 20
164.8444159634109
 30
0.0
 11
1547.673060721233
 21
186.8445959634109
 31
0.0
  0
ELLIPSE
  5
1135F
330
18
100
AcDbEntity
  8
DRAW2
100
AcDbEllipse
 10
1344.675719727048
 20
678.3641621392736
 30
0.0
 11
-28.75
 21
0.0
 31
0.0
210
0.0
220
0.0
230
1.0
 40
0.7071067811865444
 41
7.958519758639444
 42
8.795577746743806
  0
SPLINE
  5
11360
330
18
100
AcDbEntity
  8
DRAW3
100
AcDbSpline
210
0.0
220
0.0
230
1.0
 70
     8
 71
     3
 72
    11
 73
     7
 74
     5
 42
0.0000000001
 43
0.0000000001
 44
0.0000000001
 13
1.0
 23
0.0
 33
0.0
 40
0.0
 40
0.0
 40
0.0
 40
0.0
 40
2.018164239137679
 40
4.346479917769006
 40
6.219581778744249
 40
8.097271875586493
 40
8.097271875586493
 40
8.097271875586493
 40
8.097271875586493
 10
1341.675719726859
 20
639.7889406778114
 30
0.0
 10
1342.075698112819
 20
640.5597014560997
 30
0.0
 10
1342.937123555009
 20
642.2196735135107
 30
0.0
 10
1344.380342437379
 20
639.8591358885659
 30
0.0
 10
1346.684945474705
 20
638.4316218695306
 30
0.0
 10
1347.049823027912
 20
640.58504994821
 30
0.0
 10
1347.67571972686
 20
640.58504994821
 30
0.0
 11
1341.675719726859
 21
639.7889406778114
 31
0.0
 11
1342.907379768129
 21
641.3876903264037
 31
0.0
 11
1344.67571972686
 21
639.8730855298587
 31
0.0
 11
1346.419588226011
 21
639.1893946353349
 31
0.0
 11
1347.67571972686
 21
640.58504994821
 31
0.0
  0
ELLIPSE
  5
11361
330
18
100
AcDbEntity
  8
DRAW2
100
AcDbEllipse
 10
1344.675719726859
 20
664.3848880564943
 30
0.0
 11
-3.000000000000027
 21
0.0
 31
0.0
210
0.0
220
0.0
230
1.0
 40
0.7071067811865845
 41
3.141592653589793
 42
6.283185307179586
  0
ELLIPSE
  5
11362
330
18
100
AcDbEntity
  8
DRAW2
100
AcDbEllipse
 10
1344.675719726861
 20
682.6068028263931
 30
0.0
 11
-4.863999999999946
 21
0.0
 31
0.0
210
0.0
220
0.0
230
1.0
 40
0.7071067811865689
 41
3.141592653589793
 42
6.283185307179586
  0
ELLIPSE
  5
11363
330
18
100
AcDbEntity
  8
DRAW2
100
AcDbEllipse
 10
1344.67571972686
 20
674.8074150299063
 30
0.0
 11
-4.200000000000045
 21
0.0
 31
0.0
210
0.0
220
0.0
230
1.0
 40
0.7071067811866215
 41
3.1503260850166
 42
6.274451875752664
  0
ELLIPSE
  5
11364
330
18
100
AcDbEntity
  8
DRAW2
100
AcDbEllipse
 10
1344.67571972686
 20
672.9148437300607
 30
0.0
 11
-5.0
 21
0.0
 31
0.0
210
0.0
220
0.0
230
1.0
 40
0.7071067811865987
 41
3.494535319344134
 42
5.930242641425312
  0
ELLIPSE
  5
11365
330
18
100
AcDbEntity
  8
DRAW2
100
AcDbEllipse
 10
1344.675719726861
 20
666.5062084000537
 30
0.0
 11
-5.75
 21
0.0
 31
0.0
210
0.0
220
0.0
230
1.0
 40
0.7071067811866076
 41
3.141592653589793
 42
6.283185307179586
  0
ELLIPSE
  5
11366
330
18
100
AcDbEntity
  8
DRAW2
100
AcDbEllipse
 10
1344.675719726861
 20
664.7384414470876
 30
0.0
 11
-5.75
 21
0.0
 31
0.0
210
0.0
220
0.0
230
1.0
 40
0.7071067811866076
 41
2.490148400170788
 42
6.934629560598057
  0
ELLIPSE
  5
11367
330
18
100
AcDbEntity
  8
DRAW2
100
AcDbEllipse
 10
1344.675719726861
 20
664.3848880564943
 30
0.0
 11
-5.461324999999987
 21
0.0
 31
0.0
210
0.0
220
0.0
230
1.0
 40
0.7071067811865924
 41
2.152343274395159
 42
7.27243468637379
  0
ELLIPSE
  5
11368
330
18
100
AcDbEntity
  8
DRAW2
100
AcDbEllipse
 10
1344.675719727048
 20
678.3641621392736
 30
0.0
 11
-28.75
 21
0.0
 31
0.0
210
0.0
220
0.0
230
1.0
 40
0.7071067811865444
 41
6.912385521199779
 42
7.749443509296345
  0
ELLIPSE
  5
11369
330
18
100
AcDbEntity
  8
DRAW2
100
AcDbEllipse
 10
1344.675719727048
 20
678.3641621392736
 30
0.0
 11
-28.75
 21
0.0
 31
0.0
210
0.0
220
0.0
230
1.0
 40
0.7071067811865444
 41
9.006780623593135
 42
10.88997284914312
  0
ELLIPSE
  5
1136A
330
18
100
AcDbEntity
  8
DRAW2
100
AcDbEllipse
 10
1365.460329417874
 20
671.2930878058742
 30
0.0
 11
5.0
 21
0.0
 31
0.0
210
0.0
220
0.0
230
-1.0
 40
0.7071061789673877
 41
6.220642346748061
 42
9.487320921200904
  0
ELLIPSE
  5
1136B
330
18
100
AcDbEntity
  8
DRAW2
100
AcDbEllipse
 10
1365.460329417874
 20
669.8788807650352
 30
0.0
 11
5.5
 21
0.0
 31
0.0
210
0.0
220
0.0
230
-1.0
 40
0.7071067811865223
 41
0.0
 42
6.283185307179586
  0
ELLIPSE
  5
1136C
330
18
100
AcDbEntity
  8
DRAW2
100
AcDbEllipse
 10
1323.891110036221
 20
669.8788807650352
 30
0.0
 11
-5.5
 21
0.0
 31
0.0
210
0.0
220
0.0
230
1.0
 40
0.7071067811865223
 41
0.0
 42
6.283185307179586
  0
ELLIPSE
  5
1136D
330
18
100
AcDbEntity
  8
DRAW2
100
AcDbEllipse
 10
1323.891110036221
 20
671.2930878058742
 30
0.0
 11
-5.0
 21
0.0
 31
0.0
210
0.0
220
0.0
230
1.0
 40
0.7071061789673877
 41
6.220642346748061
 42
9.487320921200904
  0
ELLIPSE
  5
1136E
330
18
100
AcDbEntity
  8
DRAW2
100
AcDbEllipse
 10
1344.675719727048
 20
696.7489319285898
 30
0.0
 11
-5.0
 21
0.0
 31
0.0
210
0.0
220
0.0
230
1.0
 40
0.7071061789673877
 41
6.220642346748061
 42
9.487320921200904
  0
ELLIPSE
  5
1136F
330
18
100
AcDbEntity
  8
DRAW2
100
AcDbEllipse
 10
1344.675719727048
 20
695.3347248877508
 30
0.0
 11
-5.5
 21
0.0
 31
0.0
210
0.0
220
0.0
230
1.0
 40
0.7071067811865223
 41
0.0
 42
6.283185307179586
  0
ELLIPSE
  5
11370
330
18
100
AcDbEntity
  8
DRAW2
100
AcDbEllipse
 10
1344.675719727048
 20
679.2714356333276
 30
0.0
 11
-31.0
 21
0.0
 31
0.0
210
0.0
220
0.0
230
1.0
 40
0.7071054509960226
 41
1.667722212828801
 42
7.757055747928367
  0
ELLIPSE
  5
11371
330
18
100
AcDbEntity
  8
DRAW2
100
AcDbEllipse
 10
1344.675719727048
 20
679.7783757016471
 30
0.0
 11
-30.75
 21
0.0
 31
0.0
210
0.0
220
0.0
230
1.0
 40
0.7071067811865597
 41
3.486875577005422
 42
5.937902383763933
  0
ELLIPSE
  5
11372
330
18
100
AcDbEntity
  8
DRAW2
100
AcDbEllipse
 10
1344.675719727048
 20
678.3641621392736
 30
0.0
 11
-28.75
 21
0.0
 31
0.0
210
0.0
220
0.0
230
1.0
 40
0.7071067811865444
 41
4.817990418805845
 42
6.701182644356745
  0
SPLINE
  5
11373
330
18
100
AcDbEntity
  8
DRAW3
100
AcDbSpline
210
0.0
220
0.0
230
1.0
 70
     8
 71
     3
 72
    11
 73
     7
 74
     5
 42
0.0000000001
 43
0.0000000001
 44
0.0000000001
 40
0.0
 40
0.0
 40
0.0
 40
0.0
 40
2.278908956871488
 40
4.565115935640901
 40
6.096700278082474
 40
8.918838906786231
 40
8.918838906786231
 40
8.918838906786231
 40
8.918838906786231
 10
1341.67311072113
 20
373.628744316603
 30
0.0
 10
1342.20858844547
 20
374.494359134665
 30
0.0
 10
1343.281258718318
 20
376.2283608323401
 30
0.0
 10
1344.370165983878
 20
373.6183626432272
 30
0.0
 10
1346.371701020762
 20
371.9879638178146
 30
0.0
 10
1347.161289452551
 20
373.7322940724304
 30
0.0
 10
1347.67311072113
 20
374.8629911391464
 30
0.0
 11
1341.67311072113
 21
373.628744316603
 31
0.0
 11
1343.215421115498
 21
375.3064524798827
 31
0.0
 11
1344.673110721131
 21
373.5452360356597
 31
0.0
 11
1345.917979365801
 21
372.6530182060177
 31
0.0
 11
1347.67311072113
 21
374.8629911391464
 31
0.0
  0
ELLIPSE
  5
11374
330
18
100
AcDbEntity
  8
DRAW2
100
AcDbEllipse
 10
1344.67311072113
 20
350.1474388580092
 30
0.0
 11
-3.0
 21
0.0
 31
0.0
210
0.0
220
0.0
230
1.0
 40
0.7071067811864964
 41
0.0
 42
3.141592653589793
  0
ELLIPSE
  5
11375
330
18
100
AcDbEntity
  8
DRAW2
100
AcDbEllipse
 10
1344.673110721132
 20
331.9255240881071
 30
0.0
 11
-4.864000000000032
 21
0.0
 31
0.0
210
0.0
220
0.0
230
1.0
 40
0.7071067811865447
 41
6.283185307179586
 42
9.424777960769379
  0
ELLIPSE
  5
11376
330
18
100
AcDbEntity
  8
DRAW2
100
AcDbEllipse
 10
1344.673110721131
 20
341.6174831844414
 30
0.0
 11
-5.0
 21
0.0
 31
0.0
210
0.0
220
0.0
230
1.0
 40
0.7071067811864851
 41
0.3529426657540889
 42
2.788649987835729
  0
ELLIPSE
  5
11377
330
18
100
AcDbEntity
  8
DRAW2
100
AcDbEllipse
 10
1344.67311072113
 20
348.0261185144494
 30
0.0
 11
-5.75
 21
0.0
 31
0.0
210
0.0
220
0.0
230
1.0
 40
0.707106781186489
 41
0.0
 42
3.141592653589793
  0
ELLIPSE
  5
11378
330
18
100
AcDbEntity
  8
DRAW2
100
AcDbEllipse
 10
1344.67311072113
 20
349.7938854674159
 30
0.0
 11
-5.75
 21
0.0
 31
0.0
210
0.0
220
0.0
230
1.0
 40
0.707106781186489
 41
5.631741053761345
 42
10.07622221418796
  0
ELLIPSE
  5
11379
330
18
100
AcDbEntity
  8
DRAW2
100
AcDbEllipse
 10
1344.67311072113
 20
350.1474388580092
 30
0.0
 11
-5.461324999999987
 21
0.0
 31
0.0
210
0.0
220
0.0
230
1.0
 40
0.7071067811864987
 41
5.293935927985153
 42
10.41402733996381
  0
ELLIPSE
  5
1137A
330
18
100
AcDbEntity
  8
DRAW2
100
AcDbEllipse
 10
1344.673110721132
 20
327.6828834009877
 30
0.0
 11
-28.75
 21
0.0
 31
0.0
210
0.0
220
0.0
230
1.0
 40
0.7071067811865483
 41
9.00678062359222
 42
10.78592953019862
  0
ELLIPSE
  5
1137B
330
18
100
AcDbEntity
  8
DRAW2
100
AcDbEllipse
 10
1365.457720411959
 20
319.1976020267491
 30
0.0
 11
5.5
 21
0.0
 31
0.0
210
0.0
220
0.0
230
-1.0
 40
0.7071067811865533
 41
0.0
 42
6.283185307179586
  0
ELLIPSE
  5
1137C
330
18
100
AcDbEntity
  8
DRAW2
100
AcDbEllipse
 10
1365.457720411959
 20
317.7834004329219
 30
0.0
 11
5.0
 21
0.0
 31
0.0
210
0.0
220
0.0
230
-1.0
 40
0.707111671489713
 41
3.079048470745901
 42
6.345729490023462
  0
ELLIPSE
  5
1137D
330
18
100
AcDbEntity
  8
DRAW2
100
AcDbEllipse
 10
1344.673110721132
 20
327.6828834009877
 30
0.0
 11
-28.75
 21
0.0
 31
0.0
210
0.0
220
0.0
230
1.0
 40
0.7071067811865483
 41
6.91238552120519
 42
8.795577746749158
  0
ELLIPSE
  5
1137E
330
18
100
AcDbEntity
  8
DRAW2
100
AcDbEllipse
 10
1344.673110721132
 20
326.2686698386146
 30
0.0
 11
-30.75
 21
0.0
 31
0.0
210
0.0
220
0.0
230
1.0
 40
0.7071067811865487
 41
4.908214843033636
 42
6.628458055179191
  0
ELLIPSE
  5
1137F
330
18
100
AcDbEntity
  8
DRAW2
100
AcDbEllipse
 10
1323.888501030306
 20
319.1976020267491
 30
0.0
 11
-5.5
 21
0.0
 31
0.0
210
0.0
220
0.0
230
1.0
 40
0.7071067811865533
 41
0.0
 42
6.283185307179586
  0
ELLIPSE
  5
11380
330
18
100
AcDbEntity
  8
DRAW2
100
AcDbEllipse
 10
1323.888501030306
 20
317.7834004329219
 30
0.0
 11
-5.0
 21
0.0
 31
0.0
210
0.0
220
0.0
230
1.0
 40
0.707111671489713
 41
3.079048470745901
 42
6.345729490023462
  0
ELLIPSE
  5
11381
330
18
100
AcDbEntity
  8
DRAW2
100
AcDbEllipse
 10
1344.673110721132
 20
326.7756372778334
 30
0.0
 11
-31.0
 21
0.0
 31
0.0
210
0.0
220
0.0
230
1.0
 40
0.7071067052693325
 41
4.906615353956114
 42
10.80134791399296
  0
ELLIPSE
  5
11382
330
18
100
AcDbEntity
  8
DRAW2
100
AcDbEllipse
 10
1344.673110721132
 20
326.2686698386146
 30
0.0
 11
-30.75
 21
0.0
 31
0.0
210
0.0
220
0.0
230
1.0
 40
0.7071067811865487
 41
2.796319905590257
 42
4.516563117735802
  0
ELLIPSE
  5
11383
330
18
100
AcDbEntity
  8
DRAW2
100
AcDbEllipse
 10
1344.673110721132
 20
327.6828834009877
 30
0.0
 11
-28.75
 21
0.0
 31
0.0
210
0.0
220
0.0
230
1.0
 40
0.7071067811865483
 41
4.922033737750405
 42
6.701182644355705
  0
SPLINE
  5
11384
330
18
100
AcDbEntity
  8
DRAW3
100
AcDbSpline
210
0.0
220
0.0
230
1.0
 70
     8
 71
     3
 72
    10
 73
     6
 74
     4
 42
0.0000000001
 43
0.0000000001
 44
0.0000000001
 40
0.0
 40
0.0
 40
0.0
 40
0.0
 40
0.7869075212542507
 40
1.726788435349844
 40
2.626116616137474
 40
2.626116616137474
 40
2.626116616137474
 40
2.626116616137474
 10
1700.465024921833
 20
334.3716799727224
 30
0.0
 10
1700.255298708187
 20
334.1276713849782
 30
0.0
 10
1699.795075885897
 20
333.5922193832348
 30
0.0
 10
1699.068069988925
 20
334.7140610171128
 30
0.0
 10
1698.495162597932
 20
334.269811393853
 30
0.0
 10
1698.215024921834
 20
334.052584213641
 30
0.0
 11
1700.465024921833
 21
334.3716799727224
 31
0.0
 11
1699.832146496876
 21
333.9040387146722
 31
0.0
 11
1699.040196349226
 21
334.4101919487009
 31
0.0
 11
1698.215024921834
 21
334.052584213641
 31
0.0
  0
SPLINE
  5
11385
330
18
100
AcDbEntity
  8
DRAW3
100
AcDbSpline
210
0.0
220
0.0
230
1.0
 70
     8
 71
     3
 72
    10
 73
     6
 74
     4
 42
0.0000000001
 43
0.0000000001
 44
0.0000000001
 40
0.0
 40
0.0
 40
0.0
 40
0.0
 40
0.7869075212542507
 40
1.726788435349844
 40
2.626116616137474
 40
2.626116616137474
 40
2.626116616137474
 40
2.626116616137474
 10
1700.465024921833
 20
332.3716799727224
 30
0.0
 10
1700.255298708187
 20
332.1276713849783
 30
0.0
 10
1699.795075885897
 20
331.5922193832348
 30
0.0
 10
1699.068069988925
 20
332.7140610171128
 30
0.0
 10
1698.495162597932
 20
332.269811393853
 30
0.0
 10
1698.215024921834
 20
332.052584213641
 30
0.0
 11
1700.465024921833
 21
332.3716799727224
 31
0.0
 11
1699.832146496876
 21
331.9040387146722
 31
0.0
 11
1699.040196349226
 21
332.4101919487009
 31
0.0
 11
1698.215024921834
 21
332.052584213641
 31
0.0
  0
SPLINE
  5
11386
330
18
100
AcDbEntity
  8
DRAW3
100
AcDbSpline
210
0.0
220
0.0
230
1.0
 70
     8
 71
     3
 72
    10
 73
     6
 74
     4
 42
0.0000000001
 43
0.0000000001
 44
0.0000000001
 40
0.0
 40
0.0
 40
0.0
 40
0.0
 40
0.3934537606269424
 40
0.8633942176749307
 40
1.202033207996425
 40
1.202033207996425
 40
1.202033207996425
 40
1.202033207996425
 10
1683.465024921825
 20
334.3716799727224
 30
0.0
 10
1683.360726966772
 20
334.2469236980388
 30
0.0
 10
1683.131855723643
 20
333.9731587554729
 30
0.0
 10
1682.789448758446
 20
334.5335919933106
 30
0.0
 10
1682.560789212966
 20
334.3070214816644
 30
0.0
 10
1682.465024921825
 20
334.2121320931817
 30
0.0
 11
1683.465024921825
 21
334.3716799727224
 31
0.0
 11
1683.148585709346
 21
334.1378593436973
 31
0.0
 11
1682.752610635521
 21
334.3909359607116
 31
0.0
 11
1682.465024921825
 21
334.2121320931817
 31
0.0
  0
SPLINE
  5
11387
330
18
100
AcDbEntity
  8
DRAW3
100
AcDbSpline
210
0.0
220
0.0
230
1.0
 70
     8
 71
     3
 72
    10
 73
     6
 74
     4
 42
0.0000000001
 43
0.0000000001
 44
0.0000000001
 40
0.0
 40
0.0
 40
0.0
 40
0.0
 40
0.3934537606273082
 40
0.8633942176749133
 40
1.429935674776396
 40
1.429935674776396
 40
1.429935674776396
 40
1.429935674776396
 10
1676.590024921826
 20
334.3716799727228
 30
0.0
 10
1676.48499909093
 20
334.2514952348383
 30
0.0
 10
1676.254530598372
 20
333.9877620643207
 30
0.0
 10
1675.861973536065
 20
334.5616905274738
 30
0.0
 10
1675.524492306236
 20
334.3356732394045
 30
0.0
 10
1675.340024921825
 20
334.2121320931821
 30
0.0
 11
1676.590024921826
 21
334.3716799727228
 31
0.0
 11
1676.273585709347
 21
334.1378593436977
 31
0.0
 11
1675.877610635522
 21
334.390935960712
 31
0.0
 11
1675.340024921825
 21
334.2121320931821
 31
0.0
  0
SPLINE
  5
11388
330
18
100
AcDbEntity
  8
DRAW3
100
AcDbSpline
210
0.0
220
0.0
230
1.0
 70
     8
 71
     3
 72
    10
 73
     6
 74
     4
 42
0.0000000001
 43
0.0000000001
 44
0.0000000001
 40
0.0
 40
0.0
 40
0.0
 40
0.0
 40
0.3934537606269424
 40
0.8633942176749307
 40
1.202033207996425
 40
1.202033207996425
 40
1.202033207996425
 40
1.202033207996425
 10
1683.465024921825
 20
332.3716799727224
 30
0.0
 10
1683.360726966772
 20
332.2469236980388
 30
0.0
 10
1683.131855723643
 20
331.9731587554729
 30
0.0
 10
1682.789448758446
 20
332.5335919933105
 30
0.0
 10
1682.560789212966
 20
332.3070214816644
 30
0.0
 10
1682.465024921825
 20
332.2121320931817
 30
0.0
 11
1683.465024921825
 21
332.3716799727224
 31
0.0
 11
1683.148585709346
 21
332.1378593436973
 31
0.0
 11
1682.752610635521
 21
332.3909359607116
 31
0.0
 11
1682.465024921825
 21
332.2121320931817
 31
0.0
  0
SPLINE
  5
11389
330
18
100
AcDbEntity
  8
DRAW3
100
AcDbSpline
210
0.0
220
0.0
230
1.0
 70
     8
 71
     3
 72
    10
 73
     6
 74
     4
 42
0.0000000001
 43
0.0000000001
 44
0.0000000001
 40
0.0
 40
0.0
 40
0.0
 40
0.0
 40
0.3934537606273082
 40
0.8633942176749133
 40
1.429935674776396
 40
1.429935674776396
 40
1.429935674776396
 40
1.429935674776396
 10
1676.590024921826
 20
332.3716799727228
 30
0.0
 10
1676.48499909093
 20
332.2514952348383
 30
0.0
 10
1676.254530598372
 20
331.9877620643208
 30
0.0
 10
1675.861973536065
 20
332.5616905274738
 30
0.0
 10
1675.524492306236
 20
332.3356732394046
 30
0.0
 10
1675.340024921825
 20
332.2121320931821
 30
0.0
 11
1676.590024921826
 21
332.3716799727228
 31
0.0
 11
1676.273585709347
 21
332.1378593436977
 31
0.0
 11
1675.877610635522
 21
332.3909359607121
 31
0.0
 11
1675.340024921825
 21
332.2121320931821
 31
0.0
  0
LINE
  5
1138B
330
18
100
AcDbEntity
  8
DRAW2
100
AcDbLine
 10
1184.675653571094
 20
929.6017928572627
 30
0.0
 11
1272.675653571094
 21
929.6017928572627
 31
0.0
  0
LINE
  5
1138C
330
18
100
AcDbEntity
  8
DRAW2
100
AcDbLine
 10
1185.173016877187
 20
844.1017928572629
 30
0.0
 11
1273.173016877187
 21
844.1017928572629
 31
0.0
  0
LINE
  5
11390
330
18
100
AcDbEntity
  8
DRAW2
100
AcDbLine
 10
1184.675653571094
 20
633.6017928572626
 30
0.0
 11
1272.675653571094
 21
633.6017928572626
 31
0.0
  0
LINE
  5
11391
330
18
100
AcDbEntity
  8
DRAW2
100
AcDbLine
 10
1185.173016877187
 20
719.1017928572627
 30
0.0
 11
1273.173016877187
 21
719.1017928572628
 31
0.0
  0
LINE
  5
11392
330
18
100
AcDbEntity
  8
DRAW2
100
AcDbLine
 10
1273.172996877187
 20
828.6017928572627
 30
0.0
 11
1185.172996877187
 21
828.6017928572627
 31
0.0
  0
LINE
  5
11393
330
18
100
AcDbEntity
  8
DRAW2
100
AcDbLine
 10
1273.172996877187
 20
734.6017928572627
 30
0.0
 11
1185.172996877187
 21
734.6017928572627
 31
0.0
  0
LINE
  5
11395
330
18
100
AcDbEntity
  8
DRAW2
100
AcDbLine
 10
1185.173010721233
 20
448.4453059634109
 30
0.0
 11
1273.173110721233
 21
448.4453059634111
 31
0.0
  0
LINE
  5
11396
330
18
100
AcDbEntity
  8
DRAW2
100
AcDbLine
 10
1185.073010721233
 20
364.445305963411
 30
0.0
 11
1273.173110721233
 21
364.445305963411
 31
0.0
  0
LINE
  5
11397
330
18
100
AcDbEntity
  8
DRAW2
100
AcDbLine
 10
1185.173010721233
 20
463.445305963411
 30
0.0
 11
1273.173110721233
 21
463.445305963411
 31
0.0
  0
LINE
  5
11398
330
18
100
AcDbEntity
  8
DRAW2
100
AcDbLine
 10
1184.673010721232
 20
364.445305963411
 30
0.0
 11
1272.673010721232
 21
364.445305963411
 31
0.0
  0
LINE
  5
1139D
330
18
100
AcDbEntity
  8
DRAW2
100
AcDbLine
 10
1142.675653571094
 20
675.2692206903228
 30
0.0
 11
1142.675653571094
 21
653.2690306903231
 31
0.0
  0
LINE
  5
1139E
330
18
100
AcDbEntity
  8
DRAW2
100
AcDbLine
 10
1144.675653571094
 20
677.2690906903229
 30
0.0
 11
1144.675653571094
 21
651.269030690323
 31
0.0
  0
LINE
  5
1139F
330
18
100
AcDbEntity
  8
DRAW2
100
AcDbLine
 10
1184.675653571094
 20
929.6017928572627
 30
0.0
 11
1184.675653571094
 21
633.6017928572626
 31
0.0
  0
LINE
  5
113A0
330
18
100
AcDbEntity
  8
DRAW2
100
AcDbLine
 10
1184.675653571094
 20
929.6017928572624
 30
0.0
 11
1184.675653571094
 21
633.601792857263
 31
0.0
  0
LINE
  5
113A1
330
18
100
AcDbEntity
  8
DRAW2
100
AcDbLine
 10
1169.675653571094
 20
929.6017928572624
 30
0.0
 11
1169.675653571094
 21
633.601792857263
 31
0.0
  0
LINE
  5
113A2
330
18
100
AcDbEntity
  8
DRAW2
100
AcDbLine
 10
1185.173010721233
 20
364.445305963411
 30
0.0
 11
1185.173010721233
 21
463.445305963411
 31
0.0
  0
LINE
  5
113A3
330
18
100
AcDbEntity
  8
DRAW2
100
AcDbLine
 10
1143.673010721232
 20
286.0460759634111
 30
0.0
 11
1168.673010721232
 21
286.0460759634111
 31
0.0
  0
LINE
  5
113A4
330
18
100
AcDbEntity
  8
DRAW2
100
AcDbLine
 10
1143.673010721232
 20
260.046015963411
 30
0.0
 11
1168.673010721232
 21
260.046015963411
 31
0.0
  0
LINE
  5
113A5
330
18
100
AcDbEntity
  8
DRAW2
100
AcDbLine
 10
1141.673010721232
 20
284.046195963411
 30
0.0
 11
1141.673010721232
 21
262.046015963411
 31
0.0
  0
LINE
  5
113A6
330
18
100
AcDbEntity
  8
DRAW2
100
AcDbLine
 10
1143.673010721232
 20
286.0460759634111
 30
0.0
 11
1143.673010721232
 21
260.046015963411
 31
0.0
  0
LINE
  5
113A7
330
18
100
AcDbEntity
  8
DRAW2
100
AcDbLine
 10
1141.673010721232
 20
262.0459559634109
 30
0.0
 11
1143.673010721232
 21
260.046015963411
 31
0.0
  0
LINE
  5
113A8
330
18
100
AcDbEntity
  8
DRAW2
100
AcDbLine
 10
1143.673110721233
 20
286.046015963411
 30
0.0
 11
1141.673210721233
 21
284.0460759634111
 31
0.0
  0
LINE
  5
113A9
330
18
100
AcDbEntity
  8
DRAW2
100
AcDbLine
 10
1143.673010721232
 20
354.778005963411
 30
0.0
 11
1168.673010721232
 21
354.778005963411
 31
0.0
  0
LINE
  5
113AA
330
18
100
AcDbEntity
  8
DRAW2
100
AcDbLine
 10
1143.673010721232
 20
328.7779459634112
 30
0.0
 11
1168.673010721232
 21
328.7779459634112
 31
0.0
  0
LINE
  5
113AB
330
18
100
AcDbEntity
  8
DRAW2
100
AcDbLine
 10
1141.673010721232
 20
352.7781359634109
 30
0.0
 11
1141.673010721232
 21
330.7779459634112
 31
0.0
  0
LINE
  5
113AC
330
18
100
AcDbEntity
  8
DRAW2
100
AcDbLine
 10
1143.673010721232
 20
354.778005963411
 30
0.0
 11
1143.673010721232
 21
328.7779459634112
 31
0.0
  0
LINE
  5
113AD
330
18
100
AcDbEntity
  8
DRAW2
100
AcDbLine
 10
1141.673010721232
 20
330.7778859634111
 30
0.0
 11
1143.673010721232
 21
328.7779459634112
 31
0.0
  0
LINE
  5
113AE
330
18
100
AcDbEntity
  8
DRAW2
100
AcDbLine
 10
1143.673110721233
 20
354.7779459634111
 30
0.0
 11
1141.673110721232
 21
352.7780759634111
 31
0.0
  0
LINE
  5
113AF
330
18
100
AcDbEntity
  8
DRAW2
100
AcDbLine
 10
1168.673010721232
 20
362.445305963411
 30
0.0
 11
1184.673010721232
 21
362.445305963411
 31
0.0
  0
LINE
  5
113B0
330
18
100
AcDbEntity
  8
DRAW2
100
AcDbLine
 10
1144.675653571094
 20
651.269030690323
 30
0.0
 11
1169.675653571094
 21
651.269030690323
 31
0.0
  0
LINE
  5
113B1
330
18
100
AcDbEntity
  8
DRAW2
100
AcDbLine
 10
1142.675653571094
 20
653.268970690323
 30
0.0
 11
1144.675653571094
 21
651.269030690323
 31
0.0
  0
LINE
  5
113B2
330
18
100
AcDbEntity
  8
DRAW2
100
AcDbLine
 10
1184.675653571094
 20
633.601792857263
 30
0.0
 11
1169.675653571094
 21
633.601792857263
 31
0.0
  0
LINE
  5
113B3
330
18
100
AcDbEntity
  8
DRAW2
100
AcDbLine
 10
1185.172996877187
 20
828.6017928572627
 30
0.0
 11
1185.172996877187
 21
734.6017928572627
 31
0.0
  0
LINE
  5
113B4
330
18
100
AcDbEntity
  8
DRAW2
100
AcDbLine
 10
1185.173016877187
 20
844.1017928572629
 30
0.0
 11
1185.173016877187
 21
719.1017928572627
 31
0.0
  0
LINE
  5
113B5
330
18
100
AcDbEntity
  8
DRAW2
100
AcDbLine
 10
1142.675653571094
 20
744.0011284921381
 30
0.0
 11
1142.675653571094
 21
722.0009384921383
 31
0.0
  0
LINE
  5
113B6
330
18
100
AcDbEntity
  8
DRAW2
100
AcDbLine
 10
1144.675653571094
 20
746.0009984921383
 30
0.0
 11
1144.675653571094
 21
720.0009384921384
 31
0.0
  0
LINE
  5
113B7
330
18
100
AcDbEntity
  8
DRAW2
100
AcDbLine
 10
1144.675653571094
 20
720.0009384921384
 30
0.0
 11
1169.675653571094
 21
720.0009384921384
 31
0.0
  0
LINE
  5
113B8
330
18
100
AcDbEntity
  8
DRAW2
100
AcDbLine
 10
1144.675653571094
 20
677.2690906903229
 30
0.0
 11
1169.675653571094
 21
677.2690906903229
 31
0.0
  0
LINE
  5
113B9
330
18
100
AcDbEntity
  8
DRAW2
100
AcDbLine
 10
1144.675753571094
 20
677.2690306903231
 30
0.0
 11
1142.675753571094
 21
675.269160690323
 31
0.0
  0
LINE
  5
113BA
330
18
100
AcDbEntity
  8
DRAW2
100
AcDbLine
 10
1142.675653571094
 20
722.0008784921382
 30
0.0
 11
1144.675653571094
 21
720.0009384921384
 31
0.0
  0
LINE
  5
113BB
330
18
100
AcDbEntity
  8
DRAW2
100
AcDbLine
 10
1184.675653571094
 20
728.1228250287788
 30
0.0
 11
1169.675653571094
 21
728.1228250287788
 31
0.0
  0
LINE
  5
113BC
330
18
100
AcDbEntity
  8
DRAW2
100
AcDbLine
 10
1184.675653571094
 20
733.6017928572628
 30
0.0
 11
1185.173016877187
 21
733.6017928572628
 31
0.0
  0
LINE
  5
113BD
330
18
100
AcDbEntity
  8
DRAW2
100
AcDbLine
 10
1144.675653571094
 20
746.0009984921383
 30
0.0
 11
1169.675653571094
 21
746.0009984921383
 31
0.0
  0
LINE
  5
113BE
330
18
100
AcDbEntity
  8
DRAW2
100
AcDbLine
 10
1144.675753571094
 20
746.0009384921383
 30
0.0
 11
1142.675753571094
 21
744.0010684921382
 31
0.0
  0
LINE
  5
113BF
330
18
100
AcDbEntity
  8
DRAW2
100
AcDbLine
 10
1144.675653571094
 20
843.202585431098
 30
0.0
 11
1169.675653571094
 21
843.202585431098
 31
0.0
  0
LINE
  5
113C0
330
18
100
AcDbEntity
  8
DRAW2
100
AcDbLine
 10
1144.675653571094
 20
817.2025254310982
 30
0.0
 11
1169.675653571094
 21
817.2025254310982
 31
0.0
  0
LINE
  5
113C1
330
18
100
AcDbEntity
  8
DRAW2
100
AcDbLine
 10
1142.675653571094
 20
841.202715431098
 30
0.0
 11
1142.675653571094
 21
819.2025254310982
 31
0.0
  0
LINE
  5
113C2
330
18
100
AcDbEntity
  8
DRAW2
100
AcDbLine
 10
1144.675653571094
 20
843.202585431098
 30
0.0
 11
1144.675653571094
 21
817.2025254310982
 31
0.0
  0
LINE
  5
113C3
330
18
100
AcDbEntity
  8
DRAW2
100
AcDbLine
 10
1142.675653571094
 20
819.2024654310982
 30
0.0
 11
1144.675653571094
 21
817.2025254310982
 31
0.0
  0
LINE
  5
113C4
330
18
100
AcDbEntity
  8
DRAW2
100
AcDbLine
 10
1144.675753571094
 20
843.2025254310982
 30
0.0
 11
1142.675753571094
 21
841.2026554310982
 31
0.0
  0
LINE
  5
113C5
330
18
100
AcDbEntity
  8
DRAW2
100
AcDbLine
 10
1184.675653571094
 20
835.0807659728493
 30
0.0
 11
1169.675653571094
 21
835.0807659728493
 31
0.0
  0
LINE
  5
113C6
330
18
100
AcDbEntity
  8
DRAW2
100
AcDbLine
 10
1184.675653571094
 20
829.6017928572629
 30
0.0
 11
1185.173016877187
 21
829.6017928572627
 31
0.0
  0
LINE
  5
113C7
330
18
100
AcDbEntity
  8
DRAW2
100
AcDbLine
 10
1144.675653571094
 20
911.9344962563523
 30
0.0
 11
1169.675653571094
 21
911.9344962563523
 31
0.0
  0
LINE
  5
113C8
330
18
100
AcDbEntity
  8
DRAW2
100
AcDbLine
 10
1144.675653571094
 20
885.9344362563525
 30
0.0
 11
1169.675653571094
 21
885.9344362563525
 31
0.0
  0
LINE
  5
113C9
330
18
100
AcDbEntity
  8
DRAW2
100
AcDbLine
 10
1142.675653571094
 20
909.9346262563523
 30
0.0
 11
1142.675653571094
 21
887.9344362563525
 31
0.0
  0
LINE
  5
113CA
330
18
100
AcDbEntity
  8
DRAW2
100
AcDbLine
 10
1142.675653571094
 20
887.9343762563525
 30
0.0
 11
1144.675653571094
 21
885.9344362563525
 31
0.0
  0
LINE
  5
113CB
330
18
100
AcDbEntity
  8
DRAW2
100
AcDbLine
 10
1144.675653571094
 20
911.9344962563523
 30
0.0
 11
1144.675653571094
 21
885.9344362563525
 31
0.0
  0
LINE
  5
113CC
330
18
100
AcDbEntity
  8
DRAW2
100
AcDbLine
 10
1144.675753571094
 20
911.9344362563525
 30
0.0
 11
1142.675753571094
 21
909.9345662563525
 31
0.0
  0
LINE
  5
113CD
330
18
100
AcDbEntity
  8
DRAW2
100
AcDbLine
 10
1184.675653571094
 20
929.6017928572624
 30
0.0
 11
1169.675653571094
 21
929.6017928572624
 31
0.0
  0
LINE
  5
113CE
330
18
100
AcDbEntity
  8
DRAW2
100
AcDbLine
 10
1344.675719726861
 20
675.8753732507755
 30
0.0
 11
1344.675719726861
 21
671.8344236968414
 31
0.0
  0
LINE
  5
113CF
330
18
100
AcDbEntity
  8
DRAW2
100
AcDbLine
 10
1344.675719726861
 20
675.8753732507755
 30
0.0
 11
1350.658952618972
 21
673.6584277912087
 31
0.0
  0
LINE
  5
113D0
330
18
100
AcDbEntity
  8
DRAW2
100
AcDbLine
 10
1338.692486834749
 20
673.6584277912087
 30
0.0
 11
1344.675719726861
 21
675.8753732507755
 31
0.0
  0
LINE
  5
113D2
330
18
100
AcDbEntity
  8
DRAW2
100
AcDbLine
 10
1546.67578564008
 20
675.2692206903228
 30
0.0
 11
1546.67578564008
 21
653.2690306903231
 31
0.0
  0
LINE
  5
113D3
330
18
100
AcDbEntity
  8
DRAW2
100
AcDbLine
 10
1544.67578564008
 20
677.2690906903229
 30
0.0
 11
1544.67578564008
 21
651.269030690323
 31
0.0
  0
LINE
  5
113D4
330
18
100
AcDbEntity
  8
DRAW2
100
AcDbLine
 10
1504.669350010044
 20
753.6017928572626
 30
0.0
 11
1504.669350010044
 21
633.6017928572626
 31
0.0
  0
LINE
  5
113D5
330
18
100
AcDbEntity
  8
DRAW2
100
AcDbLine
 10
1504.675773571094
 20
753.6017928572626
 30
0.0
 11
1504.675773571094
 21
633.6017928572633
 31
0.0
  0
LINE
  5
113D6
330
18
100
AcDbEntity
  8
DRAW2
100
AcDbLine
 10
1519.67578564008
 20
753.6017928572626
 30
0.0
 11
1519.67578564008
 21
633.6017928572633
 31
0.0
  0
LINE
  5
113D7
330
18
100
AcDbEntity
  8
DRAW2
100
AcDbLine
 10
1414.675733571094
 20
728.1228250287829
 30
0.0
 11
1414.675733571094
 21
633.6017928572628
 31
0.0
  0
LINE
  5
113D8
330
18
100
AcDbEntity
  8
DRAW2
100
AcDbLine
 10
1416.669350010044
 20
719.1017928572626
 30
0.0
 11
1416.669350010044
 21
633.6017928572626
 31
0.0
  0
LINE
  5
113D9
330
18
100
AcDbEntity
  8
DRAW2
100
AcDbLine
 10
1272.675653571094
 20
719.1017928572627
 30
0.0
 11
1272.675653571094
 21
633.6017928572626
 31
0.0
  0
LINE
  5
113DA
330
18
100
AcDbEntity
  8
DRAW2
100
AcDbLine
 10
1274.675733571094
 20
728.1228250287829
 30
0.0
 11
1274.675733571094
 21
633.6017928572628
 31
0.0
  0
LINE
  5
113DB
330
18
100
AcDbEntity
  8
DRAW2
100
AcDbLine
 10
1494.175719727048
 20
631.6017928572626
 30
0.0
 11
1389.425719727047
 21
631.6017928572627
 31
0.0
  0
LINE
  5
113DC
330
18
100
AcDbEntity
  8
DRAW2
100
AcDbLine
 10
1504.669350010044
 20
633.6017928572626
 30
0.0
 11
1416.669350010044
 21
633.6017928572626
 31
0.0
  0
LINE
  5
113DD
330
18
100
AcDbEntity
  8
DRAW2
100
AcDbLine
 10
1504.273130721233
 20
364.445305963411
 30
0.0
 11
1416.173090721233
 21
364.445305963411
 31
0.0
  0
LINE
  5
113DE
330
18
100
AcDbEntity
  8
DRAW2
100
AcDbLine
 10
1504.273130721233
 20
364.445305963411
 30
0.0
 11
1416.273060721233
 21
364.445305963411
 31
0.0
  0
LINE
  5
113DF
330
18
100
AcDbEntity
  8
DRAW2
100
AcDbLine
 10
1504.173090721233
 20
448.4453059634111
 30
0.0
 11
1416.173090721233
 21
448.4453059634111
 31
0.0
  0
LINE
  5
113E0
330
18
100
AcDbEntity
  8
DRAW2
100
AcDbLine
 10
1504.173090721233
 20
463.445305963411
 30
0.0
 11
1416.173090721233
 21
463.445305963411
 31
0.0
  0
LINE
  5
113E1
330
18
100
AcDbEntity
  8
DRAW2
100
AcDbLine
 10
1416.673060721232
 20
364.445305963411
 30
0.0
 11
1504.673130721233
 21
364.445305963411
 31
0.0
  0
LINE
  5
113E2
330
18
100
AcDbEntity
  8
DRAW2
100
AcDbLine
 10
1416.173090721233
 20
364.445305963411
 30
0.0
 11
1416.173090721233
 21
447.4453059634111
 31
0.0
  0
LINE
  5
113E3
330
18
100
AcDbEntity
  8
DRAW2
100
AcDbLine
 10
1273.173110721233
 20
364.445305963411
 30
0.0
 11
1273.173110721233
 21
463.445305963411
 31
0.0
  0
CIRCLE
  5
113E4
330
18
100
AcDbEntity
  8
DRAW2
100
AcDbCircle
 10
1314.673085721232
 20
224.4453059634111
 30
0.0
 40
14.75
  0
CIRCLE
  5
113E5
330
18
100
AcDbEntity
  8
DRAW2
100
AcDbCircle
 10
1314.673085721232
 20
224.4453059634111
 30
0.0
 40
11.5
  0
CIRCLE
  5
113E6
330
18
100
AcDbEntity
  8
DRAW3
100
AcDbCircle
 10
1314.673085721232
 20
224.4453059634111
 30
0.0
 40
10.475
  0
CIRCLE
  5
113E7
330
18
100
AcDbEntity
  8
DRAW2
100
AcDbCircle
 10
1314.673085721232
 20
224.4453059634111
 30
0.0
 40
9.3
  0
CIRCLE
  5
113E8
330
18
100
AcDbEntity
  8
DRAW2
100
AcDbCircle
 10
1314.673085721232
 20
224.4453059634111
 30
0.0
 40
6.0
  0
LINE
  5
113EA
330
18
100
AcDbEntity
  8
DRAW2
100
AcDbLine
 10
1273.173110721233
 20
365.4453659634109
 30
0.0
 11
1341.67311072113
 21
365.4453659634109
 31
0.0
  0
LINE
  5
113EB
330
18
100
AcDbEntity
  8
DRAW2
100
AcDbLine
 10
1274.673110721233
 20
362.4453059634106
 30
0.0
 11
1341.67311072113
 21
362.4453059634106
 31
0.0
  0
LINE
  5
113ED
330
18
100
AcDbEntity
  8
DRAW2
100
AcDbLine
 10
1303.348334068326
 20
222.445305963411
 30
0.0
 11
1300.059307975557
 21
222.445305963411
 31
0.0
  0
LINE
  5
113EE
330
18
100
AcDbEntity
  8
DRAW2
100
AcDbLine
 10
1303.348334068326
 20
226.4453059634112
 30
0.0
 11
1300.059307975557
 21
226.4453059634112
 31
0.0
  0
CIRCLE
  5
113EF
330
18
100
AcDbEntity
  8
DRAW2
100
AcDbCircle
 10
1374.673085721232
 20
224.4453059634111
 30
0.0
 40
14.75
  0
CIRCLE
  5
113F0
330
18
100
AcDbEntity
  8
DRAW3
100
AcDbCircle
 10
1374.673085721232
 20
224.4453059634111
 30
0.0
 40
10.475
  0
CIRCLE
  5
113F1
330
18
100
AcDbEntity
  8
DRAW2
100
AcDbCircle
 10
1374.673085721232
 20
224.4453059634111
 30
0.0
 40
11.5
  0
LINE
  5
113F2
330
18
100
AcDbEntity
  8
DRAW2
100
AcDbLine
 10
1329.286863466908
 20
222.445305963411
 30
0.0
 11
1325.997837374139
 21
222.445305963411
 31
0.0
  0
LINE
  5
113F3
330
18
100
AcDbEntity
  8
DRAW2
100
AcDbLine
 10
1329.286863466908
 20
226.4453059634112
 30
0.0
 11
1325.997837374139
 21
226.4453059634112
 31
0.0
  0
CIRCLE
  5
113F4
330
18
100
AcDbEntity
  8
DRAW2
100
AcDbCircle
 10
1374.673085721232
 20
224.4453059634111
 30
0.0
 40
6.0
  0
CIRCLE
  5
113F5
330
18
100
AcDbEntity
  8
DRAW2
100
AcDbCircle
 10
1374.673085721232
 20
224.4453059634111
 30
0.0
 40
9.3
  0
LINE
  5
113F7
330
18
100
AcDbEntity
  8
DRAW2
100
AcDbLine
 10
1360.059307975557
 20
222.445305963411
 30
0.0
 11
1363.348334068326
 21
222.445305963411
 31
0.0
  0
LINE
  5
113F8
330
18
100
AcDbEntity
  8
DRAW2
100
AcDbLine
 10
1360.059307975557
 20
226.4453059634112
 30
0.0
 11
1363.348334068326
 21
226.4453059634112
 31
0.0
  0
LINE
  5
113F9
330
18
100
AcDbEntity
  8
DRAW2
100
AcDbLine
 10
1385.997837374138
 20
222.445305963411
 30
0.0
 11
1389.286863466907
 21
222.445305963411
 31
0.0
  0
LINE
  5
113FA
330
18
100
AcDbEntity
  8
DRAW2
100
AcDbLine
 10
1385.997837374138
 20
226.4453059634112
 30
0.0
 11
1389.286863466907
 21
226.4453059634112
 31
0.0
  0
LINE
  5
113FB
330
18
100
AcDbEntity
  8
DRAW2
100
AcDbLine
 10
1347.67311072113
 20
362.4453059634106
 30
0.0
 11
1414.673110721233
 21
362.4453059634106
 31
0.0
  0
LINE
  5
113FC
330
18
100
AcDbEntity
  8
DRAW2
100
AcDbLine
 10
1347.67311072113
 20
365.4453659634109
 30
0.0
 11
1416.173090721233
 21
365.4453659634109
 31
0.0
  0
LINE
  5
113FD
330
18
100
AcDbEntity
  8
DRAW2
100
AcDbLine
 10
1347.67311072113
 20
350.1474388580092
 30
0.0
 11
1347.67311072113
 21
374.8629911391462
 31
0.0
  0
LINE
  5
113FE
330
18
100
AcDbEntity
  8
DRAW2
100
AcDbLine
 10
1341.67311072113
 20
350.1474388580092
 30
0.0
 11
1341.67311072113
 21
373.6287443166027
 31
0.0
  0
LINE
  5
113FF
330
18
100
AcDbEntity
  8
DRAW2
100
AcDbLine
 10
1350.656343613243
 20
344.9148486772287
 30
0.0
 11
1350.656343613243
 21
340.873899123294
 31
0.0
  0
LINE
  5
11400
330
18
100
AcDbEntity
  8
DRAW2
100
AcDbLine
 10
1338.68987782902
 20
344.9148486772287
 30
0.0
 11
1338.68987782902
 21
340.873899123294
 31
0.0
  0
LINE
  5
11401
330
18
100
AcDbEntity
  8
DRAW2
100
AcDbLine
 10
1344.673110721131
 20
342.6979032176624
 30
0.0
 11
1344.673110721131
 21
338.6569536637277
 31
0.0
  0
LINE
  5
11402
330
18
100
AcDbEntity
  8
DRAW2
100
AcDbLine
 10
1321.388501030306
 20
318.8040285611042
 30
0.0
 11
1323.888501030306
 21
319.8246546314059
 31
0.0
  0
LINE
  5
11403
330
18
100
AcDbEntity
  8
DRAW2
100
AcDbLine
 10
1323.888501030306
 20
319.8246546314059
 30
0.0
 11
1326.388501030306
 21
318.8040285611042
 31
0.0
  0
LINE
  5
11404
330
18
100
AcDbEntity
  8
DRAW2
100
AcDbLine
 10
1321.388501030306
 20
316.7627764205011
 30
0.0
 11
1323.888501030306
 21
315.7421503501995
 31
0.0
  0
LINE
  5
11405
330
18
100
AcDbEntity
  8
DRAW2
100
AcDbLine
 10
1323.888501030306
 20
315.7421503501995
 30
0.0
 11
1326.388501030306
 21
316.7627764205011
 31
0.0
  0
LINE
  5
11406
330
18
100
AcDbEntity
  8
DRAW2
100
AcDbLine
 10
1321.388501030306
 20
318.8040285611042
 30
0.0
 11
1321.388501030306
 21
316.7627764205011
 31
0.0
  0
LINE
  5
11407
330
18
100
AcDbEntity
  8
DRAW2
100
AcDbLine
 10
1326.388501030306
 20
318.8040285611042
 30
0.0
 11
1326.388501030306
 21
316.7627764205011
 31
0.0
  0
LINE
  5
11408
330
18
100
AcDbEntity
  8
DRAW2
100
AcDbLine
 10
1349.603497869196
 20
333.7711725511597
 30
0.0
 11
1349.53711072113
 21
331.9255240881071
 31
0.0
  0
LINE
  5
11409
330
18
100
AcDbEntity
  8
DRAW2
100
AcDbLine
 10
1339.742723573066
 20
333.7711725511596
 30
0.0
 11
1339.809110721132
 21
331.9255240881071
 31
0.0
  0
LINE
  5
1140A
330
18
100
AcDbEntity
  8
DRAW2
100
AcDbLine
 10
1349.673110721132
 20
338.0925138852398
 30
0.0
 11
1349.673110721131
 21
333.84987319812
 31
0.0
  0
LINE
  5
1140B
330
18
100
AcDbEntity
  8
DRAW2
100
AcDbLine
 10
1347.989735511487
 20
336.189377978663
 30
0.0
 11
1347.989735511487
 21
331.9467372915433
 31
0.0
  0
LINE
  5
1140C
330
18
100
AcDbEntity
  8
DRAW2
100
AcDbLine
 10
1341.356485930776
 20
336.189377978663
 30
0.0
 11
1341.356485930776
 21
331.9467372915433
 31
0.0
  0
LINE
  5
1140D
330
18
100
AcDbEntity
  8
DRAW2
100
AcDbLine
 10
1339.673110721132
 20
338.0925138852397
 30
0.0
 11
1339.673110721131
 21
333.84987319812
 31
0.0
  0
LINE
  5
1140E
330
18
100
AcDbEntity
  8
DRAW2
100
AcDbLine
 10
1347.989735511487
 20
331.9467372915433
 30
0.0
 11
1349.673110721131
 21
333.84987319812
 31
0.0
  0
LINE
  5
1140F
330
18
100
AcDbEntity
  8
DRAW2
100
AcDbLine
 10
1341.356485930776
 20
331.9467372915433
 30
0.0
 11
1347.989735511487
 21
331.9467372915433
 31
0.0
  0
LINE
  5
11410
330
18
100
AcDbEntity
  8
DRAW2
100
AcDbLine
 10
1339.673110721131
 20
333.84987319812
 30
0.0
 11
1341.356485930776
 21
331.9467372915433
 31
0.0
  0
LINE
  5
11411
330
18
100
AcDbEntity
  8
DRAW2
100
AcDbLine
 10
1347.989735511487
 20
336.189377978663
 30
0.0
 11
1349.673110721131
 21
338.0925138852397
 31
0.0
  0
LINE
  5
11412
330
18
100
AcDbEntity
  8
DRAW2
100
AcDbLine
 10
1339.673110721132
 20
338.0925138852397
 30
0.0
 11
1341.356485930776
 21
336.189377978663
 31
0.0
  0
LINE
  5
11413
330
18
100
AcDbEntity
  8
DRAW2
100
AcDbLine
 10
1341.356485930776
 20
336.189377978663
 30
0.0
 11
1347.989735511487
 21
336.189377978663
 31
0.0
  0
LINE
  5
11414
330
18
100
AcDbEntity
  8
DRAW2
100
AcDbLine
 10
1349.673110721132
 20
338.0925138852398
 30
0.0
 11
1349.673110721131
 21
340.5095854261393
 31
0.0
  0
LINE
  5
11415
330
18
100
AcDbEntity
  8
DRAW2
100
AcDbLine
 10
1339.673110721132
 20
338.0925138852397
 30
0.0
 11
1339.673110721132
 21
340.5095854261392
 31
0.0
  0
LINE
  5
11416
330
18
100
AcDbEntity
  8
DRAW2
100
AcDbLine
 10
1344.673110721131
 20
338.6569536637277
 30
0.0
 11
1350.656343613243
 21
340.873899123294
 31
0.0
  0
LINE
  5
11417
330
18
100
AcDbEntity
  8
DRAW2
100
AcDbLine
 10
1338.68987782902
 20
340.873899123294
 30
0.0
 11
1344.673110721131
 21
338.6569536637277
 31
0.0
  0
LINE
  5
11418
330
18
100
AcDbEntity
  8
DRAW2
100
AcDbLine
 10
1344.673110721131
 20
342.6979032176624
 30
0.0
 11
1350.656343613243
 21
344.9148486772287
 31
0.0
  0
LINE
  5
11419
330
18
100
AcDbEntity
  8
DRAW2
100
AcDbLine
 10
1338.68987782902
 20
344.9148486772287
 30
0.0
 11
1344.673110721131
 21
342.6979032176624
 31
0.0
  0
LINE
  5
1141A
330
18
100
AcDbEntity
  8
DRAW2
100
AcDbLine
 10
1350.422898779061
 20
349.828794555636
 30
0.0
 11
1350.656343613243
 21
349.7231747892968
 31
0.0
  0
LINE
  5
1141B
330
18
100
AcDbEntity
  8
DRAW2
100
AcDbLine
 10
1338.68987782902
 20
349.7231747892968
 30
0.0
 11
1338.9233226632
 21
349.8287945556351
 31
0.0
  0
LINE
  5
1141C
330
18
100
AcDbEntity
  8
DRAW2
100
AcDbLine
 10
1350.656343613243
 20
344.9148486772287
 30
0.0
 11
1350.656343613243
 21
349.7231747892968
 31
0.0
  0
LINE
  5
1141D
330
18
100
AcDbEntity
  8
DRAW2
100
AcDbLine
 10
1338.68987782902
 20
349.7231747892968
 30
0.0
 11
1338.68987782902
 21
344.9148486772287
 31
0.0
  0
LINE
  5
1141E
330
18
100
AcDbEntity
  8
DRAW2
100
AcDbLine
 10
1350.423110721131
 20
348.0261185144494
 30
0.0
 11
1350.423110721131
 21
349.7938854674159
 31
0.0
  0
LINE
  5
1141F
330
18
100
AcDbEntity
  8
DRAW2
100
AcDbLine
 10
1338.923110721131
 20
349.7938854674159
 30
0.0
 11
1338.923110721131
 21
348.0261185144494
 31
0.0
  0
LINE
  5
11420
330
18
100
AcDbEntity
  8
DRAW2
100
AcDbLine
 10
1367.957720411959
 20
318.8040285611042
 30
0.0
 11
1367.957720411959
 21
316.7627764205011
 31
0.0
  0
LINE
  5
11421
330
18
100
AcDbEntity
  8
DRAW2
100
AcDbLine
 10
1367.957720411959
 20
316.7627764205011
 30
0.0
 11
1365.457720411959
 21
315.7421503501995
 31
0.0
  0
LINE
  5
11422
330
18
100
AcDbEntity
  8
DRAW2
100
AcDbLine
 10
1367.957720411959
 20
318.8040285611042
 30
0.0
 11
1365.457720411959
 21
319.8246546314059
 31
0.0
  0
LINE
  5
11423
330
18
100
AcDbEntity
  8
DRAW2
100
AcDbLine
 10
1362.957720411959
 20
318.8040285611042
 30
0.0
 11
1362.957720411959
 21
316.7627764205011
 31
0.0
  0
LINE
  5
11424
330
18
100
AcDbEntity
  8
DRAW2
100
AcDbLine
 10
1365.457720411959
 20
315.7421503501995
 30
0.0
 11
1362.957720411959
 21
316.7627764205011
 31
0.0
  0
LINE
  5
11425
330
18
100
AcDbEntity
  8
DRAW2
100
AcDbLine
 10
1365.457720411959
 20
319.8246546314059
 30
0.0
 11
1362.957720411959
 21
318.8040285611042
 31
0.0
  0
LINE
  5
11426
330
18
100
AcDbEntity
  8
DRAW2
100
AcDbLine
 10
1274.675733571094
 20
633.6017928572628
 30
0.0
 11
1414.675733571094
 21
633.6017928572628
 31
0.0
  0
LINE
  5
11427
330
18
100
AcDbEntity
  8
DRAW2
100
AcDbLine
 10
1299.925719727048
 20
605.6017928572627
 30
0.0
 11
1329.425719727048
 21
605.6017928572627
 31
0.0
  0
LINE
  5
11428
330
18
100
AcDbEntity
  8
DRAW2
100
AcDbLine
 10
1273.173110721233
 20
447.4453059634111
 30
0.0
 11
1416.173090721233
 21
447.4453059634111
 31
0.0
  0
LINE
  5
11429
330
18
100
AcDbEntity
  8
DRAW2
100
AcDbLine
 10
1234.173210721233
 20
490.4451859634109
 30
0.0
 11
1212.173010721233
 21
490.4451859634109
 31
0.0
  0
LINE
  5
1142A
330
18
100
AcDbEntity
  8
DRAW2
100
AcDbLine
 10
1236.173110721233
 20
488.4452459634112
 30
0.0
 11
1210.173010721233
 21
488.4452459634112
 31
0.0
  0
LINE
  5
1142B
330
18
100
AcDbEntity
  8
DRAW2
100
AcDbLine
 10
1212.173110721233
 20
490.4451859634109
 30
0.0
 11
1210.173110721233
 21
488.4451859634109
 31
0.0
  0
LINE
  5
1142C
330
18
100
AcDbEntity
  8
DRAW2
100
AcDbLine
 10
1210.173210721233
 20
488.445305963411
 30
0.0
 11
1210.173210721233
 21
463.445305963411
 31
0.0
  0
LINE
  5
1142D
330
18
100
AcDbEntity
  8
DRAW2
100
AcDbLine
 10
1236.173210721233
 20
488.445305963411
 30
0.0
 11
1236.173210721233
 21
463.445305963411
 31
0.0
  0
LINE
  5
1142E
330
18
100
AcDbEntity
  8
DRAW2
100
AcDbLine
 10
1236.173210721233
 20
488.445125963411
 30
0.0
 11
1234.173310721233
 21
490.4451259634111
 31
0.0
  0
LINE
  5
1142F
330
18
100
AcDbEntity
  8
DRAW2
100
AcDbLine
 10
1299.925719727048
 20
631.6017928572627
 30
0.0
 11
1195.175719727048
 21
631.6017928572626
 31
0.0
  0
LINE
  5
11430
330
18
100
AcDbEntity
  8
DRAW2
100
AcDbLine
 10
1193.175719727048
 20
633.6017928572626
 30
0.0
 11
1195.175719727048
 21
631.6017928572627
 31
0.0
  0
LINE
  5
11431
330
18
100
AcDbEntity
  8
DRAW2
100
AcDbLine
 10
1299.925719727048
 20
605.6017928572627
 30
0.0
 11
1299.925719727048
 21
633.6017928572628
 31
0.0
  0
LINE
  5
11432
330
18
100
AcDbEntity
  8
DRAW2
100
AcDbLine
 10
1416.173090721233
 20
447.4453059634111
 30
0.0
 11
1416.173090721233
 21
463.445305963411
 31
0.0
  0
LINE
  5
11433
330
18
100
AcDbEntity
  8
DRAW2
100
AcDbLine
 10
1359.925719727048
 20
605.6017928572627
 30
0.0
 11
1389.425719727048
 21
605.6017928572627
 31
0.0
  0
LINE
  5
11434
330
18
100
AcDbEntity
  8
DRAW2
100
AcDbLine
 10
1359.925719727048
 20
605.6017928572627
 30
0.0
 11
1359.925719727048
 21
633.6017928572628
 31
0.0
  0
LINE
  5
11435
330
18
100
AcDbEntity
  8
DRAW2
100
AcDbLine
 10
1329.425719727048
 20
605.6017928572627
 30
0.0
 11
1329.425719727048
 21
633.6017928572628
 31
0.0
  0
LINE
  5
11436
330
18
100
AcDbEntity
  8
DRAW2
100
AcDbLine
 10
1359.925719727048
 20
631.6017928572627
 30
0.0
 11
1329.425719727048
 21
631.6017928572627
 31
0.0
  0
LINE
  5
11437
330
18
100
AcDbEntity
  8
DRAW2
100
AcDbLine
 10
1347.67571972686
 20
664.3848880564943
 30
0.0
 11
1347.67571972686
 21
640.58504994821
 31
0.0
  0
LINE
  5
11438
330
18
100
AcDbEntity
  8
DRAW2
100
AcDbLine
 10
1341.675719726859
 20
664.3848880564943
 30
0.0
 11
1341.675719726859
 21
639.7889406778115
 31
0.0
  0
LINE
  5
11439
330
18
100
AcDbEntity
  8
DRAW2
100
AcDbLine
 10
1321.391110036221
 20
670.2724649189636
 30
0.0
 11
1323.891110036221
 21
669.2518495369458
 31
0.0
  0
LINE
  5
1143A
330
18
100
AcDbEntity
  8
DRAW2
100
AcDbLine
 10
1323.891110036221
 20
669.2518495369458
 30
0.0
 11
1326.391110036222
 21
670.2724649189636
 31
0.0
  0
LINE
  5
1143B
330
18
100
AcDbEntity
  8
DRAW2
100
AcDbLine
 10
1321.391110036221
 20
670.2724649189636
 30
0.0
 11
1321.391110036221
 21
672.3136956829992
 31
0.0
  0
LINE
  5
1143C
330
18
100
AcDbEntity
  8
DRAW2
100
AcDbLine
 10
1326.391110036222
 20
670.2724649189636
 30
0.0
 11
1326.391110036222
 21
672.3136956829992
 31
0.0
  0
LINE
  5
1143D
330
18
100
AcDbEntity
  8
DRAW2
100
AcDbLine
 10
1323.891110036221
 20
673.3343110650168
 30
0.0
 11
1326.391110036222
 21
672.3136956829992
 31
0.0
  0
LINE
  5
1143E
330
18
100
AcDbEntity
  8
DRAW2
100
AcDbLine
 10
1321.391110036221
 20
672.3136956829992
 30
0.0
 11
1323.891110036221
 21
673.3343110650168
 31
0.0
  0
LINE
  5
1143F
330
18
100
AcDbEntity
  8
DRAW2
100
AcDbLine
 10
1350.658952618972
 20
673.6584277912087
 30
0.0
 11
1350.658952618972
 21
669.6174782372747
 31
0.0
  0
LINE
  5
11440
330
18
100
AcDbEntity
  8
DRAW2
100
AcDbLine
 10
1338.692486834749
 20
673.6584277912087
 30
0.0
 11
1338.692486834749
 21
669.6174782372747
 31
0.0
  0
LINE
  5
11441
330
18
100
AcDbEntity
  8
DRAW2
100
AcDbLine
 10
1350.425507784791
 20
664.7035323588672
 30
0.0
 11
1350.658952618972
 21
664.8091521252058
 31
0.0
  0
LINE
  5
11442
330
18
100
AcDbEntity
  8
DRAW2
100
AcDbLine
 10
1338.692486834749
 20
664.8091521252058
 30
0.0
 11
1338.92593166893
 21
664.703532358867
 31
0.0
  0
LINE
  5
11443
330
18
100
AcDbEntity
  8
DRAW2
100
AcDbLine
 10
1344.675719726861
 20
671.8344236968414
 30
0.0
 11
1350.658952618972
 21
669.6174782372747
 31
0.0
  0
LINE
  5
11444
330
18
100
AcDbEntity
  8
DRAW2
100
AcDbLine
 10
1338.692486834749
 20
669.6174782372747
 30
0.0
 11
1344.675719726861
 21
671.8344236968414
 31
0.0
  0
LINE
  5
11445
330
18
100
AcDbEntity
  8
DRAW2
100
AcDbLine
 10
1350.658952618972
 20
664.8091521252058
 30
0.0
 11
1350.658952618972
 21
669.6174782372747
 31
0.0
  0
LINE
  5
11446
330
18
100
AcDbEntity
  8
DRAW2
100
AcDbLine
 10
1338.692486834749
 20
669.6174782372747
 30
0.0
 11
1338.692486834749
 21
664.8091521252058
 31
0.0
  0
LINE
  5
11447
330
18
100
AcDbEntity
  8
DRAW2
100
AcDbLine
 10
1350.425719726861
 20
666.5062084000537
 30
0.0
 11
1350.425719726861
 21
664.7384414470876
 31
0.0
  0
LINE
  5
11448
330
18
100
AcDbEntity
  8
DRAW2
100
AcDbLine
 10
1338.925719726861
 20
664.7384414470876
 30
0.0
 11
1338.925719726861
 21
666.5062084000537
 31
0.0
  0
LINE
  5
11449
330
18
100
AcDbEntity
  8
DRAW2
100
AcDbLine
 10
1367.960329417875
 20
672.3136956829992
 30
0.0
 11
1365.460329417874
 21
673.3343110650168
 31
0.0
  0
LINE
  5
1144A
330
18
100
AcDbEntity
  8
DRAW2
100
AcDbLine
 10
1365.460329417874
 20
673.3343110650168
 30
0.0
 11
1362.960329417874
 21
672.3136956829992
 31
0.0
  0
LINE
  5
1144B
330
18
100
AcDbEntity
  8
DRAW2
100
AcDbLine
 10
1362.960329417874
 20
670.2724649189636
 30
0.0
 11
1362.960329417874
 21
672.3136956829992
 31
0.0
  0
LINE
  5
1144C
330
18
100
AcDbEntity
  8
DRAW2
100
AcDbLine
 10
1367.960329417875
 20
670.2724649189636
 30
0.0
 11
1367.960329417875
 21
672.3136956829992
 31
0.0
  0
LINE
  5
1144D
330
18
100
AcDbEntity
  8
DRAW2
100
AcDbLine
 10
1365.460329417874
 20
669.2518495369458
 30
0.0
 11
1362.960329417874
 21
670.2724649189636
 31
0.0
  0
LINE
  5
1144E
330
18
100
AcDbEntity
  8
DRAW2
100
AcDbLine
 10
1367.960329417875
 20
670.2724649189636
 30
0.0
 11
1365.460329417874
 21
669.2518495369458
 31
0.0
  0
LINE
  5
1144F
330
18
100
AcDbEntity
  8
DRAW2
100
AcDbLine
 10
1389.425719727048
 20
605.6017928572627
 30
0.0
 11
1389.425719727047
 21
633.6017928572628
 31
0.0
  0
LINE
  5
11450
330
18
100
AcDbEntity
  8
DRAW2
100
AcDbLine
 10
1504.173090721233
 20
364.445305963411
 30
0.0
 11
1504.173090721233
 21
463.445305963411
 31
0.0
  0
LINE
  5
11451
330
18
100
AcDbEntity
  8
DRAW2
100
AcDbLine
 10
1545.173030721232
 20
354.778005963411
 30
0.0
 11
1545.173030721232
 21
468.9452459634112
 31
0.0
  0
LINE
  5
11452
330
18
100
AcDbEntity
  8
DRAW2
100
AcDbLine
 10
1539.172970721233
 20
468.4452459634112
 30
0.0
 11
1539.172970721233
 21
354.7780059634111
 31
0.0
  0
LINE
  5
11453
330
18
100
AcDbEntity
  8
DRAW2
100
AcDbLine
 10
1542.172970721233
 20
468.4452459634112
 30
0.0
 11
1542.172970721233
 21
354.7780059634111
 31
0.0
  0
LINE
  5
11454
330
18
100
AcDbEntity
  8
DRAW2
100
AcDbLine
 10
1565.173030721233
 20
343.945245963411
 30
0.0
 11
1565.173030721233
 21
468.9452459634112
 31
0.0
  0
LINE
  5
11456
330
18
100
AcDbEntity
  8
DRAW2
100
AcDbLine
 10
1545.673130721233
 20
286.0460759634111
 30
0.0
 11
1545.673130721233
 21
260.046015963411
 31
0.0
  0
LINE
  5
11457
330
18
100
AcDbEntity
  8
DRAW2
100
AcDbLine
 10
1547.673060721233
 20
284.046195963411
 30
0.0
 11
1547.673060721233
 21
262.046015963411
 31
0.0
  0
LINE
  5
11458
330
18
100
AcDbEntity
  8
DRAW2
100
AcDbLine
 10
1545.673130721233
 20
260.046015963411
 30
0.0
 11
1520.673130721233
 21
260.046015963411
 31
0.0
  0
LINE
  5
11459
330
18
100
AcDbEntity
  8
DRAW2
100
AcDbLine
 10
1547.673060721233
 20
262.046015963411
 30
0.0
 11
1545.673130721233
 21
260.046015963411
 31
0.0
  0
LINE
  5
1145A
330
18
100
AcDbEntity
  8
DRAW2
100
AcDbLine
 10
1545.673130721233
 20
286.0460759634111
 30
0.0
 11
1520.673130721233
 21
286.0460759634111
 31
0.0
  0
LINE
  5
1145B
330
18
100
AcDbEntity
  8
DRAW2
100
AcDbLine
 10
1545.673000721233
 20
286.0458959634111
 30
0.0
 11
1547.672880721233
 21
284.0460759634111
 31
0.0
  0
LINE
  5
1145C
330
18
100
AcDbEntity
  8
DRAW2
100
AcDbLine
 10
1520.673130721233
 20
362.445305963411
 30
0.0
 11
1504.673130721233
 21
362.445305963411
 31
0.0
  0
LINE
  5
1145D
330
18
100
AcDbEntity
  8
DRAW2
100
AcDbLine
 10
1520.673130721233
 20
362.445305963411
 30
0.0
 11
1504.673130721233
 21
362.445305963411
 31
0.0
  0
LINE
  5
1145E
330
18
100
AcDbEntity
  8
DRAW2
100
AcDbLine
 10
1504.173090721233
 20
378.4453059634111
 30
0.0
 11
1539.172970721233
 21
378.4453059634111
 31
0.0
  0
LINE
  5
11460
330
18
100
AcDbEntity
  8
DRAW2
100
AcDbLine
 10
1547.673060721233
 20
343.945245963411
 30
0.0
 11
1565.173030721233
 21
343.945245963411
 31
0.0
  0
LINE
  5
11462
330
18
100
AcDbEntity
  8
DRAW2
100
AcDbLine
 10
1547.673060721233
 20
352.7781259634109
 30
0.0
 11
1547.673060721233
 21
330.7779459634109
 31
0.0
  0
LINE
  5
11463
330
18
100
AcDbEntity
  8
DRAW2
100
AcDbLine
 10
1545.673130721233
 20
354.778005963411
 30
0.0
 11
1545.673130721233
 21
328.7779459634109
 31
0.0
  0
LINE
  5
11464
330
18
100
AcDbEntity
  8
DRAW2
100
AcDbLine
 10
1545.673130721233
 20
328.7779459634109
 30
0.0
 11
1520.673130721233
 21
328.7779459634109
 31
0.0
  0
LINE
  5
11465
330
18
100
AcDbEntity
  8
DRAW2
100
AcDbLine
 10
1547.673060721233
 20
330.7779459634109
 30
0.0
 11
1545.673130721233
 21
328.7779459634109
 31
0.0
  0
LINE
  5
11466
330
18
100
AcDbEntity
  8
DRAW2
100
AcDbLine
 10
1545.673130721233
 20
354.778005963411
 30
0.0
 11
1520.673130721233
 21
354.778005963411
 31
0.0
  0
LINE
  5
11467
330
18
100
AcDbEntity
  8
DRAW2
100
AcDbLine
 10
1545.673000721233
 20
354.777825963411
 30
0.0
 11
1547.672880721233
 21
352.778005963411
 31
0.0
  0
LINE
  5
11468
330
18
100
AcDbEntity
  8
DRAW2
100
AcDbLine
 10
1682.465024921825
 20
288.0561435444553
 30
0.0
 11
1682.465024921825
 21
332.2121320931817
 31
0.0
  0
LINE
  5
11469
330
18
100
AcDbEntity
  8
DRAW2
100
AcDbLine
 10
1683.465024921825
 20
288.0561435444553
 30
0.0
 11
1683.465024921825
 21
332.3716799727219
 31
0.0
  0
LINE
  5
1146A
330
18
100
AcDbEntity
  8
DRAW2
100
AcDbLine
 10
1701.465024921834
 20
327.1148656536913
 30
0.0
 11
1701.465024921824
 21
307.1148656536913
 31
0.0
  0
LINE
  5
1146B
330
18
100
AcDbEntity
  8
DRAW2
100
AcDbLine
 10
1697.465024921832
 20
327.1148656536913
 30
0.0
 11
1697.465024921816
 21
307.1148656536913
 31
0.0
  0
LINE
  5
1146D
330
18
100
AcDbEntity
  8
DRAW2
100
AcDbLine
 10
1676.590024921824
 20
288.0561435444553
 30
0.0
 11
1676.590024921825
 21
332.3716799727205
 31
0.0
  0
LINE
  5
1146E
330
18
100
AcDbEntity
  8
DRAW2
100
AcDbLine
 10
1675.340024921824
 20
288.0561435444553
 30
0.0
 11
1675.340024921825
 21
332.2121320931815
 31
0.0
  0
LINE
  5
11471
330
18
100
AcDbEntity
  8
DRAW2
100
AcDbLine
 10
1671.965024921825
 20
288.0561435444553
 30
0.0
 11
1686.965024921825
 21
288.0561435444558
 31
0.0
  0
LINE
  5
11472
330
18
100
AcDbEntity
  8
DRAW2
100
AcDbLine
 10
1678.715024921825
 20
281.0561435444562
 30
0.0
 11
1680.215024921825
 21
281.0561435444562
 31
0.0
  0
LINE
  5
11473
330
18
100
AcDbEntity
  8
DRAW2
100
AcDbLine
 10
1678.565024921825
 20
279.5561435444558
 30
0.0
 11
1678.565024921825
 21
283.5561435444558
 31
0.0
  0
LINE
  5
11474
330
18
100
AcDbEntity
  8
DRAW2
100
AcDbLine
 10
1673.365024921825
 20
279.5561435444558
 30
0.0
 11
1673.365024921824
 21
283.5561435444558
 31
0.0
  0
LINE
  5
11475
330
18
100
AcDbEntity
  8
DRAW2
100
AcDbLine
 10
1678.715024921825
 20
281.0561435444562
 30
0.0
 11
1678.715024921825
 21
284.0561435444553
 31
0.0
  0
LINE
  5
11476
330
18
100
AcDbEntity
  8
DRAW2
100
AcDbLine
 10
1677.165024921825
 20
267.0561435444558
 30
0.0
 11
1677.165024921825
 21
277.0561435444562
 31
0.0
  0
LINE
  5
11477
330
18
100
AcDbEntity
  8
DRAW2
100
AcDbLine
 10
1674.765024921824
 20
267.0561435444558
 30
0.0
 11
1674.765024921824
 21
277.0561435444562
 31
0.0
  0
LINE
  5
11478
330
18
100
AcDbEntity
  8
DRAW2
100
AcDbLine
 10
1674.765024921824
 20
267.0561435444558
 30
0.0
 11
1677.165024921825
 21
267.0561435444562
 31
0.0
  0
LINE
  5
11479
330
18
100
AcDbEntity
  8
DRAW2
100
AcDbLine
 10
1678.565024921825
 20
279.5561435444558
 30
0.0
 11
1677.165024921824
 21
277.0561435444558
 31
0.0
  0
LINE
  5
1147A
330
18
100
AcDbEntity
  8
DRAW2
100
AcDbLine
 10
1673.365024921825
 20
279.5561435444558
 30
0.0
 11
1674.765024921824
 21
277.0561435444558
 31
0.0
  0
LINE
  5
1147B
330
18
100
AcDbEntity
  8
DRAW2
100
AcDbLine
 10
1674.765024921824
 20
277.0561435444558
 30
0.0
 11
1677.165024921825
 21
277.0561435444558
 31
0.0
  0
LINE
  5
1147C
330
18
100
AcDbEntity
  8
DRAW2
100
AcDbLine
 10
1673.365024921825
 20
279.5561435444558
 30
0.0
 11
1678.565024921825
 21
279.5561435444558
 31
0.0
  0
LINE
  5
1147D
330
18
100
AcDbEntity
  8
DRAW2
100
AcDbLine
 10
1671.965024921825
 20
284.0561435444558
 30
0.0
 11
1671.965024921825
 21
288.0561435444553
 31
0.0
  0
LINE
  5
1147E
330
18
100
AcDbEntity
  8
DRAW2
100
AcDbLine
 10
1671.965024921825
 20
284.0561435444558
 30
0.0
 11
1678.715024921825
 21
284.0561435444553
 31
0.0
  0
LINE
  5
1147F
330
18
100
AcDbEntity
  8
DRAW2
100
AcDbLine
 10
1673.365024921824
 20
283.5561435444558
 30
0.0
 11
1678.565024921825
 21
283.5561435444558
 31
0.0
  0
LINE
  5
11480
330
18
100
AcDbEntity
  8
DRAW2
100
AcDbLine
 10
1677.215024921824
 20
283.5561435444562
 30
0.0
 11
1677.215024921824
 21
284.0561435444553
 31
0.0
  0
LINE
  5
11481
330
18
100
AcDbEntity
  8
DRAW2
100
AcDbLine
 10
1674.715024921825
 20
283.5561435444562
 30
0.0
 11
1674.715024921825
 21
284.0561435444553
 31
0.0
  0
LINE
  5
11482
330
18
100
AcDbEntity
  8
DRAW2
100
AcDbLine
 10
1700.365024921825
 20
279.5561435444558
 30
0.0
 11
1700.365024921824
 21
283.5561435444558
 31
0.0
  0
LINE
  5
11483
330
18
100
AcDbEntity
  8
DRAW2
100
AcDbLine
 10
1698.565024921824
 20
279.5561435444558
 30
0.0
 11
1698.565024921824
 21
283.5561435444558
 31
0.0
  0
LINE
  5
11484
330
18
100
AcDbEntity
  8
DRAW2
100
AcDbLine
 10
1705.565024921825
 20
279.5561435444558
 30
0.0
 11
1705.565024921825
 21
283.5561435444558
 31
0.0
  0
LINE
  5
11485
330
18
100
AcDbEntity
  8
DRAW2
100
AcDbLine
 10
1680.365024921825
 20
279.5561435444558
 30
0.0
 11
1680.365024921824
 21
283.5561435444558
 31
0.0
  0
LINE
  5
11486
330
18
100
AcDbEntity
  8
DRAW2
100
AcDbLine
 10
1685.565024921825
 20
279.5561435444558
 30
0.0
 11
1685.565024921825
 21
283.5561435444558
 31
0.0
  0
LINE
  5
11487
330
18
100
AcDbEntity
  8
DRAW2
100
AcDbLine
 10
1693.365024921825
 20
279.5561435444558
 30
0.0
 11
1693.365024921824
 21
283.5561435444558
 31
0.0
  0
LINE
  5
1148A
330
18
100
AcDbEntity
  8
DRAW2
100
AcDbLine
 10
1680.215024921825
 20
281.0561435444562
 30
0.0
 11
1680.215024921825
 21
284.0561435444553
 31
0.0
  0
LINE
  5
1148B
330
18
100
AcDbEntity
  8
DRAW2
100
AcDbLine
 10
1698.715024921825
 20
281.0561435444562
 30
0.0
 11
1698.715024921825
 21
284.0561435444553
 31
0.0
  0
LINE
  5
1148C
330
18
100
AcDbEntity
  8
DRAW2
100
AcDbLine
 10
1700.215024921825
 20
281.0561435444562
 30
0.0
 11
1700.215024921825
 21
284.0561435444553
 31
0.0
  0
LINE
  5
1148D
330
18
100
AcDbEntity
  8
DRAW2
100
AcDbLine
 10
1694.765024921824
 20
267.0561435444558
 30
0.0
 11
1697.165024921825
 21
267.0561435444562
 31
0.0
  0
LINE
  5
1148E
330
18
100
AcDbEntity
  8
DRAW2
100
AcDbLine
 10
1694.765024921824
 20
277.0561435444558
 30
0.0
 11
1697.165024921825
 21
277.0561435444558
 31
0.0
  0
LINE
  5
1148F
330
18
100
AcDbEntity
  8
DRAW2
100
AcDbLine
 10
1693.365024921825
 20
279.5561435444558
 30
0.0
 11
1698.565024921824
 21
279.5561435444558
 31
0.0
  0
LINE
  5
11490
330
18
100
AcDbEntity
  8
DRAW2
100
AcDbLine
 10
1684.165024921825
 20
267.0561435444558
 30
0.0
 11
1684.165024921825
 21
277.0561435444562
 31
0.0
  0
LINE
  5
11491
330
18
100
AcDbEntity
  8
DRAW2
100
AcDbLine
 10
1694.765024921824
 20
267.0561435444558
 30
0.0
 11
1694.765024921824
 21
277.0561435444562
 31
0.0
  0
LINE
  5
11492
330
18
100
AcDbEntity
  8
DRAW2
100
AcDbLine
 10
1681.765024921824
 20
267.0561435444558
 30
0.0
 11
1681.765024921824
 21
277.0561435444562
 31
0.0
  0
LINE
  5
11493
330
18
100
AcDbEntity
  8
DRAW2
100
AcDbLine
 10
1681.765024921824
 20
267.0561435444558
 30
0.0
 11
1684.165024921825
 21
267.0561435444562
 31
0.0
  0
LINE
  5
11494
330
18
100
AcDbEntity
  8
DRAW2
100
AcDbLine
 10
1681.765024921824
 20
277.0561435444558
 30
0.0
 11
1684.165024921825
 21
277.0561435444558
 31
0.0
  0
LINE
  5
11495
330
18
100
AcDbEntity
  8
DRAW2
100
AcDbLine
 10
1680.365024921825
 20
279.5561435444558
 30
0.0
 11
1685.565024921825
 21
279.5561435444558
 31
0.0
  0
LINE
  5
11496
330
18
100
AcDbEntity
  8
DRAW2
100
AcDbLine
 10
1680.365024921825
 20
279.5561435444558
 30
0.0
 11
1681.765024921824
 21
277.0561435444558
 31
0.0
  0
LINE
  5
11497
330
18
100
AcDbEntity
  8
DRAW2
100
AcDbLine
 10
1693.365024921825
 20
279.5561435444558
 30
0.0
 11
1694.765024921824
 21
277.0561435444558
 31
0.0
  0
LINE
  5
11498
330
18
100
AcDbEntity
  8
DRAW2
100
AcDbLine
 10
1685.565024921825
 20
279.5561435444558
 30
0.0
 11
1684.165024921824
 21
277.0561435444558
 31
0.0
  0
LINE
  5
11499
330
18
100
AcDbEntity
  8
DRAW2
100
AcDbLine
 10
1704.165024921825
 20
267.0561435444558
 30
0.0
 11
1704.165024921825
 21
277.0561435444562
 31
0.0
  0
LINE
  5
1149A
330
18
100
AcDbEntity
  8
DRAW2
100
AcDbLine
 10
1701.765024921825
 20
267.0561435444558
 30
0.0
 11
1701.765024921825
 21
277.0561435444562
 31
0.0
  0
LINE
  5
1149B
330
18
100
AcDbEntity
  8
DRAW2
100
AcDbLine
 10
1697.165024921825
 20
267.0561435444558
 30
0.0
 11
1697.165024921825
 21
277.0561435444562
 31
0.0
  0
LINE
  5
1149C
330
18
100
AcDbEntity
  8
DRAW2
100
AcDbLine
 10
1701.765024921825
 20
267.0561435444558
 30
0.0
 11
1704.165024921825
 21
267.0561435444562
 31
0.0
  0
LINE
  5
1149D
330
18
100
AcDbEntity
  8
DRAW2
100
AcDbLine
 10
1700.365024921825
 20
279.5561435444558
 30
0.0
 11
1701.765024921825
 21
277.0561435444558
 31
0.0
  0
LINE
  5
1149E
330
18
100
AcDbEntity
  8
DRAW2
100
AcDbLine
 10
1700.365024921825
 20
279.5561435444558
 30
0.0
 11
1705.565024921825
 21
279.5561435444558
 31
0.0
  0
LINE
  5
1149F
330
18
100
AcDbEntity
  8
DRAW2
100
AcDbLine
 10
1698.565024921824
 20
279.5561435444558
 30
0.0
 11
1697.165024921825
 21
277.0561435444558
 31
0.0
  0
LINE
  5
114A0
330
18
100
AcDbEntity
  8
DRAW2
100
AcDbLine
 10
1705.565024921825
 20
279.5561435444558
 30
0.0
 11
1704.165024921825
 21
277.0561435444558
 31
0.0
  0
LINE
  5
114A1
330
18
100
AcDbEntity
  8
DRAW2
100
AcDbLine
 10
1701.765024921825
 20
277.0561435444558
 30
0.0
 11
1704.165024921825
 21
277.0561435444558
 31
0.0
  0
LINE
  5
114A2
330
18
100
AcDbEntity
  8
DRAW2
100
AcDbLine
 10
1698.715024921825
 20
281.0561435444562
 30
0.0
 11
1700.215024921825
 21
281.0561435444562
 31
0.0
  0
LINE
  5
114A3
330
18
100
AcDbEntity
  8
DRAW2
100
AcDbLine
 10
1691.965024921825
 20
284.0561435444558
 30
0.0
 11
1698.715024921825
 21
284.0561435444553
 31
0.0
  0
LINE
  5
114A4
330
18
100
AcDbEntity
  8
DRAW2
100
AcDbLine
 10
1691.965024921825
 20
288.0561435444553
 30
0.0
 11
1706.965024921825
 21
288.0561435444558
 31
0.0
  0
ARC
  5
114A5
330
18
100
AcDbEntity
  8
DRAW2
100
AcDbCircle
 10
1721.590024921824
 20
289.0561435444547
 30
0.0
 40
25.0
100
AcDbArc
 50
160.4757284897065
 51
180.0
  0
ARC
  5
114A6
330
18
100
AcDbEntity
  8
DRAW2
100
AcDbCircle
 10
1721.590024921824
 20
289.0561435444547
 30
0.0
 40
26.25
100
AcDbArc
 50
160.4757284897065
 51
180.0
  0
LINE
  5
114A8
330
18
100
AcDbEntity
  8
DRAW2
100
AcDbLine
 10
1693.365024921824
 20
283.5561435444558
 30
0.0
 11
1698.565024921824
 21
283.5561435444558
 31
0.0
  0
LINE
  5
114A9
330
18
100
AcDbEntity
  8
DRAW2
100
AcDbLine
 10
1686.965024921825
 20
284.0561435444558
 30
0.0
 11
1680.215024921825
 21
284.0561435444553
 31
0.0
  0
LINE
  5
114AA
330
18
100
AcDbEntity
  8
DRAW2
100
AcDbLine
 10
1686.965024921825
 20
284.0561435444558
 30
0.0
 11
1686.965024921825
 21
288.0561435444553
 31
0.0
  0
LINE
  5
114AB
330
18
100
AcDbEntity
  8
DRAW2
100
AcDbLine
 10
1691.965024921825
 20
284.0561435444558
 30
0.0
 11
1691.965024921825
 21
288.0561435444553
 31
0.0
  0
LINE
  5
114AC
330
18
100
AcDbEntity
  8
DRAW2
100
AcDbLine
 10
1696.590024921824
 20
289.0561435444549
 30
0.0
 11
1696.590024921824
 21
288.0561435444553
 31
0.0
  0
LINE
  5
114AD
330
18
100
AcDbEntity
  8
DRAW2
100
AcDbLine
 10
1695.340024921824
 20
289.0561435444549
 30
0.0
 11
1695.340024921824
 21
288.0561435444553
 31
0.0
  0
LINE
  5
114AE
330
18
100
AcDbEntity
  8
DRAW2
100
AcDbLine
 10
1680.365024921824
 20
283.5561435444558
 30
0.0
 11
1685.565024921825
 21
283.5561435444558
 31
0.0
  0
LINE
  5
114AF
330
18
100
AcDbEntity
  8
DRAW2
100
AcDbLine
 10
1681.715024921825
 20
283.5561435444562
 30
0.0
 11
1681.715024921825
 21
284.0561435444553
 31
0.0
  0
LINE
  5
114B0
330
18
100
AcDbEntity
  8
DRAW2
100
AcDbLine
 10
1684.215024921825
 20
283.5561435444562
 30
0.0
 11
1684.215024921825
 21
284.0561435444553
 31
0.0
  0
LINE
  5
114B1
330
18
100
AcDbEntity
  8
DRAW2
100
AcDbLine
 10
1694.715024921825
 20
283.5561435444562
 30
0.0
 11
1694.715024921825
 21
284.0561435444553
 31
0.0
  0
LINE
  5
114B2
330
18
100
AcDbEntity
  8
DRAW2
100
AcDbLine
 10
1698.21502492182
 20
305.7664509922563
 30
0.0
 11
1698.21502492182
 21
307.1148656536913
 31
0.0
  0
LINE
  5
114B3
330
18
100
AcDbEntity
  8
DRAW2
100
AcDbLine
 10
1700.46502492182
 20
306.1148656536872
 30
0.0
 11
1700.46502492182
 21
307.1148656536913
 31
0.0
  0
LINE
  5
114B4
330
18
100
AcDbEntity
  8
DRAW2
100
AcDbLine
 10
1699.465024921825
 20
305.7664509922563
 30
0.0
 11
1699.465024921825
 21
307.1148656536913
 31
0.0
  0
LINE
  5
114B7
330
18
100
AcDbEntity
  8
DRAW2
100
AcDbLine
 10
1706.965024921825
 20
284.0561435444558
 30
0.0
 11
1706.965024921825
 21
288.0561435444553
 31
0.0
  0
LINE
  5
114B8
330
18
100
AcDbEntity
  8
DRAW2
100
AcDbLine
 10
1706.965024921825
 20
284.0561435444558
 30
0.0
 11
1700.215024921825
 21
284.0561435444553
 31
0.0
  0
ARC
  5
114B9
330
18
100
AcDbEntity
  8
DRAW2
100
AcDbCircle
 10
1677.465024921825
 20
289.0561435444553
 30
0.0
 40
25.0
100
AcDbArc
 50
0.0
 51
19.94844358880077
  0
ARC
  5
114BB
330
18
100
AcDbEntity
  8
DRAW2
100
AcDbCircle
 10
1724.465024921824
 20
306.114865653687
 30
0.0
 40
24.0
100
AcDbArc
 50
180.0
 51
199.9484435888007
  0
ARC
  5
114BC
330
18
100
AcDbEntity
  8
DRAW2
100
AcDbCircle
 10
1674.465024921825
 20
305.7664509922563
 30
0.0
 40
25.0
100
AcDbArc
 50
340.4757284897065
 51
0.0
  0
ARC
  5
114BD
330
18
100
AcDbEntity
  8
DRAW2
100
AcDbCircle
 10
1724.465024921824
 20
306.114865653687
 30
0.0
 40
25.0
100
AcDbArc
 50
180.0
 51
199.9484435888007
  0
ARC
  5
114BE
330
18
100
AcDbEntity
  8
DRAW2
100
AcDbCircle
 10
1674.465024921825
 20
305.7664509922563
 30
0.0
 40
23.75
100
AcDbArc
 50
340.4757284897065
 51
0.0
  0
LINE
  5
114C1
330
18
100
AcDbEntity
  8
DRAW2
100
AcDbLine
 10
1703.465024921825
 20
289.0561435444553
 30
0.0
 11
1703.465024921825
 21
288.0561435444553
 31
0.0
  0
LINE
  5
114C2
330
18
100
AcDbEntity
  8
DRAW2
100
AcDbLine
 10
1702.465024921825
 20
289.0561435444553
 30
0.0
 11
1702.465024921825
 21
288.0561435444553
 31
0.0
  0
ARC
  5
114C3
330
18
100
AcDbEntity
  8
DRAW2
100
AcDbCircle
 10
1677.465024921825
 20
289.0561435444553
 30
0.0
 40
26.0
100
AcDbArc
 50
0.0
 51
19.94844358880077
  0
LINE
  5
114C4
330
18
100
AcDbEntity
  8
DRAW2
100
AcDbLine
 10
1697.465024921816
 20
307.1148656536913
 30
0.0
 11
1701.465024921824
 21
307.1148656536913
 31
0.0
  0
LINE
  5
114C5
330
18
100
AcDbEntity
  8
DRAW2
100
AcDbLine
 10
1700.365024921824
 20
283.5561435444558
 30
0.0
 11
1705.565024921825
 21
283.5561435444558
 31
0.0
  0
LINE
  5
114C6
330
18
100
AcDbEntity
  8
DRAW2
100
AcDbLine
 10
1697.215024921825
 20
283.5561435444562
 30
0.0
 11
1697.215024921825
 21
284.0561435444553
 31
0.0
  0
LINE
  5
114C7
330
18
100
AcDbEntity
  8
DRAW2
100
AcDbLine
 10
1704.215024921825
 20
283.5561435444562
 30
0.0
 11
1704.215024921825
 21
284.0561435444553
 31
0.0
  0
LINE
  5
114C8
330
18
100
AcDbEntity
  8
DRAW2
100
AcDbLine
 10
1701.715024921825
 20
283.5561435444562
 30
0.0
 11
1701.715024921825
 21
284.0561435444553
 31
0.0
  0
ARC
  5
114C9
330
18
100
AcDbEntity
  8
DRAW2
100
AcDbCircle
 10
1701.590024921825
 20
341.7815699975392
 30
0.0
 40
26.25
100
AcDbArc
 50
90.0
 51
180.0
  0
ARC
  5
114CB
330
18
100
AcDbEntity
  8
DRAW2
100
AcDbCircle
 10
1701.590024921825
 20
341.7815699975392
 30
0.0
 40
25.0
100
AcDbArc
 50
90.0
 51
180.0
  0
ARC
  5
114CC
330
18
100
AcDbEntity
  8
DRAW2
100
AcDbCircle
 10
1708.465024921826
 20
339.7815699975396
 30
0.0
 40
26.0
100
AcDbArc
 50
90.0
 51
180.0
  0
ARC
  5
114CD
330
18
100
AcDbEntity
  8
DRAW2
100
AcDbCircle
 10
1708.465024921826
 20
339.7815699975396
 30
0.0
 40
25.0
100
AcDbArc
 50
90.0
 51
180.0
  0
LINE
  5
114CF
330
18
100
AcDbEntity
  8
DRAW2
100
AcDbLine
 10
1676.590024921825
 20
334.3716799727228
 30
0.0
 11
1676.590024921826
 21
341.7815699975392
 31
0.0
  0
LINE
  5
114D0
330
18
100
AcDbEntity
  8
DRAW2
100
AcDbLine
 10
1675.340024921825
 20
334.2121320931821
 30
0.0
 11
1675.340024921825
 21
341.7815699975392
 31
0.0
  0
LINE
  5
114D2
330
18
100
AcDbEntity
  8
DRAW2
100
AcDbLine
 10
1682.465024921825
 20
334.2121320931817
 30
0.0
 11
1682.465024921825
 21
339.7815699975392
 31
0.0
  0
LINE
  5
114D3
330
18
100
AcDbEntity
  8
DRAW2
100
AcDbLine
 10
1683.465024921825
 20
334.3716799727224
 30
0.0
 11
1683.465024921825
 21
339.7815699975392
 31
0.0
  0
TEXT
  5
114D5
330
18
100
AcDbEntity
  8
DRAW4
100
AcDbText
 10
1701.065024921827
 20
316.1885234420738
 30
0.0
 40
3.2
  1
A
 50
90.0
 51
10.0
  7
DIMFONT
 72
     1
 11
1699.465024921826
 21
317.5599520135024
 31
0.0
100
AcDbText
 73
     2
  0
LINE
  5
114D6
330
18
100
AcDbEntity
  8
DRAW2
100
AcDbLine
 10
1697.465024921832
 20
327.1148656536913
 30
0.0
 11
1701.465024921834
 21
327.1148656536913
 31
0.0
  0
LINE
  5
114D7
330
18
100
AcDbEntity
  8
DRAW2
100
AcDbLine
 10
1700.465024921833
 20
334.3716799727224
 30
0.0
 11
1700.465024921833
 21
339.7815699975396
 31
0.0
  0
LINE
  5
114D8
330
18
100
AcDbEntity
  8
DRAW2
100
AcDbLine
 10
1699.465024921833
 20
334.1183772345423
 30
0.0
 11
1699.465024921833
 21
341.7815699975383
 31
0.0
  0
LINE
  5
114D9
330
18
100
AcDbEntity
  8
DRAW2
100
AcDbLine
 10
1698.215024921834
 20
334.052584213641
 30
0.0
 11
1698.215024921834
 21
341.7815699975387
 31
0.0
  0
LINE
  5
114DC
330
18
100
AcDbEntity
  8
DRAW2
100
AcDbLine
 10
1700.465024921833
 20
327.1148656536913
 30
0.0
 11
1700.465024921833
 21
332.3716799727219
 31
0.0
  0
LINE
  5
114DE
330
18
100
AcDbEntity
  8
DRAW2
100
AcDbLine
 10
1699.465024921833
 20
327.1148656536913
 30
0.0
 11
1699.465024921833
 21
332.118377234542
 31
0.0
  0
LINE
  5
114DF
330
18
100
AcDbEntity
  8
DRAW2
100
AcDbLine
 10
1698.215024921833
 20
327.1148656536913
 30
0.0
 11
1698.215024921833
 21
332.0525842136403
 31
0.0
  0
LINE
  5
114E1
330
18
100
AcDbEntity
  8
DRAW2
100
AcDbLine
 10
1708.465024921824
 20
364.7815699975392
 30
0.0
 11
1711.81344399295
 21
364.7815699975392
 31
0.0
  0
LINE
  5
114E2
330
18
100
AcDbEntity
  8
DRAW2
100
AcDbLine
 10
1504.173090721233
 20
434.4453059634111
 30
0.0
 11
1539.172970721233
 21
434.4452459634112
 31
0.0
  0
LINE
  5
114E3
330
18
100
AcDbEntity
  8
DRAW2
100
AcDbLine
 10
1455.272940721233
 20
490.445235963411
 30
0.0
 11
1477.273120721233
 21
490.445235963411
 31
0.0
  0
LINE
  5
114E4
330
18
100
AcDbEntity
  8
DRAW2
100
AcDbLine
 10
1453.273060721232
 20
488.445305963411
 30
0.0
 11
1479.273120721233
 21
488.445305963411
 31
0.0
  0
LINE
  5
114E5
330
18
100
AcDbEntity
  8
DRAW2
100
AcDbLine
 10
1453.273240721232
 20
488.4451759634112
 30
0.0
 11
1455.273060721232
 21
490.445055963411
 31
0.0
  0
LINE
  5
114E6
330
18
100
AcDbEntity
  8
DRAW2
100
AcDbLine
 10
1453.273060721232
 20
488.445305963411
 30
0.0
 11
1453.273060721232
 21
463.445305963411
 31
0.0
  0
LINE
  5
114E7
330
18
100
AcDbEntity
  8
DRAW2
100
AcDbLine
 10
1477.273120721233
 20
490.445235963411
 30
0.0
 11
1479.273120721233
 21
488.445305963411
 31
0.0
  0
LINE
  5
114E8
330
18
100
AcDbEntity
  8
DRAW2
100
AcDbLine
 10
1479.273120721233
 20
488.445305963411
 30
0.0
 11
1479.273120721233
 21
463.445305963411
 31
0.0
  0
LINE
  5
114E9
330
18
100
AcDbEntity
  8
DRAW2
100
AcDbLine
 10
1545.173030721232
 20
468.9452459634112
 30
0.0
 11
1565.173030721233
 21
468.9452459634112
 31
0.0
  0
LINE
  5
114EB
330
18
100
AcDbEntity
  8
DRAW2
100
AcDbLine
 10
1539.172970721233
 20
468.4452459634112
 30
0.0
 11
1545.173030721232
 21
468.4452459634112
 31
0.0
  0
LINE
  5
114EC
330
18
100
AcDbEntity
  8
DRAW2
100
AcDbLine
 10
1519.67578564008
 20
633.6017928572631
 30
0.0
 11
1504.675773571094
 21
633.6017928572633
 31
0.0
  0
LINE
  5
114EE
330
18
100
AcDbEntity
  8
DRAW2
100
AcDbLine
 10
1494.175719727048
 20
631.6017928572626
 30
0.0
 11
1496.175719727048
 21
633.6017928572626
 31
0.0
  0
LINE
  5
114EF
330
18
100
AcDbEntity
  8
DRAW2
100
AcDbLine
 10
1544.67578564008
 20
651.269030690323
 30
0.0
 11
1519.67578564008
 21
651.269030690323
 31
0.0
  0
LINE
  5
114F0
330
18
100
AcDbEntity
  8
DRAW2
100
AcDbLine
 10
1546.67578564008
 20
653.268970690323
 30
0.0
 11
1544.67578564008
 21
651.269030690323
 31
0.0
  0
LINE
  5
114F1
330
18
100
AcDbEntity
  8
DRAW2
100
AcDbLine
 10
1416.173016877187
 20
844.1017928572627
 30
0.0
 11
1504.173016877186
 21
844.1017928572627
 31
0.0
  0
LINE
  5
114F2
330
18
100
AcDbEntity
  8
DRAW2
100
AcDbLine
 10
1195.175719727047
 20
931.6017928572621
 30
0.0
 11
1494.175719727048
 21
931.6017928572629
 31
0.0
  0
LINE
  5
114F3
330
18
100
AcDbEntity
  8
DRAW2
100
AcDbLine
 10
1504.669350010044
 20
929.6017928572627
 30
0.0
 11
1416.669350010044
 21
929.6017928572627
 31
0.0
  0
LINE
  5
114F4
330
18
100
AcDbEntity
  8
DRAW2
100
AcDbLine
 10
1504.173016877186
 20
719.1017928572626
 30
0.0
 11
1416.173016877187
 21
719.1017928572626
 31
0.0
  0
LINE
  5
114F8
330
18
100
AcDbEntity
  8
DRAW2
100
AcDbLine
 10
1416.173076877187
 20
828.6017928572627
 30
0.0
 11
1504.173076877187
 21
828.6017928572627
 31
0.0
  0
LINE
  5
114F9
330
18
100
AcDbEntity
  8
DRAW2
100
AcDbLine
 10
1416.173076877187
 20
734.6017928572627
 30
0.0
 11
1504.173076877187
 21
734.6017928572627
 31
0.0
  0
LINE
  5
114FA
330
18
100
AcDbEntity
  8
DRAW2
100
AcDbLine
 10
1416.669350010044
 20
929.6017928572627
 30
0.0
 11
1416.669350010044
 21
844.1017928572627
 31
0.0
  0
LINE
  5
114FB
330
18
100
AcDbEntity
  8
DRAW2
100
AcDbLine
 10
1272.675653571094
 20
929.6017928572627
 30
0.0
 11
1272.675653571094
 21
844.1017928572627
 31
0.0
  0
LINE
  5
114FC
330
18
100
AcDbEntity
  8
DRAW2
100
AcDbLine
 10
1274.675733571094
 20
929.6017928572627
 30
0.0
 11
1274.675733571094
 21
822.6017928572625
 31
0.0
  0
LINE
  5
114FD
330
18
100
AcDbEntity
  8
DRAW2
100
AcDbLine
 10
1414.675733571094
 20
929.6017928572627
 30
0.0
 11
1414.675733571094
 21
822.6017928572625
 31
0.0
  0
LINE
  5
114FE
330
18
100
AcDbEntity
  8
DRAW2
100
AcDbLine
 10
1274.675733571094
 20
728.1228250287829
 30
0.0
 11
1414.675733571094
 21
728.1228250287829
 31
0.0
  0
LINE
  5
114FF
330
18
100
AcDbEntity
  8
DRAW2
100
AcDbLine
 10
1274.675733571094
 20
835.0807606857426
 30
0.0
 11
1414.675733571094
 21
835.0807606857426
 31
0.0
  0
LINE
  5
11500
330
18
100
AcDbEntity
  8
DRAW2
100
AcDbLine
 10
1273.173016877187
 20
822.6017928572627
 30
0.0
 11
1416.173016877187
 21
822.6017928572625
 31
0.0
  0
LINE
  5
11501
330
18
100
AcDbEntity
  8
DRAW2
100
AcDbLine
 10
1273.173016877187
 20
740.6017928572627
 30
0.0
 11
1416.173016877187
 21
740.6017928572627
 31
0.0
  0
LINE
  5
11502
330
18
100
AcDbEntity
  8
DRAW2
100
AcDbLine
 10
1273.172996877187
 20
828.6017928572627
 30
0.0
 11
1273.172996877187
 21
734.6017928572627
 31
0.0
  0
LINE
  5
11503
330
18
100
AcDbEntity
  8
DRAW2
100
AcDbLine
 10
1273.173016877187
 20
844.1017928572627
 30
0.0
 11
1273.173016877187
 21
719.1017928572628
 31
0.0
  0
CIRCLE
  5
11506
330
18
100
AcDbEntity
  8
DRAW2
100
AcDbCircle
 10
1223.173056877187
 20
748.6017928572627
 30
0.0
 40
11.0
  0
CIRCLE
  5
11507
330
18
100
AcDbEntity
  8
DRAW2
100
AcDbCircle
 10
1223.172996377187
 20
748.6017928572627
 30
0.0
 40
13.0
  0
CIRCLE
  5
11509
330
18
100
AcDbEntity
  8
DRAW2
100
AcDbCircle
 10
1223.172996377187
 20
814.6017928572627
 30
0.0
 40
11.0
  0
CIRCLE
  5
1150A
330
18
100
AcDbEntity
  8
DRAW2
100
AcDbCircle
 10
1223.172935877187
 20
814.6017928572627
 30
0.0
 40
13.0
  0
LINE
  5
1150D
330
18
100
AcDbEntity
  8
DRAW2
100
AcDbLine
 10
1416.173076877187
 20
828.6017928572627
 30
0.0
 11
1416.173076877187
 21
734.6017928572627
 31
0.0
  0
LINE
  5
1150E
330
18
100
AcDbEntity
  8
DRAW2
100
AcDbLine
 10
1416.173016877187
 20
844.1017928572627
 30
0.0
 11
1416.173016877187
 21
719.1017928572626
 31
0.0
  0
LINE
  5
1150F
330
18
100
AcDbEntity
  8
DRAW2
100
AcDbLine
 10
1349.539719726861
 20
682.6068028263931
 30
0.0
 11
1349.581096716549
 21
681.4564690698147
 31
0.0
  0
LINE
  5
11510
330
18
100
AcDbEntity
  8
DRAW2
100
AcDbLine
 10
1339.811719726861
 20
682.6068028263931
 30
0.0
 11
1339.770342737174
 21
681.4564690698169
 31
0.0
  0
LINE
  5
11511
330
18
100
AcDbEntity
  8
DRAW2
100
AcDbLine
 10
1349.675719726861
 20
677.1526229098183
 30
0.0
 11
1349.67571972686
 21
681.3895604975678
 31
0.0
  0
LINE
  5
11512
330
18
100
AcDbEntity
  8
DRAW2
100
AcDbLine
 10
1347.992344517216
 20
678.3429489358394
 30
0.0
 11
1347.992344517215
 21
682.579886523589
 31
0.0
  0
LINE
  5
11513
330
18
100
AcDbEntity
  8
DRAW2
100
AcDbLine
 10
1341.359094936505
 20
678.3429489358394
 30
0.0
 11
1341.359094936504
 21
682.579886523589
 31
0.0
  0
LINE
  5
11514
330
18
100
AcDbEntity
  8
DRAW2
100
AcDbLine
 10
1339.675719726861
 20
677.1526229098183
 30
0.0
 11
1339.67571972686
 21
681.3895604975678
 31
0.0
  0
LINE
  5
11515
330
18
100
AcDbEntity
  8
DRAW2
100
AcDbLine
 10
1347.992344517215
 20
682.579886523589
 30
0.0
 11
1349.67571972686
 21
681.3895604975678
 31
0.0
  0
LINE
  5
11516
330
18
100
AcDbEntity
  8
DRAW2
100
AcDbLine
 10
1347.992344517215
 20
682.579886523589
 30
0.0
 11
1341.359094936504
 21
682.579886523589
 31
0.0
  0
LINE
  5
11517
330
18
100
AcDbEntity
  8
DRAW2
100
AcDbLine
 10
1341.359094936504
 20
682.579886523589
 30
0.0
 11
1339.67571972686
 21
681.3895604975678
 31
0.0
  0
LINE
  5
11518
330
18
100
AcDbEntity
  8
DRAW2
100
AcDbLine
 10
1347.992344517216
 20
678.3429489358394
 30
0.0
 11
1349.675719726861
 21
677.1526229098183
 31
0.0
  0
LINE
  5
11519
330
18
100
AcDbEntity
  8
DRAW2
100
AcDbLine
 10
1341.359094936505
 20
678.3429489358394
 30
0.0
 11
1339.675719726861
 21
677.1526229098183
 31
0.0
  0
LINE
  5
1151A
330
18
100
AcDbEntity
  8
DRAW2
100
AcDbLine
 10
1349.675719726861
 20
677.1526229098181
 30
0.0
 11
1349.675719726861
 21
674.0227414883634
 31
0.0
  0
LINE
  5
1151B
330
18
100
AcDbEntity
  8
DRAW2
100
AcDbLine
 10
1339.675719726861
 20
677.1526229098183
 30
0.0
 11
1339.675719726861
 21
674.0227414883637
 31
0.0
  0
LINE
  5
1151C
330
18
100
AcDbEntity
  8
DRAW2
100
AcDbLine
 10
1347.992344517216
 20
678.3429489358394
 30
0.0
 11
1341.359094936505
 21
678.3429489358394
 31
0.0
  0
LINE
  5
1151D
330
18
100
AcDbEntity
  8
DRAW2
100
AcDbLine
 10
1344.675719727048
 20
694.7076936596616
 30
0.0
 11
1347.175719727048
 21
695.7283090416792
 31
0.0
  0
LINE
  5
1151E
330
18
100
AcDbEntity
  8
DRAW2
100
AcDbLine
 10
1342.175719727048
 20
695.7283090416792
 30
0.0
 11
1344.675719727048
 21
694.7076936596616
 31
0.0
  0
LINE
  5
1151F
330
18
100
AcDbEntity
  8
DRAW2
100
AcDbLine
 10
1344.675719727048
 20
698.7901551877325
 30
0.0
 11
1347.175719727048
 21
697.7695398057148
 31
0.0
  0
LINE
  5
11520
330
18
100
AcDbEntity
  8
DRAW2
100
AcDbLine
 10
1342.175719727048
 20
697.7695398057148
 30
0.0
 11
1344.675719727048
 21
698.7901551877325
 31
0.0
  0
LINE
  5
11521
330
18
100
AcDbEntity
  8
DRAW2
100
AcDbLine
 10
1347.175719727048
 20
695.7283090416792
 30
0.0
 11
1347.175719727048
 21
697.7695398057148
 31
0.0
  0
LINE
  5
11522
330
18
100
AcDbEntity
  8
DRAW2
100
AcDbLine
 10
1342.175719727048
 20
695.7283090416792
 30
0.0
 11
1342.175719727048
 21
697.7695398057148
 31
0.0
  0
LINE
  5
11524
330
18
100
AcDbEntity
  8
DRAW2
100
AcDbLine
 10
1274.675733571094
 20
929.6017928572627
 30
0.0
 11
1414.675733571094
 21
929.6017928572627
 31
0.0
  0
LINE
  5
11525
330
18
100
AcDbEntity
  8
DRAW2
100
AcDbLine
 10
1195.175719727048
 20
931.6017928572627
 30
0.0
 11
1193.175719727048
 21
929.6017928572625
 31
0.0
  0
LINE
  5
11526
330
18
100
AcDbEntity
  8
DRAW2
100
AcDbLine
 10
1504.669350010044
 20
929.6017928572627
 30
0.0
 11
1504.669350010044
 21
809.601792857263
 31
0.0
  0
LINE
  5
11527
330
18
100
AcDbEntity
  8
DRAW2
100
AcDbLine
 10
1504.675773571094
 20
929.6017928572624
 30
0.0
 11
1504.675773571094
 21
809.6017928572628
 31
0.0
  0
LINE
  5
11528
330
18
100
AcDbEntity
  8
DRAW2
100
AcDbLine
 10
1519.67578564008
 20
929.6017928572622
 30
0.0
 11
1519.67578564008
 21
809.6017928572628
 31
0.0
  0
LINE
  5
11529
330
18
100
AcDbEntity
  8
DRAW2
100
AcDbLine
 10
1504.173076877187
 20
828.6017928572627
 30
0.0
 11
1504.173076877187
 21
734.6017928572627
 31
0.0
  0
LINE
  5
1152A
330
18
100
AcDbEntity
  8
DRAW2
100
AcDbLine
 10
1542.172956877186
 20
843.6017928572628
 30
0.0
 11
1542.172956877186
 21
719.6017928572624
 31
0.0
  0
LINE
  5
1152B
330
18
100
AcDbEntity
  8
DRAW2
100
AcDbLine
 10
1539.172956877187
 20
843.6017928572628
 30
0.0
 11
1539.172956877187
 21
719.6017928572624
 31
0.0
  0
LINE
  5
1152C
330
18
100
AcDbEntity
  8
DRAW2
100
AcDbLine
 10
1504.173016877186
 20
844.1017928572627
 30
0.0
 11
1504.173016877186
 21
719.1017928572626
 31
0.0
  0
LINE
  5
1152D
330
18
100
AcDbEntity
  8
DRAW2
100
AcDbLine
 10
1565.173016877187
 20
844.1017928572629
 30
0.0
 11
1565.173016877187
 21
719.1017928572627
 31
0.0
  0
LINE
  5
1152E
330
18
100
AcDbEntity
  8
DRAW2
100
AcDbLine
 10
1545.173016877186
 20
844.1017928572629
 30
0.0
 11
1545.173016877186
 21
719.1017928572628
 31
0.0
  0
LINE
  5
11530
330
18
100
AcDbEntity
  8
DRAW2
100
AcDbLine
 10
1519.67578564008
 20
728.1228250287791
 30
0.0
 11
1504.675773571094
 21
728.122825028779
 31
0.0
  0
LINE
  5
11531
330
18
100
AcDbEntity
  8
DRAW2
100
AcDbLine
 10
1519.67578564008
 20
737.2142946173303
 30
0.0
 11
1504.675773571094
 21
737.2142946173303
 31
0.0
  0
LINE
  5
11532
330
18
100
AcDbEntity
  8
DRAW2
100
AcDbLine
 10
1504.173016877186
 20
753.6017928572626
 30
0.0
 11
1539.172956877187
 21
753.6017928572626
 31
0.0
  0
LINE
  5
11534
330
18
100
AcDbEntity
  8
DRAW2
100
AcDbLine
 10
1504.669350010044
 20
733.6017928572628
 30
0.0
 11
1504.173016877186
 21
733.6017928572628
 31
0.0
  0
CIRCLE
  5
11535
330
18
100
AcDbEntity
  8
DRAW2
100
AcDbCircle
 10
1466.173137877187
 20
748.6017928572627
 30
0.0
 40
11.0
  0
CIRCLE
  5
11536
330
18
100
AcDbEntity
  8
DRAW2
100
AcDbCircle
 10
1466.173077377187
 20
748.6017928572627
 30
0.0
 40
13.0
  0
LINE
  5
11538
330
18
100
AcDbEntity
  8
DRAW2
100
AcDbLine
 10
1545.173016877186
 20
719.1017928572628
 30
0.0
 11
1565.173016877187
 21
719.1017928572627
 31
0.0
  0
LINE
  5
11539
330
18
100
AcDbEntity
  8
DRAW2
100
AcDbLine
 10
1544.67578564008
 20
677.2690906903229
 30
0.0
 11
1519.67578564008
 21
677.2690906903229
 31
0.0
  0
LINE
  5
1153A
330
18
100
AcDbEntity
  8
DRAW2
100
AcDbLine
 10
1544.675685640081
 20
677.2690306903231
 30
0.0
 11
1546.675685640081
 21
675.269160690323
 31
0.0
  0
LINE
  5
1153B
330
18
100
AcDbEntity
  8
DRAW2
100
AcDbLine
 10
1539.172956877187
 20
720.0009384921384
 30
0.0
 11
1519.67578564008
 21
720.0009384921384
 31
0.0
  0
LINE
  5
1153C
330
18
100
AcDbEntity
  8
DRAW2
100
AcDbLine
 10
1539.172956877187
 20
719.6017928572626
 30
0.0
 11
1545.173016877186
 21
719.6017928572626
 31
0.0
  0
LINE
  5
1153E
330
18
100
AcDbEntity
  8
DRAW2
100
AcDbLine
 10
1539.172956877187
 20
746.0009984921383
 30
0.0
 11
1519.67578564008
 21
746.0009984921383
 31
0.0
  0
LINE
  5
11540
330
18
100
AcDbEntity
  8
DRAW2
100
AcDbLine
 10
1519.67578564008
 20
825.9892910971961
 30
0.0
 11
1504.675773571094
 21
825.9892910971961
 31
0.0
  0
LINE
  5
11541
330
18
100
AcDbEntity
  8
DRAW2
100
AcDbLine
 10
1519.67578564008
 20
835.0807606857463
 30
0.0
 11
1504.675773571094
 21
835.0807606857463
 31
0.0
  0
LINE
  5
11542
330
18
100
AcDbEntity
  8
DRAW2
100
AcDbLine
 10
1504.173016877186
 20
809.6017928572628
 30
0.0
 11
1539.172956877187
 21
809.6017928572628
 31
0.0
  0
CIRCLE
  5
11544
330
18
100
AcDbEntity
  8
DRAW2
100
AcDbCircle
 10
1466.173016877187
 20
814.6017928572627
 30
0.0
 40
13.0
  0
CIRCLE
  5
11545
330
18
100
AcDbEntity
  8
DRAW2
100
AcDbCircle
 10
1466.173077377187
 20
814.6017928572627
 30
0.0
 40
11.0
  0
LINE
  5
11547
330
18
100
AcDbEntity
  8
DRAW2
100
AcDbLine
 10
1504.669350010044
 20
829.6017928572629
 30
0.0
 11
1504.173016877186
 21
829.6017928572627
 31
0.0
  0
LINE
  5
11548
330
18
100
AcDbEntity
  8
DRAW2
100
AcDbLine
 10
1545.173016877186
 20
844.1017928572629
 30
0.0
 11
1565.173016877187
 21
844.1017928572629
 31
0.0
  0
LINE
  5
1154A
330
18
100
AcDbEntity
  8
DRAW2
100
AcDbLine
 10
1539.172956877187
 20
817.2025254310982
 30
0.0
 11
1519.67578564008
 21
817.2025254310982
 31
0.0
  0
LINE
  5
1154B
330
18
100
AcDbEntity
  8
DRAW2
100
AcDbLine
 10
1539.172956877187
 20
843.202585431098
 30
0.0
 11
1519.67578564008
 21
843.202585431098
 31
0.0
  0
LINE
  5
1154C
330
18
100
AcDbEntity
  8
DRAW2
100
AcDbLine
 10
1539.172956877187
 20
843.6017928572628
 30
0.0
 11
1545.173016877186
 21
843.6017928572628
 31
0.0
  0
LINE
  5
1154D
330
18
100
AcDbEntity
  8
DRAW2
100
AcDbLine
 10
1544.67578564008
 20
885.9344362563525
 30
0.0
 11
1519.67578564008
 21
885.9344362563525
 31
0.0
  0
LINE
  5
1154E
330
18
100
AcDbEntity
  8
DRAW2
100
AcDbLine
 10
1544.67578564008
 20
911.9344962563523
 30
0.0
 11
1519.67578564008
 21
911.9344962563523
 31
0.0
  0
LINE
  5
1154F
330
18
100
AcDbEntity
  8
DRAW2
100
AcDbLine
 10
1546.67578564008
 20
909.9346262563523
 30
0.0
 11
1546.67578564008
 21
887.9344362563525
 31
0.0
  0
LINE
  5
11550
330
18
100
AcDbEntity
  8
DRAW2
100
AcDbLine
 10
1546.67578564008
 20
887.9343762563525
 30
0.0
 11
1544.67578564008
 21
885.9344362563525
 31
0.0
  0
LINE
  5
11551
330
18
100
AcDbEntity
  8
DRAW2
100
AcDbLine
 10
1544.67578564008
 20
911.9344962563523
 30
0.0
 11
1544.67578564008
 21
885.9344362563525
 31
0.0
  0
LINE
  5
11552
330
18
100
AcDbEntity
  8
DRAW2
100
AcDbLine
 10
1544.675685640081
 20
911.9344362563525
 30
0.0
 11
1546.675685640081
 21
909.9345662563525
 31
0.0
  0
LINE
  5
11553
330
18
100
AcDbEntity
  8
DRAW2
100
AcDbLine
 10
1519.67578564008
 20
929.6017928572622
 30
0.0
 11
1504.675773571094
 21
929.6017928572624
 31
0.0
  0
LINE
  5
11554
330
18
100
AcDbEntity
  8
DRAW2
100
AcDbLine
 10
1496.175719727048
 20
929.6017928572627
 30
0.0
 11
1494.175719727048
 21
931.6017928572629
 31
0.0
  0
ARC
  5
11559
330
18
100
AcDbEntity
  8
DRAW2
100
AcDbCircle
 10
2008.823107827781
 20
224.445287682999
 30
0.0
 40
148.0
100
AcDbArc
 50
108.9246405003491
 51
251.0754232880899
  0
ARC
  5
1155A
330
18
100
AcDbEntity
  8
DRAW2
100
AcDbCircle
 10
2008.823107827781
 20
224.445287682999
 30
0.0
 40
148.0
100
AcDbArc
 50
288.92457671191
 51
71.07535949965084
  0
SPLINE
  5
1155B
330
18
100
AcDbEntity
  8
DRAW3
100
AcDbSpline
210
0.0
220
0.0
230
1.0
 70
     8
 71
     3
 72
    10
 73
     6
 74
     0
 42
0.0000000001
 43
0.0000000001
 40
4.491492883510634
 40
4.491492883510634
 40
4.491492883510634
 40
4.491492883510634
 40
6.821020915320963
 40
11.08660824925465
 40
14.11505779256892
 40
14.11505779256892
 40
14.11505779256892
 40
14.11505779256892
 10
2066.25884170369
 20
130.445287682999
 30
0.0
 10
2066.461844607632
 20
129.7393264414907
 30
0.0
 10
2066.466518804599
 20
127.8247650363298
 30
0.0
 10
2062.897015381944
 20
125.5585538152842
 30
0.0
 10
2063.239239906494
 20
123.3884279923387
 30
0.0
 10
2063.664987744271
 20
122.445287682999
 30
0.0
  0
CIRCLE
  5
1155F
330
18
100
AcDbEntity
  8
DRAW2
100
AcDbCircle
 10
1977.003347827782
 20
74.26508096341109
 30
0.0
 40
9.5
  0
LINE
  5
11561
330
18
100
AcDbEntity
  8
DRAW2
100
AcDbLine
 10
1858.823167827782
 20
-14.55477231700103
 30
0.0
 11
1983.186294335619
 21
-14.55477231700103
 31
0.0
  0
LINE
  5
11562
330
18
100
AcDbEntity
  8
DRAW2
100
AcDbLine
 10
1986.823197827781
 20
-34.55466231700109
 30
0.0
 11
1964.822987827781
 21
-34.55466231700109
 31
0.0
  0
LINE
  5
11563
330
18
100
AcDbEntity
  8
DRAW2
100
AcDbLine
 10
1988.823107827782
 20
-32.55469231700101
 30
0.0
 11
1962.823107827781
 21
-32.55469231700101
 31
0.0
  0
CIRCLE
  5
11566
330
18
100
AcDbEntity
  8
DRAW2
100
AcDbCircle
 10
1977.003347827782
 20
10.62547096341108
 30
0.0
 40
9.5
  0
CIRCLE
  5
11567
330
18
100
AcDbEntity
  8
DRAW2
100
AcDbCircle
 10
2008.823107827781
 20
42.4452609634111
 30
0.0
 40
62.5
  0
LINE
  5
11569
330
18
100
AcDbEntity
  8
DRAW2
100
AcDbLine
 10
1858.823167827782
 20
0.4452376829989362
 30
0.0
 11
1962.538682321518
 21
0.4452376829989362
 31
0.0
  0
LINE
  5
1156A
330
18
100
AcDbEntity
  8
DRAW2
100
AcDbLine
 10
1881.323047827781
 20
20.44528768299903
 30
0.0
 11
1881.323047827781
 21
0.4452376829989362
 31
0.0
  0
LINE
  5
1156B
330
18
100
AcDbEntity
  8
DRAW2
100
AcDbLine
 10
1902.323107827781
 20
20.44522768299896
 30
0.0
 11
1902.323107827781
 21
0.4452376829989362
 31
0.0
  0
ARC
  5
1156D
330
18
100
AcDbEntity
  8
DRAW2
100
AcDbCircle
 10
1877.684317827782
 20
-33.55477231700104
 30
0.0
 40
1.0
100
AcDbArc
 50
188.5316099999993
 51
269.9999599999959
  0
LINE
  5
1156E
330
18
100
AcDbEntity
  8
DRAW2
100
AcDbLine
 10
1876.695417827781
 20
-33.70309231700105
 30
0.0
 11
1873.823107827781
 21
-14.554742317001
 31
0.0
  0
LINE
  5
1156F
330
18
100
AcDbEntity
  8
DRAW2
100
AcDbLine
 10
1858.823167827782
 20
0.4452376829989362
 30
0.0
 11
1858.823167827782
 21
-14.55477231700103
 31
0.0
  0
LINE
  5
11570
330
18
100
AcDbEntity
  8
DRAW2
100
AcDbLine
 10
1868.823167827781
 20
0.4452376829989362
 30
0.0
 11
1868.823167827781
 21
-14.55477231700103
 31
0.0
  0
LINE
  5
11571
330
18
100
AcDbEntity
  8
DRAW2
100
AcDbLine
 10
1909.823047827782
 20
-14.55473231700102
 30
0.0
 11
1906.950727827782
 21
-33.70312231700097
 31
0.0
  0
LINE
  5
11572
330
18
100
AcDbEntity
  8
DRAW2
100
AcDbLine
 10
1905.961897827781
 20
-34.554742317001
 30
0.0
 11
1877.684317827782
 21
-34.554742317001
 31
0.0
  0
ARC
  5
11573
330
18
100
AcDbEntity
  8
DRAW2
100
AcDbCircle
 10
1905.961897827781
 20
-33.55477231700104
 30
0.0
 40
1.0
100
AcDbArc
 50
269.9999599999959
 51
351.4683700000001
  0
LINE
  5
11574
330
18
100
AcDbEntity
  8
DRAW2
100
AcDbLine
 10
1902.323107827781
 20
20.44522768299896
 30
0.0
 11
1881.323047827781
 21
20.44522768299896
 31
0.0
  0
LINE
  5
11575
330
18
100
AcDbEntity
  8
DRAW2
100
AcDbLine
 10
1900.323107827781
 20
22.44519768299903
 30
0.0
 11
1883.322987827781
 21
22.44519768299903
 31
0.0
  0
LINE
  5
11576
330
18
100
AcDbEntity
  8
DRAW2
100
AcDbLine
 10
1883.322927827782
 20
22.44522768299896
 30
0.0
 11
1881.322987827782
 21
20.44525768299899
 31
0.0
  0
LINE
  5
11577
330
18
100
AcDbEntity
  8
DRAW2
100
AcDbLine
 10
1902.323167827782
 20
20.445347682999
 30
0.0
 11
1900.323107827781
 21
22.44537768299903
 31
0.0
  0
LINE
  5
11579
330
18
100
AcDbEntity
  8
DRAW2
100
AcDbLine
 10
1962.823287827781
 20
-32.554742317001
 30
0.0
 11
1962.823287827781
 21
-14.55477231700103
 31
0.0
  0
LINE
  5
1157A
330
18
100
AcDbEntity
  8
DRAW2
100
AcDbLine
 10
1964.823287827781
 20
-34.55466231700109
 30
0.0
 11
1962.823287827781
 21
-32.55466231700109
 31
0.0
  0
LINE
  5
1157C
330
18
100
AcDbEntity
  8
DRAW3
100
AcDbLine
 10
1890.313487623791
 20
130.7185837473528
 30
0.0
 11
1892.792809988291
 21
132.6703251095476
 31
0.0
  0
LINE
  5
1157D
330
18
100
AcDbEntity
  8
DRAW2
100
AcDbLine
 10
1889.940028022563
 20
131.1636555688049
 30
0.0
 11
1892.447551188809
 21
133.1375968159364
 31
0.0
  0
LINE
  5
1157E
330
18
100
AcDbEntity
  8
DRAW2
100
AcDbLine
 10
1896.314793793178
 20
123.5665055597278
 30
0.0
 11
1889.940028022563
 21
131.1636555688049
 31
0.0
  0
LINE
  5
11581
330
18
100
AcDbEntity
  8
DRAW2
100
AcDbLine
 10
1896.314793793178
 20
123.5665055597278
 30
0.0
 11
1898.69417326562
 21
125.6931625143184
 31
0.0
  0
LINE
  5
11582
330
18
100
AcDbEntity
  8
DRAW3
100
AcDbLine
 10
1895.94133419195
 20
124.0115773811799
 30
0.0
 11
1898.293954027759
 21
126.1143169371344
 31
0.0
  0
CIRCLE
  5
11586
330
18
100
AcDbEntity
  8
DRAW2
100
AcDbCircle
 10
1891.490407827781
 20
175.844517682999
 30
0.0
 40
11.0
  0
CIRCLE
  5
11587
330
18
100
AcDbEntity
  8
DRAW2
100
AcDbCircle
 10
1891.490407827781
 20
175.844517682999
 30
0.0
 40
13.000001
  0
CIRCLE
  5
11589
330
18
100
AcDbEntity
  8
DRAW2
100
AcDbCircle
 10
1960.222277827782
 20
107.112587682999
 30
0.0
 40
11.0
  0
CIRCLE
  5
1158A
330
18
100
AcDbEntity
  8
DRAW2
100
AcDbCircle
 10
1960.222277827782
 20
107.112587682999
 30
0.0
 40
13.000001
  0
LINE
  5
1158B
330
18
100
AcDbEntity
  8
DRAW2
100
AcDbLine
 10
1960.823273260231
 20
84.44523096341105
 30
0.0
 11
1962.53863397316
 21
84.44523096341105
 31
0.0
  0
LINE
  5
1158D
330
18
100
AcDbEntity
  8
DRAW2
100
AcDbLine
 10
2055.107533334044
 20
0.4452376829989362
 30
0.0
 11
2158.823107827781
 21
0.4452376829989362
 31
0.0
  0
LINE
  5
1158E
330
18
100
AcDbEntity
  8
DRAW2
100
AcDbLine
 10
2034.459921319944
 20
-14.55477231700103
 30
0.0
 11
2158.823107827781
 21
-14.55477231700103
 31
0.0
  0
LINE
  5
1158F
330
18
100
AcDbEntity
  8
HIDDEN
100
AcDbLine
 10
2106.823107827782
 20
137.445287682999
 30
0.0
 11
2128.551968174817
 21
137.445287682999
 31
0.0
  0
LINE
  5
11591
330
18
100
AcDbEntity
  8
HIDDEN
100
AcDbLine
 10
2106.823107827782
 20
115.445287682999
 30
0.0
 11
2108.938041778716
 21
115.445287682999
 31
0.0
  0
CIRCLE
  5
11595
330
18
100
AcDbEntity
  8
DRAW2
100
AcDbCircle
 10
2040.642927827781
 20
74.26508096341109
 30
0.0
 40
9.5
  0
LINE
  5
11596
330
18
100
AcDbEntity
  8
DRAW2
100
AcDbLine
 10
2052.823197827782
 20
-34.55466231700109
 30
0.0
 11
2030.823017827781
 21
-34.55466231700109
 31
0.0
  0
LINE
  5
11597
330
18
100
AcDbEntity
  8
DRAW2
100
AcDbLine
 10
2054.823077827782
 20
-32.55469231700101
 30
0.0
 11
2028.823017827781
 21
-32.55469231700101
 31
0.0
  0
CIRCLE
  5
1159A
330
18
100
AcDbEntity
  8
DRAW2
100
AcDbCircle
 10
2040.642927827781
 20
10.62547096341108
 30
0.0
 40
9.5
  0
LINE
  5
1159B
330
18
100
AcDbEntity
  8
DRAW2
100
AcDbLine
 10
2022.961897827781
 20
-34.554742317001
 30
0.0
 11
1994.684317827781
 21
-34.554742317001
 31
0.0
  0
LINE
  5
1159C
330
18
100
AcDbEntity
  8
DRAW2
100
AcDbLine
 10
1993.695387827782
 20
-33.7030723170011
 30
0.0
 11
1991.270830561411
 21
-17.53946678261155
 31
0.0
  0
LINE
  5
1159D
330
18
100
AcDbEntity
  8
DRAW2
100
AcDbLine
 10
1988.823287827782
 20
-32.554742317001
 30
0.0
 11
1988.823287827782
 21
-16.76839624476679
 31
0.0
  0
LINE
  5
1159E
330
18
100
AcDbEntity
  8
DRAW2
100
AcDbLine
 10
1988.823377827781
 20
-32.554652317001
 30
0.0
 11
1986.823437827782
 21
-34.55466231700109
 31
0.0
  0
ARC
  5
1159F
330
18
100
AcDbEntity
  8
DRAW2
100
AcDbCircle
 10
1994.684317827781
 20
-33.55477231700104
 30
0.0
 40
1.0
100
AcDbArc
 50
188.5316099999993
 51
269.9999599999959
  0
LINE
  5
115A0
330
18
100
AcDbEntity
  8
DRAW2
100
AcDbLine
 10
2026.375347325445
 20
-17.53947783419204
 30
0.0
 11
2023.950757827781
 21
-33.70313231700095
 31
0.0
  0
LINE
  5
115A1
330
18
100
AcDbEntity
  8
DRAW2
100
AcDbLine
 10
2028.823257827781
 20
-32.554742317001
 30
0.0
 11
2028.823257827781
 21
-16.76828478397254
 31
0.0
  0
ARC
  5
115A2
330
18
100
AcDbEntity
  8
DRAW2
100
AcDbCircle
 10
2022.961897827781
 20
-33.55477231700104
 30
0.0
 40
1.0
100
AcDbArc
 50
269.9999599999959
 51
351.4683700000001
  0
LINE
  5
115A3
330
18
100
AcDbEntity
  8
DRAW2
100
AcDbLine
 10
2030.823257827782
 20
-34.55459231700103
 30
0.0
 11
2028.823287827781
 21
-32.55460231700101
 31
0.0
  0
CIRCLE
  5
115A4
330
18
100
AcDbEntity
  8
DRAW2
100
AcDbCircle
 10
2008.823107827781
 20
42.4452609634111
 30
0.0
 40
12.500001
  0
CIRCLE
  5
115A5
330
18
100
AcDbEntity
  8
DRAW2
100
AcDbCircle
 10
2008.823107827781
 20
42.4452609634111
 30
0.0
 40
13.5
  0
LINE
  5
115A6
330
18
100
AcDbEntity
  8
DRAW2
100
AcDbLine
 10
2054.823317827782
 20
-32.554742317001
 30
0.0
 11
2054.823317827782
 21
-14.55477231700103
 31
0.0
  0
LINE
  5
115A8
330
18
100
AcDbEntity
  8
DRAW2
100
AcDbLine
 10
2054.823347827781
 20
-32.55466231700109
 30
0.0
 11
2052.823437827782
 21
-34.554652317001
 31
0.0
  0
LINE
  5
115AA
330
18
100
AcDbEntity
  8
HIDDEN
100
AcDbLine
 10
2097.423107827781
 20
120.1477656760326
 30
0.0
 11
2097.423107827781
 21
132.7172656885326
 31
0.0
  0
LINE
  5
115AB
330
18
100
AcDbEntity
  8
HIDDEN
100
AcDbLine
 10
2095.855630116646
 20
131.8122820100596
 30
0.0
 11
2097.423107827781
 21
132.7172656885326
 31
0.0
  0
LINE
  5
115AC
330
18
100
AcDbEntity
  8
HIDDEN
100
AcDbLine
 10
2101.144174013004
 20
131.9775490068208
 30
0.0
 11
2091.823107827782
 21
131.6862656885326
 31
0.0
  0
LINE
  5
115AD
330
18
100
AcDbEntity
  8
HIDDEN
100
AcDbLine
 10
2066.25884170369
 20
130.445287682999
 30
0.0
 11
2091.099254924177
 21
130.445287682999
 31
0.0
  0
LINE
  5
115AE
330
18
100
AcDbEntity
  8
HIDDEN
100
AcDbLine
 10
2063.664987744271
 20
122.445287682999
 30
0.0
 11
2091.099254924177
 21
122.445287682999
 31
0.0
  0
CIRCLE
  5
115B0
330
18
100
AcDbEntity
  8
DRAW2
100
AcDbCircle
 10
2057.423817827781
 20
107.112557682999
 30
0.0
 40
11.0
  0
CIRCLE
  5
115B1
330
18
100
AcDbEntity
  8
DRAW2
100
AcDbCircle
 10
2057.423817827781
 20
107.112557682999
 30
0.0
 40
13.000001
  0
LINE
  5
115B2
330
18
100
AcDbEntity
  8
DRAW2
100
AcDbLine
 10
2055.107581682402
 20
84.44523096341105
 30
0.0
 11
2056.822942395331
 21
84.44523096341105
 31
0.0
  0
LINE
  5
115B3
330
18
100
AcDbEntity
  8
HIDDEN
100
AcDbLine
 10
2102.012522119086
 20
120.0171184801455
 30
0.0
 11
2097.423107827781
 21
120.1477656760326
 31
0.0
  0
LINE
  5
115B5
330
18
100
AcDbEntity
  8
HIDDEN
100
AcDbLine
 10
2095.855630116646
 20
121.0527493545056
 30
0.0
 11
2097.423107827781
 21
120.1477656760326
 31
0.0
  0
LINE
  5
115B6
330
18
100
AcDbEntity
  8
HIDDEN
100
AcDbLine
 10
2091.099254924177
 20
130.4325156822826
 30
0.0
 11
2091.823107827782
 21
131.6862656885326
 31
0.0
  0
LINE
  5
115B7
330
18
100
AcDbEntity
  8
HIDDEN
100
AcDbLine
 10
2091.823107827782
 20
121.1787656760326
 30
0.0
 11
2091.823107827782
 21
131.6862656885326
 31
0.0
  0
LINE
  5
115B8
330
18
100
AcDbEntity
  8
HIDDEN
100
AcDbLine
 10
2091.823107827782
 20
121.1787656760326
 30
0.0
 11
2091.099254924177
 21
122.4325156822826
 31
0.0
  0
LINE
  5
115B9
330
18
100
AcDbEntity
  8
HIDDEN
100
AcDbLine
 10
2091.099254924177
 20
130.4325156822826
 30
0.0
 11
2091.099254924177
 21
122.4325156822826
 31
0.0
  0
LINE
  5
115BA
330
18
100
AcDbEntity
  8
HIDDEN
100
AcDbLine
 10
2101.169705550907
 20
120.886684497185
 30
0.0
 11
2091.823107827782
 21
121.1787656760326
 31
0.0
  0
LINE
  5
115BB
330
18
100
AcDbEntity
  8
HIDDEN
100
AcDbLine
 10
2106.823107827782
 20
115.445287682999
 30
0.0
 11
2106.823107827782
 21
119.866787676749
 31
0.0
  0
LINE
  5
115BC
330
18
100
AcDbEntity
  8
HIDDEN
100
AcDbLine
 10
2102.012522119086
 20
132.8734568858523
 30
0.0
 11
2097.423107827781
 21
132.7172656885326
 31
0.0
  0
LINE
  5
115BD
330
18
100
AcDbEntity
  8
HIDDEN
100
AcDbLine
 10
2106.823107827782
 20
133.0237876892489
 30
0.0
 11
2106.823107827782
 21
137.445287682999
 31
0.0
  0
LINE
  5
115BE
330
18
100
AcDbEntity
  8
DRAW2
100
AcDbLine
 10
2136.323137827781
 20
20.44522768299896
 30
0.0
 11
2136.323137827781
 21
0.4452376829989362
 31
0.0
  0
LINE
  5
115BF
330
18
100
AcDbEntity
  8
DRAW2
100
AcDbLine
 10
2115.323077827782
 20
20.44528768299903
 30
0.0
 11
2115.323077827782
 21
0.4452376829989362
 31
0.0
  0
ARC
  5
115C1
330
18
100
AcDbEntity
  8
DRAW2
100
AcDbCircle
 10
2139.961897827782
 20
-33.55477231700104
 30
0.0
 40
1.0
100
AcDbArc
 50
269.9999599999959
 51
351.4683700000001
  0
LINE
  5
115C2
330
18
100
AcDbEntity
  8
DRAW2
100
AcDbLine
 10
2110.695417827782
 20
-33.70309231700105
 30
0.0
 11
2107.823137827781
 21
-14.55473231700102
 31
0.0
  0
LINE
  5
115C3
330
18
100
AcDbEntity
  8
DRAW2
100
AcDbLine
 10
2139.961897827782
 20
-34.554742317001
 30
0.0
 11
2111.684317827781
 21
-34.554742317001
 31
0.0
  0
ARC
  5
115C4
330
18
100
AcDbEntity
  8
DRAW2
100
AcDbCircle
 10
2111.684317827781
 20
-33.55477231700104
 30
0.0
 40
1.0
100
AcDbArc
 50
188.5316099999993
 51
269.9999599999959
  0
LINE
  5
115C5
330
18
100
AcDbEntity
  8
DRAW2
100
AcDbLine
 10
2143.823107827782
 20
-14.554742317001
 30
0.0
 11
2140.950827827782
 21
-33.70313231700095
 31
0.0
  0
LINE
  5
115C6
330
18
100
AcDbEntity
  8
DRAW2
100
AcDbLine
 10
2148.823137827781
 20
0.4452376829989362
 30
0.0
 11
2148.823137827781
 21
-14.55477231700103
 31
0.0
  0
LINE
  5
115C7
330
18
100
AcDbEntity
  8
DRAW2
100
AcDbLine
 10
2158.823107827781
 20
0.4452376829989362
 30
0.0
 11
2158.823107827781
 21
-14.55477231700103
 31
0.0
  0
LINE
  5
115C8
330
18
100
AcDbEntity
  8
DRAW2
100
AcDbLine
 10
2134.323047827782
 20
22.44519768299903
 30
0.0
 11
2117.323047827782
 21
22.44519768299903
 31
0.0
  0
LINE
  5
115C9
330
18
100
AcDbEntity
  8
DRAW2
100
AcDbLine
 10
2136.323137827781
 20
20.44522768299896
 30
0.0
 11
2115.323077827782
 21
20.44522768299896
 31
0.0
  0
LINE
  5
115CA
330
18
100
AcDbEntity
  8
DRAW2
100
AcDbLine
 10
2117.322957827781
 20
22.44519768299903
 30
0.0
 11
2115.323017827781
 21
20.44525768299899
 31
0.0
  0
LINE
  5
115CB
330
18
100
AcDbEntity
  8
DRAW2
100
AcDbLine
 10
2136.323167827781
 20
20.445347682999
 30
0.0
 11
2134.323137827781
 21
22.44537768299903
 31
0.0
  0
CIRCLE
  5
115CD
330
18
100
AcDbEntity
  8
DRAW2
100
AcDbCircle
 10
2126.155807827782
 20
175.8443976829989
 30
0.0
 40
11.0
  0
CIRCLE
  5
115CE
330
18
100
AcDbEntity
  8
DRAW2
100
AcDbCircle
 10
2126.155807827782
 20
175.8443976829989
 30
0.0
 40
13.000001
  0
SPLINE
  5
115CF
330
18
100
AcDbEntity
  8
DRAW3
100
AcDbSpline
210
0.0
220
0.0
230
1.0
 70
     8
 71
     3
 72
    10
 73
     6
 74
     4
 42
0.0000000001
 43
0.0000000001
 44
0.0000000001
 40
0.0
 40
0.0
 40
0.0
 40
0.0
 40
1.972684243528575
 40
4.621558289201867
 40
6.679776794359201
 40
6.679776794359201
 40
6.679776794359201
 40
6.679776794359201
 10
1864.623235352588
 20
369.4065699975396
 30
0.0
 10
1865.082780139623
 20
368.8302980000653
 30
0.0
 10
1866.159390867747
 20
367.4802215063238
 30
0.0
 10
1863.878942308604
 20
365.2976717698335
 30
0.0
 10
1865.092783232728
 20
363.9819021043207
 30
0.0
 10
1865.623546081636
 20
363.4065699975396
 30
0.0
 11
1864.623235352588
 21
369.4065699975396
 31
0.0
 11
1865.518250749919
 21
367.6486079492558
 31
0.0
 11
1864.57058599415
 21
365.1750547922536
 31
0.0
 11
1865.623546081636
 21
363.4065699975396
 31
0.0
  0
SPLINE
  5
115D0
330
18
100
AcDbEntity
  8
DRAW3
100
AcDbSpline
210
0.0
220
0.0
230
1.0
 70
     8
 71
     3
 72
    10
 73
     6
 74
     4
 42
0.0000000001
 43
0.0000000001
 44
0.0000000001
 40
0.0
 40
0.0
 40
0.0
 40
0.0
 40
1.972684243528575
 40
4.621558289201867
 40
6.679776794359201
 40
6.679776794359201
 40
6.679776794359201
 40
6.679776794359201
 10
1862.623235352588
 20
369.4065699975396
 30
0.0
 10
1863.082780139623
 20
368.8302980000653
 30
0.0
 10
1864.159390867747
 20
367.4802215063238
 30
0.0
 10
1861.878942308603
 20
365.2976717698335
 30
0.0
 10
1863.092783232728
 20
363.9819021043207
 30
0.0
 10
1863.623546081636
 20
363.4065699975396
 30
0.0
 11
1862.623235352588
 21
369.4065699975396
 31
0.0
 11
1863.518250749919
 21
367.6486079492558
 31
0.0
 11
1862.57058599415
 21
365.1750547922536
 31
0.0
 11
1863.623546081636
 21
363.4065699975396
 31
0.0
  0
LINE
  5
115D1
330
18
100
AcDbEntity
  8
DRAW2
100
AcDbLine
 10
1986.823197827781
 20
490.445227682999
 30
0.0
 11
1964.822987827781
 21
490.445227682999
 31
0.0
  0
LINE
  5
115D2
330
18
100
AcDbEntity
  8
DRAW2
100
AcDbLine
 10
1988.823107827782
 20
488.4452276829989
 30
0.0
 11
1962.823107827781
 21
488.4452276829989
 31
0.0
  0
LINE
  5
115D3
330
18
100
AcDbEntity
  8
DRAW2
100
AcDbLine
 10
1961.823107827782
 20
463.4452276829989
 30
0.0
 11
1983.186213047661
 21
463.4452276829989
 31
0.0
  0
CIRCLE
  5
115D7
330
18
100
AcDbEntity
  8
DRAW2
100
AcDbCircle
 10
2008.823107827781
 20
406.445230963411
 30
0.0
 40
62.5
  0
CIRCLE
  5
115D9
330
18
100
AcDbEntity
  8
DRAW2
100
AcDbCircle
 10
1977.003347827782
 20
438.264990963411
 30
0.0
 40
9.5
  0
CIRCLE
  5
115DB
330
18
100
AcDbEntity
  8
DRAW2
100
AcDbCircle
 10
1977.003347827782
 20
374.625410963411
 30
0.0
 40
9.5
  0
LINE
  5
115DE
330
18
100
AcDbEntity
  8
DRAW2
100
AcDbLine
 10
1822.837329856416
 20
369.4065699975383
 30
0.0
 11
1862.623235352588
 21
369.4065699975392
 31
0.0
  0
LINE
  5
115E0
330
18
100
AcDbEntity
  8
DRAW2
100
AcDbLine
 10
1822.837329856415
 20
363.4065699975384
 30
0.0
 11
1863.623546081636
 21
363.4065699975392
 31
0.0
  0
LINE
  5
115E1
330
18
100
AcDbEntity
  8
DRAW2
100
AcDbLine
 10
1832.823137827782
 20
239.1953013536906
 30
0.0
 11
1861.559957827782
 21
239.1953013536906
 31
0.0
  0
LINE
  5
115E2
330
18
100
AcDbEntity
  8
DRAW2
100
AcDbLine
 10
1832.823137827782
 20
209.6953013536906
 30
0.0
 11
1861.559957827782
 21
209.6953013536906
 31
0.0
  0
LINE
  5
115E4
330
18
100
AcDbEntity
  8
DRAW2
100
AcDbLine
 10
1832.823137827782
 20
222.4453013536906
 30
0.0
 11
1832.823137827782
 21
209.6953013536906
 31
0.0
  0
LINE
  5
115E5
330
18
100
AcDbEntity
  8
DRAW2
100
AcDbLine
 10
1832.823137827782
 20
222.4453013536906
 30
0.0
 11
1835.323137827781
 21
222.4453013536906
 31
0.0
  0
LINE
  5
115E6
330
18
100
AcDbEntity
  8
DRAW2
100
AcDbLine
 10
1832.823137827782
 20
226.4452413536905
 30
0.0
 11
1835.323137827781
 21
226.4452413536905
 31
0.0
  0
LINE
  5
115E7
330
18
100
AcDbEntity
  8
DRAW2
100
AcDbLine
 10
1835.323137827781
 20
226.4452413536905
 30
0.0
 11
1835.323137827781
 21
222.4453013536906
 31
0.0
  0
LINE
  5
115E8
330
18
100
AcDbEntity
  8
DRAW2
100
AcDbLine
 10
1832.823137827782
 20
239.1953013536906
 30
0.0
 11
1832.823137827782
 21
226.4452413536905
 31
0.0
  0
LINE
  5
115E9
330
18
100
AcDbEntity
  8
DRAW2
100
AcDbLine
 10
1717.465024921827
 20
365.7815699975401
 30
0.0
 11
1822.837329856415
 21
365.7815699975397
 31
0.0
  0
LINE
  5
115EA
330
18
100
AcDbEntity
  8
DRAW2
100
AcDbLine
 10
1725.465024921827
 20
364.7815699975401
 30
0.0
 11
1822.837329856415
 21
364.78156999754
 31
0.0
  0
LINE
  5
115EB
330
18
100
AcDbEntity
  8
DRAW2
100
AcDbLine
 10
1724.465024921829
 20
366.7815699975387
 30
0.0
 11
1822.837329856415
 21
366.7815699975387
 31
0.0
  0
LINE
  5
115EC
330
18
100
AcDbEntity
  8
DRAW2
100
AcDbLine
 10
1714.667065950697
 20
364.7815699975392
 30
0.0
 11
1718.323596493281
 21
364.7815699975392
 31
0.0
  0
LINE
  5
115ED
330
18
100
AcDbEntity
  8
DRAW2
100
AcDbLine
 10
1822.837329856416
 20
369.406569997539
 30
0.0
 11
1822.837329856415
 21
363.406569997539
 31
0.0
  0
CIRCLE
  5
115F0
330
18
100
AcDbEntity
  8
DRAW2
100
AcDbCircle
 10
1891.490407827781
 20
273.046117682999
 30
0.0
 40
11.0
  0
CIRCLE
  5
115F1
330
18
100
AcDbEntity
  8
DRAW2
100
AcDbCircle
 10
1891.490407827781
 20
273.046117682999
 30
0.0
 40
13.000001
  0
LINE
  5
115F2
330
18
100
AcDbEntity
  8
DRAW2
100
AcDbLine
 10
1885.256157150679
 20
307.3535634418743
 30
0.0
 11
1885.256157150679
 21
305.9020780712938
 31
0.0
  0
LINE
  5
115F3
330
18
100
AcDbEntity
  8
DRAW2
100
AcDbLine
 10
1888.439205884446
 20
310.5366121756414
 30
0.0
 11
1885.256157150679
 21
307.3535634418744
 31
0.0
  0
LINE
  5
115F4
330
18
100
AcDbEntity
  8
DRAW2
100
AcDbLine
 10
1910.46311907157
 20
338.3501844265752
 30
0.0
 11
1909.801201494107
 21
339.0121020040387
 31
0.0
  0
LINE
  5
115F5
330
18
100
AcDbEntity
  8
DRAW2
100
AcDbLine
 10
1911.191905806952
 20
337.5743791921372
 30
0.0
 11
1904.179262692882
 21
330.5617360780673
 31
0.0
  0
ARC
  5
115F8
330
18
100
AcDbEntity
  8
DRAW2
100
AcDbCircle
 10
1868.246566824092
 20
349.2644343738086
 30
0.0
 40
20.14213562373095
100
AcDbArc
 50
45.00000000000432
 51
90.0
  0
ARC
  5
115F9
330
18
100
AcDbEntity
  8
DRAW2
100
AcDbCircle
 10
1868.246566824092
 20
349.2644343738086
 30
0.0
 40
14.14213562373095
100
AcDbArc
 50
45.00000000000432
 51
90.0
  0
LINE
  5
115FA
330
18
100
AcDbEntity
  8
DRAW2
100
AcDbLine
 10
1864.623235352588
 20
369.4065699975396
 30
0.0
 11
1868.246566824092
 21
369.4065699975396
 31
0.0
  0
LINE
  5
115FB
330
18
100
AcDbEntity
  8
DRAW2
100
AcDbLine
 10
1865.623546081636
 20
363.4065699975396
 30
0.0
 11
1868.246566824092
 21
363.4065699975396
 31
0.0
  0
LINE
  5
115FC
330
18
100
AcDbEntity
  8
DRAW2
100
AcDbLine
 10
1905.975804882777
 20
342.8489048141074
 30
0.0
 11
1904.785478856756
 21
341.6585787880864
 31
0.0
  0
LINE
  5
115FD
330
18
100
AcDbEntity
  8
DRAW2
100
AcDbLine
 10
1905.564263906357
 20
343.2604457905274
 30
0.0
 11
1909.806904593476
 21
339.0178051034081
 31
0.0
  0
LINE
  5
115FE
330
18
100
AcDbEntity
  8
DRAW2
100
AcDbLine
 10
1889.32341357607
 20
342.6979032176607
 30
0.0
 11
1893.364363130005
 21
338.6569536637262
 31
0.0
  0
LINE
  5
115FF
330
18
100
AcDbEntity
  8
DRAW2
100
AcDbLine
 10
1892.030467095723
 20
344.9148486772272
 30
0.0
 11
1895.919554392249
 21
341.0257613807011
 31
0.0
  0
LINE
  5
11602
330
18
100
AcDbEntity
  8
DRAW2
100
AcDbLine
 10
1903.096688221293
 20
346.7886816473715
 30
0.0
 11
1894.964960237647
 21
338.6569536637262
 31
0.0
  0
LINE
  5
11603
330
18
100
AcDbEntity
  8
DRAW2
100
AcDbLine
 10
1905.564263906357
 20
343.2604457905274
 30
0.0
 11
1898.493196094491
 21
336.1893779786619
 31
0.0
  0
LINE
  5
11604
330
18
100
AcDbEntity
  8
DRAW2
100
AcDbLine
 10
1903.671692606511
 20
345.1530170903732
 30
0.0
 11
1896.600624794646
 21
338.0819492785077
 31
0.0
  0
LINE
  5
11605
330
18
100
AcDbEntity
  8
DRAW2
100
AcDbLine
 10
1903.671692606511
 20
344.1963016154277
 30
0.0
 11
1897.557340269591
 21
338.0819492785077
 31
0.0
  0
LINE
  5
11606
330
18
100
AcDbEntity
  8
DRAW2
100
AcDbLine
 10
1894.964960237647
 20
338.6569536637262
 30
0.0
 11
1893.364363130005
 21
338.6569536637262
 31
0.0
  0
LINE
  5
11607
330
18
100
AcDbEntity
  8
DRAW2
100
AcDbLine
 10
1907.903768686899
 20
337.1146691968311
 30
0.0
 11
1908.205037591035
 21
338.2390200538071
 31
0.0
  0
LINE
  5
11608
330
18
100
AcDbEntity
  8
DRAW2
100
AcDbLine
 10
1909.395363617056
 20
339.4293460798281
 30
0.0
 11
1908.205037591035
 21
338.239020053807
 31
0.0
  0
LINE
  5
11609
330
18
100
AcDbEntity
  8
DRAW2
100
AcDbLine
 10
1903.66112799978
 20
341.3573098839504
 30
0.0
 11
1904.785478856756
 21
341.6585787880863
 31
0.0
  0
LINE
  5
1160A
330
18
100
AcDbEntity
  8
DRAW2
100
AcDbLine
 10
1908.205037591035
 20
338.239020053807
 30
0.0
 11
1904.785478856756
 21
341.6585787880864
 31
0.0
  0
LINE
  5
1160B
330
18
100
AcDbEntity
  8
DRAW3
100
AcDbLine
 10
1903.403457458444
 20
331.2905228134485
 30
0.0
 11
1904.590091732751
 21
330.9725651179366
 31
0.0
  0
LINE
  5
1160C
330
18
100
AcDbEntity
  8
DRAW2
100
AcDbLine
 10
1903.403457458444
 20
331.2905228134485
 30
0.0
 11
1902.74153988098
 21
331.952440390912
 31
0.0
  0
LINE
  5
1160D
330
18
100
AcDbEntity
  8
DRAW2
100
AcDbLine
 10
1904.638972688188
 20
333.8498731981196
 30
0.0
 11
1903.514621831212
 21
333.5486042939837
 31
0.0
  0
LINE
  5
1160E
330
18
100
AcDbEntity
  8
DRAW2
100
AcDbLine
 10
1902.324295805191
 20
332.3582782679626
 30
0.0
 11
1903.514621831212
 21
333.5486042939836
 31
0.0
  0
LINE
  5
1160F
330
18
100
AcDbEntity
  8
DRAW3
100
AcDbLine
 10
1897.557340269591
 20
338.0819492785077
 30
0.0
 11
1895.97364806101
 21
339.6656414870888
 31
0.0
  0
LINE
  5
11610
330
18
100
AcDbEntity
  8
DRAW2
100
AcDbLine
 10
1899.058881519441
 20
336.7550634036111
 30
0.0
 11
1897.644667957068
 21
338.1692769659842
 31
0.0
  0
LINE
  5
11611
330
18
100
AcDbEntity
  8
DRAW2
100
AcDbLine
 10
1900.396332001069
 20
338.0925138852389
 30
0.0
 11
1900.095063096933
 21
336.9681630282629
 31
0.0
  0
LINE
  5
11612
330
18
100
AcDbEntity
  8
DRAW2
100
AcDbLine
 10
1898.904737070911
 20
335.7778370022419
 30
0.0
 11
1900.095063096933
 21
336.968163028263
 31
0.0
  0
LINE
  5
11613
330
18
100
AcDbEntity
  8
DRAW2
100
AcDbLine
 10
1895.919554392249
 20
341.0257613807011
 30
0.0
 11
1895.401916165975
 21
339.0939095920536
 31
0.0
  0
LINE
  5
11614
330
18
100
AcDbEntity
  8
DRAW2
100
AcDbLine
 10
1897.557340269591
 20
338.0819492785077
 30
0.0
 11
1896.600624794646
 21
338.0819492785077
 31
0.0
  0
LINE
  5
11615
330
18
100
AcDbEntity
  8
DRAW2
100
AcDbLine
 10
1896.600624794646
 20
338.0819492785077
 30
0.0
 11
1895.495290323537
 21
339.1872837496161
 31
0.0
  0
LINE
  5
11616
330
18
100
AcDbEntity
  8
DRAW2
100
AcDbLine
 10
1898.493196094491
 20
336.1893779786619
 30
0.0
 11
1902.735836781611
 21
331.9467372915426
 31
0.0
  0
LINE
  5
11617
330
18
100
AcDbEntity
  8
DRAW2
100
AcDbLine
 10
1903.514621831212
 20
333.5486042939836
 30
0.0
 11
1900.095063096933
 21
336.968163028263
 31
0.0
  0
LINE
  5
11618
330
18
100
AcDbEntity
  8
DRAW2
100
AcDbLine
 10
1909.806904593476
 20
339.0178051034081
 30
0.0
 11
1902.735836781611
 21
331.9467372915426
 31
0.0
  0
LINE
  5
11619
330
18
100
AcDbEntity
  8
DRAW2
100
AcDbLine
 10
1895.919554392249
 20
341.0257613807011
 30
0.0
 11
1897.851406180897
 21
341.5433996069755
 31
0.0
  0
LINE
  5
1161A
330
18
100
AcDbEntity
  8
DRAW3
100
AcDbLine
 10
1904.590091732751
 20
330.9725651179366
 30
0.0
 11
1905.347941564197
 21
330.2606455793058
 31
0.0
  0
LINE
  5
1161B
330
18
100
AcDbEntity
  8
DRAW2
100
AcDbLine
 10
1904.933206094773
 20
329.8534862156841
 30
0.0
 11
1903.403457458444
 21
331.2905228134485
 31
0.0
  0
LINE
  5
1161C
330
18
100
AcDbEntity
  8
DRAW2
100
AcDbLine
 10
1896.025620409427
 20
353.859749459237
 30
0.0
 11
1887.893892425782
 21
345.7280214755917
 31
0.0
  0
LINE
  5
1161D
330
18
100
AcDbEntity
  8
DRAW2
100
AcDbLine
 10
1897.793387362393
 20
352.0919825062706
 30
0.0
 11
1889.661659378749
 21
343.9602545226253
 31
0.0
  0
LINE
  5
1161E
330
18
100
AcDbEntity
  8
DRAW2
100
AcDbLine
 10
1895.467942968775
 20
354.0091787997712
 30
0.0
 11
1887.744463085248
 21
346.285698916244
 31
0.0
  0
LINE
  5
1161F
330
18
100
AcDbEntity
  8
DRAW2
100
AcDbLine
 10
1882.48920751121
 20
363.5070750609279
 30
0.0
 11
1893.727523370571
 21
352.2687592015675
 31
0.0
  0
LINE
  5
11620
330
18
100
AcDbEntity
  8
DRAW2
100
AcDbLine
 10
1887.893892425782
 20
345.7280214755917
 30
0.0
 11
1889.661659378749
 21
343.9602545226253
 31
0.0
  0
LINE
  5
11621
330
18
100
AcDbEntity
  8
DRAW2
100
AcDbLine
 10
1892.030467095723
 20
344.9148486772272
 30
0.0
 11
1890.098615307076
 21
344.3972104509527
 31
0.0
  0
LINE
  5
11622
330
18
100
AcDbEntity
  8
DRAW2
100
AcDbLine
 10
1889.661659378749
 20
343.9602545226253
 30
0.0
 11
1889.32341357607
 21
342.6979032176606
 31
0.0
  0
LINE
  5
11623
330
18
100
AcDbEntity
  8
DRAW2
100
AcDbLine
 10
1887.893892425782
 20
345.7280214755917
 30
0.0
 11
1887.744463085248
 21
346.285698916244
 31
0.0
  0
LINE
  5
11624
330
18
100
AcDbEntity
  8
DRAW2
100
AcDbLine
 10
1892.030467095723
 20
344.9148486772272
 30
0.0
 11
1892.548105321997
 21
346.8467004658746
 31
0.0
  0
LINE
  5
11625
330
18
100
AcDbEntity
  8
DRAW2
100
AcDbLine
 10
1878.246566824092
 20
359.2644343738086
 30
0.0
 11
1889.484882683452
 21
348.0261185144486
 31
0.0
  0
LINE
  5
11626
330
18
100
AcDbEntity
  8
DRAW3
100
AcDbLine
 10
1903.671692606511
 20
344.1963016154277
 30
0.0
 11
1902.08800039793
 21
345.7799938240089
 31
0.0
  0
LINE
  5
11627
330
18
100
AcDbEntity
  8
DRAW2
100
AcDbLine
 10
1899.055738667358
 20
352.4302283089487
 30
0.0
 11
1903.096688221293
 21
348.3892787550142
 31
0.0
  0
LINE
  5
11628
330
18
100
AcDbEntity
  8
DRAW2
100
AcDbLine
 10
1896.838793207792
 20
349.7231747892957
 30
0.0
 11
1900.727880504318
 21
345.8340874927697
 31
0.0
  0
LINE
  5
11629
330
18
100
AcDbEntity
  8
DRAW2
100
AcDbLine
 10
1904.998578481408
 20
342.6947603655781
 30
0.0
 11
1903.584364919035
 21
344.1089739279513
 31
0.0
  0
LINE
  5
1162A
330
18
100
AcDbEntity
  8
DRAW2
100
AcDbLine
 10
1903.096688221293
 20
346.7886816473715
 30
0.0
 11
1903.096688221293
 21
348.3892787550143
 31
0.0
  0
LINE
  5
1162B
330
18
100
AcDbEntity
  8
DRAW2
100
AcDbLine
 10
1900.727880504318
 20
345.8340874927697
 30
0.0
 11
1902.659732292965
 21
346.3517257190441
 31
0.0
  0
LINE
  5
1162C
330
18
100
AcDbEntity
  8
DRAW2
100
AcDbLine
 10
1900.727880504318
 20
345.8340874927697
 30
0.0
 11
1900.210242278044
 21
343.9022357041222
 31
0.0
  0
LINE
  5
1162D
330
18
100
AcDbEntity
  8
DRAW2
100
AcDbLine
 10
1903.671692606511
 20
344.1963016154277
 30
0.0
 11
1903.671692606511
 21
345.1530170903732
 31
0.0
  0
LINE
  5
1162E
330
18
100
AcDbEntity
  8
DRAW2
100
AcDbLine
 10
1903.671692606511
 20
345.1530170903732
 30
0.0
 11
1902.566358135403
 21
346.2583515614816
 31
0.0
  0
LINE
  5
1162F
330
18
100
AcDbEntity
  8
DRAW2
100
AcDbLine
 10
1896.025620409427
 20
353.859749459237
 30
0.0
 11
1897.793387362393
 21
352.0919825062706
 31
0.0
  0
LINE
  5
11630
330
18
100
AcDbEntity
  8
DRAW2
100
AcDbLine
 10
1896.838793207792
 20
349.7231747892957
 30
0.0
 11
1897.356431434066
 21
351.6550265779432
 31
0.0
  0
LINE
  5
11631
330
18
100
AcDbEntity
  8
DRAW2
100
AcDbLine
 10
1896.838793207792
 20
349.7231747892957
 30
0.0
 11
1894.906941419145
 21
349.2055365630213
 31
0.0
  0
LINE
  5
11632
330
18
100
AcDbEntity
  8
DRAW2
100
AcDbLine
 10
1897.793387362393
 20
352.0919825062706
 30
0.0
 11
1899.055738667358
 21
352.4302283089487
 31
0.0
  0
LINE
  5
11634
330
18
100
AcDbEntity
  8
DRAW2
100
AcDbLine
 10
1896.025620409427
 20
353.859749459237
 30
0.0
 11
1895.467942968775
 21
354.0091787997712
 31
0.0
  0
LINE
  5
11635
330
18
100
AcDbEntity
  8
DRAW3
100
AcDbLine
 10
1910.46311907157
 20
338.3501844265752
 30
0.0
 11
1910.781076767082
 21
337.1635501522677
 31
0.0
  0
LINE
  5
11636
330
18
100
AcDbEntity
  8
DRAW3
100
AcDbLine
 10
1910.781076767082
 20
337.1635501522677
 30
0.0
 11
1911.734109418652
 21
336.149031523177
 31
0.0
  0
LINE
  5
11637
330
18
100
AcDbEntity
  8
DRAW2
100
AcDbLine
 10
1912.173517496181
 20
336.5294377165063
 30
0.0
 11
1910.46311907157
 21
338.3501844265752
 31
0.0
  0
LINE
  5
11638
330
18
100
AcDbEntity
  8
DRAW2
100
AcDbLine
 10
1925.914797068906
 20
348.0122033601009
 30
0.0
 11
1927.3662643458
 21
348.0122033601009
 31
0.0
  0
LINE
  5
11639
330
18
100
AcDbEntity
  8
DRAW2
100
AcDbLine
 10
1925.914797068906
 20
348.012203360101
 30
0.0
 11
1922.731783335139
 21
344.8291896263345
 31
0.0
  0
LINE
  5
1163A
330
18
100
AcDbEntity
  8
DRAW2
100
AcDbLine
 10
1927.130920642038
 20
347.8567399587481
 30
0.0
 11
1926.975457240686
 21
348.012203360101
 31
0.0
  0
CIRCLE
  5
1163C
330
18
100
AcDbEntity
  8
DRAW2
100
AcDbCircle
 10
1960.222397827782
 20
341.7779876829989
 30
0.0
 40
11.0
  0
CIRCLE
  5
1163D
330
18
100
AcDbEntity
  8
DRAW2
100
AcDbCircle
 10
1960.222397827782
 20
341.7779876829989
 30
0.0
 40
13.000001
  0
LINE
  5
1163E
330
18
100
AcDbEntity
  8
DRAW2
100
AcDbLine
 10
1960.823117395651
 20
364.4452909634111
 30
0.0
 11
1962.538606750245
 21
364.4452909634111
 31
0.0
  0
LINE
  5
11640
330
18
100
AcDbEntity
  8
DRAW2
100
AcDbLine
 10
1961.823107827782
 20
463.4452276829989
 30
0.0
 11
1961.823107827782
 21
448.445227682999
 31
0.0
  0
LINE
  5
11641
330
18
100
AcDbEntity
  8
DRAW2
100
AcDbLine
 10
1961.823107827782
 20
448.445227682999
 30
0.0
 11
1962.538658219359
 21
448.445227682999
 31
0.0
  0
LINE
  5
11642
330
18
100
AcDbEntity
  8
DRAW2
100
AcDbLine
 10
1964.823167827782
 20
490.445167682999
 30
0.0
 11
1962.823227827782
 21
488.4451676829989
 31
0.0
  0
LINE
  5
11643
330
18
100
AcDbEntity
  8
DRAW2
100
AcDbLine
 10
1962.823287827781
 20
488.4452276829989
 30
0.0
 11
1962.823287827781
 21
463.4452276829989
 31
0.0
  0
CIRCLE
  5
11645
330
18
100
AcDbEntity
  8
DRAW2
100
AcDbCircle
 10
2040.642927827781
 20
438.264990963411
 30
0.0
 40
9.5
  0
CIRCLE
  5
11649
330
18
100
AcDbEntity
  8
DRAW2
100
AcDbCircle
 10
2040.642927827781
 20
374.625410963411
 30
0.0
 40
9.5
  0
CIRCLE
  5
1164C
330
18
100
AcDbEntity
  8
DRAW2
100
AcDbCircle
 10
2008.823107827781
 20
406.445230963411
 30
0.0
 40
13.5
  0
CIRCLE
  5
1164D
330
18
100
AcDbEntity
  8
DRAW2
100
AcDbCircle
 10
2008.823107827781
 20
406.445230963411
 30
0.0
 40
12.500001
  0
CIRCLE
  5
1164F
330
18
100
AcDbEntity
  8
DRAW2
100
AcDbCircle
 10
2057.423967827781
 20
341.7779276829989
 30
0.0
 40
11.0
  0
CIRCLE
  5
11650
330
18
100
AcDbEntity
  8
DRAW2
100
AcDbCircle
 10
2057.423967827781
 20
341.7779276829989
 30
0.0
 40
13.000001
  0
LINE
  5
11651
330
18
100
AcDbEntity
  8
DRAW2
100
AcDbLine
 10
2055.107608905317
 20
364.4452909634111
 30
0.0
 11
2056.823098259912
 21
364.4452909634111
 31
0.0
  0
CIRCLE
  5
11653
330
18
100
AcDbEntity
  8
DRAW2
100
AcDbCircle
 10
2126.155867827781
 20
273.0460576829989
 30
0.0
 40
11.0
  0
CIRCLE
  5
11654
330
18
100
AcDbEntity
  8
DRAW2
100
AcDbCircle
 10
2126.155867827781
 20
273.0460576829989
 30
0.0
 40
13.000001
  0
LINE
  5
11655
330
18
100
AcDbEntity
  8
DRAW2
100
AcDbLine
 10
2054.823077827782
 20
488.4452276829989
 30
0.0
 11
2028.823017827781
 21
488.4452276829989
 31
0.0
  0
LINE
  5
11656
330
18
100
AcDbEntity
  8
DRAW2
100
AcDbLine
 10
2052.823197827782
 20
490.445227682999
 30
0.0
 11
2030.823017827781
 21
490.445227682999
 31
0.0
  0
LINE
  5
11657
330
18
100
AcDbEntity
  8
DRAW2
100
AcDbLine
 10
2034.460002607902
 20
463.445227682999
 30
0.0
 11
2055.823107827781
 21
463.4452276829989
 31
0.0
  0
LINE
  5
11658
330
18
100
AcDbEntity
  8
DRAW2
100
AcDbLine
 10
1988.823287827782
 20
488.4451676829989
 30
0.0
 11
1986.823377827781
 21
490.445167682999
 31
0.0
  0
LINE
  5
11659
330
18
100
AcDbEntity
  8
DRAW2
100
AcDbLine
 10
1988.823287827782
 20
488.4452276829989
 30
0.0
 11
1988.823287827782
 21
465.6588881715889
 31
0.0
  0
LINE
  5
1165A
330
18
100
AcDbEntity
  8
DRAW2
100
AcDbLine
 10
2030.823227827781
 20
490.4451076829989
 30
0.0
 11
2028.823287827781
 21
488.4451676829989
 31
0.0
  0
LINE
  5
1165B
330
18
100
AcDbEntity
  8
DRAW2
100
AcDbLine
 10
2028.823257827781
 20
488.4452276829989
 30
0.0
 11
2028.823257827781
 21
465.6587767107946
 31
0.0
  0
LINE
  5
1165D
330
18
100
AcDbEntity
  8
DRAW2
100
AcDbLine
 10
2055.823107827781
 20
463.4452276829989
 30
0.0
 11
2055.823107827781
 21
448.445227682999
 31
0.0
  0
LINE
  5
1165E
330
18
100
AcDbEntity
  8
DRAW2
100
AcDbLine
 10
2055.107557436204
 20
448.4452276829989
 30
0.0
 11
2055.823107827781
 21
448.445227682999
 31
0.0
  0
LINE
  5
1165F
330
18
100
AcDbEntity
  8
DRAW2
100
AcDbLine
 10
2054.823377827781
 20
488.4451076829988
 30
0.0
 11
2052.823377827782
 21
490.445167682999
 31
0.0
  0
LINE
  5
11660
330
18
100
AcDbEntity
  8
DRAW2
100
AcDbLine
 10
2054.823317827782
 20
488.4452276829989
 30
0.0
 11
2054.823317827782
 21
463.4452276829989
 31
0.0
  0
LINE
  5
11A1C
330
18
100
AcDbEntity
  8
HIDDEN
100
AcDbLine
 10
2110.813107627782
 20
119.742100182999
 30
0.0
 11
2102.012522119085
 21
120.0171184801457
 31
0.0
  0
LINE
  5
11A1D
330
18
100
AcDbEntity
  8
HIDDEN
100
AcDbLine
 10
2110.813107627782
 20
120.598100182999
 30
0.0
 11
2101.156939781955
 21
120.899855428181
 31
0.0
  0
LINE
  5
11A1E
330
18
100
AcDbEntity
  8
HIDDEN
100
AcDbLine
 10
2110.813107627782
 20
133.1484751829992
 30
0.0
 11
2102.012522119086
 21
132.8734568858523
 31
0.0
  0
LINE
  5
11A1F
330
18
100
AcDbEntity
  8
HIDDEN
100
AcDbLine
 10
2110.813107627782
 20
132.2924751829991
 30
0.0
 11
2101.156939781955
 21
131.990719937817
 31
0.0
  0
LINE
  5
11A20
330
18
100
AcDbEntity
  8
HIDDEN
100
AcDbLine
 10
2100.813107627782
 20
131.635975182999
 30
0.0
 11
2102.012522119086
 21
132.8734568858523
 31
0.0
  0
LINE
  5
11A21
330
18
100
AcDbEntity
  8
HIDDEN
100
AcDbLine
 10
2100.813107627782
 20
121.2546001829989
 30
0.0
 11
2102.012522119085
 21
120.0171184801456
 31
0.0
  0
ARC
  5
11A22
330
18
100
AcDbEntity
  8
HIDDEN
100
AcDbCircle
 10
2095.33588205273
 20
126.445287682999
 30
0.0
 40
6.5
100
AcDbArc
 50
327.4210296071911
 51
32.57897039280946
  0
LINE
  5
11A23
330
18
100
AcDbEntity
  8
HIDDEN
100
AcDbLine
 10
2102.012522119085
 20
120.0171184801457
 30
0.0
 11
2102.012522119086
 21
132.8734568858523
 31
0.0
  0
LINE
  5
11A24
330
18
100
AcDbEntity
  8
HIDDEN
100
AcDbLine
 10
2100.813107627782
 20
121.2546001829989
 30
0.0
 11
2100.813107627782
 21
131.635975182999
 31
0.0
  0
LINE
  5
11A25
330
18
100
AcDbEntity
  8
HIDDEN
100
AcDbLine
 10
2110.813107627782
 20
119.7421001829991
 30
0.0
 11
2110.813107627782
 21
133.1484751829989
 31
0.0
  0
LINE
  5
11A26
330
18
100
AcDbEntity
  8
HIDDEN
100
AcDbLine
 10
2110.813107627782
 20
131.0452876829991
 30
0.0
 11
2107.313107627781
 21
131.045287682999
 31
0.0
  0
ARC
  5
11A28
330
18
100
AcDbEntity
  8
HIDDEN
100
AcDbCircle
 10
2122.114796720584
 20
126.445287682999
 30
0.0
 40
15.49999999999998
100
AcDbArc
 50
162.7360436771846
 51
197.2639563228153
  0
LINE
  5
11A29
330
18
100
AcDbEntity
  8
HIDDEN
100
AcDbLine
 10
2110.813107627782
 20
121.845287682999
 30
0.0
 11
2107.313107627781
 21
121.8452876829989
 31
0.0
  0
VIEWPORT
  5
37
330
15
100
AcDbEntity
 67
     1
  8
0
100
AcDbViewport
 10
296.9950122070312
 20
209.9950000476836
 30
0.0
 40
632.1056339387388
 41
423.1939163498098
 68
     1
 69
     1
 12
296.9950122070312
 22
209.9950000476836
 13
0.0
 23
0.0
 14
10.0
 24
10.0
 15
10.0
 25
10.0
 16
0.0
 26
0.0
 36
1.0
 17
0.0
 27
0.0
 37
0.0
 42
50.0
 43
0.0
 44
0.0
 45
423.1939163498098
 50
0.0
 51
0.0
 72
   100
 90
    32768
  1

281
     0
 71
     1
 74
     0
110
0.0
120
0.0
130
0.0
111
1.0
121
0.0
131
0.0
112
0.0
122
1.0
132
0.0
 79
     0
146
0.0
  0
ENDSEC
  0
SECTION
  2
OBJECTS
  0
DICTIONARY
  5
C
330
0
100
AcDbDictionary
281
     1
  3
ACAD_GROUP
350
D
  3
ACAD_IMAGE_VARS
350
7A9
  3
ACAD_LAYOUT
350
1AD
  3
ACAD_MLINESTYLE
350
1B
  3
ACAD_PLOTSETTINGS
350
1AE
  3
ACAD_PLOTSTYLENAME
350
1AB
  0
DICTIONARY
  5
D
102
{ACAD_REACTORS
330
C
102
}
330
C
100
AcDbDictionary
281
     1
  3
*A1
350
1485
  0
RASTERVARIABLES
  5
7A9
102
{ACAD_REACTORS
330
C
102
}
330
C
100
AcDbRasterVariables
 90
        0
 70
     1
 71
     1
 72
     0
  0
DICTIONARY
  5
1AD
102
{ACAD_REACTORS
330
C
102
}
330
C
100
AcDbDictionary
281
     1
  3
Model
350
1AF
  3
ﾚｲｱｳﾄ1
350
1B0
  0
DICTIONARY
  5
1B
102
{ACAD_REACTORS
330
C
102
}
330
C
100
AcDbDictionary
281
     1
  3
STANDARD
350
1C
  0
DICTIONARY
  5
1AE
102
{ACAD_REACTORS
330
C
102
}
330
C
100
AcDbDictionary
281
     1
  3
AdobePDF_A1
350
F162
  3
AdobePDF_A2
350
1171F
  3
普通紙Ａ２からＡ３_CX7500_WinXP
350
1171D
  3
普通紙Ａ２からＡ４_CX7500_WinXP
350
1171E
  3
普通紙Ａ３_XL-5800_WinNT40
350
298B
  3
普通紙Ａ３からＡ４_XL-5800_WinNT40
350
298C
  0
ACDBDICTIONARYWDFLT
  5
1AB
102
{ACAD_REACTORS
330
C
102
}
330
C
100
AcDbDictionary
281
     1
  3
Normal
350
1AC
100
AcDbDictionaryWithDefault
340
1AC
  0
GROUP
  5
1485
102
{ACAD_REACTORS
330
D
102
}
330
D
100
AcDbGroup
300

 70
     1
 71
     1
  0
LAYOUT
  5
1AF
102
{ACAD_REACTORS
330
1AD
102
}
330
1AD
100
AcDbPlotSettings
  1

  2
FUJITSU XL-5800
  4
A4
  6

 40
5.873749732971191
 41
5.704405784606933
 42
5.873748779296875
 43
5.873748779296875
 44
210.0579986572265
 45
296.9259948730469
 46
-934.06
 47
-482.3299999999999
 48
0.0
 49
0.0
140
0.0
141
0.0
142
1.0
143
1.0
 70
 11956
 72
     1
 73
     0
 74
     0
  7
LineScale_10.ctb
 75
    16
147
1.0
148
1033.210332103321
149
625.0
100
AcDbLayout
  1
Model
 70
     1
 71
     0
 10
0.0
 20
0.0
 11
12.0
 21
9.0
 12
0.0
 22
0.0
 32
0.0
 14
0.0
 24
0.0
 34
0.0
 15
0.0
 25
0.0
 35
0.0
146
0.0
 13
0.0
 23
0.0
 33
0.0
 16
1.0
 26
0.0
 36
0.0
 17
0.0
 27
1.0
 37
0.0
 76
     0
330
18
  0
LAYOUT
  5
1B0
102
{ACAD_REACTORS
330
1AD
102
}
330
1AD
100
AcDbPlotSettings
  1
AdobePDF_A2
  2
Adobe PDF
  4
User66
  6
A1
 40
3.174999952316284
 41
3.174999952316284
 42
3.17498779296875
 43
3.17498779296875
 44
420.0
 45
594.0
 46
-3.169999999999999
 47
-3.169999999999999
 48
0.0
 49
0.0
140
594.0
141
420.0
142
1.0
143
1.0
 70
   692
 72
     1
 73
     1
 74
     4
  7
LineScale_10.ctb
 75
    16
147
1.0
148
0.0
149
0.0
100
AcDbLayout
  1
ﾚｲｱｳﾄ1
 70
     1
 71
     1
 10
-0.0049877929687501
 20
-0.0049999523162843
 11
593.9950122070312
 21
419.9950000476837
 12
0.0
 22
0.0
 32
0.0
 14
1.000000000000000E+20
 24
1.000000000000000E+20
 34
1.000000000000000E+20
 15
-1.000000000000000E+20
 25
-1.000000000000000E+20
 35
-1.000000000000000E+20
146
0.0
 13
0.0
 23
0.0
 33
0.0
 16
1.0
 26
0.0
 36
0.0
 17
0.0
 27
1.0
 37
0.0
 76
     0
330
15
331
37
  0
MLINESTYLE
  5
1C
102
{ACAD_REACTORS
330
1B
102
}
330
1B
100
AcDbMlineStyle
  2
STANDARD
 70
     0
  3

 62
   256
 51
90.0
 52
90.0
 71
     2
 49
0.5
 62
   256
  6
BYLAYER
 49
-0.5
 62
   256
  6
BYLAYER
  0
PLOTSETTINGS
  5
F162
102
{ACAD_REACTORS
330
1AE
102
}
330
1AE
100
AcDbPlotSettings
  1
AdobePDF_A1
  2
Adobe PDF
  4
User120
  6
A1
 40
3.174999952316284
 41
3.174999952316284
 42
3.17498779296875
 43
3.17498779296875
 44
594.0
 45
841.0
 46
-3.169999999999999
 47
-3.169999999999999
 48
0.0
 49
0.0
140
841.0
141
594.0
142
1.0
143
1.0
 70
   692
 72
     1
 73
     1
 74
     4
  7
LineScale_10.ctb
 75
    16
147
1.0
148
0.0
149
0.0
  0
PLOTSETTINGS
  5
1171F
102
{ACAD_REACTORS
330
1AE
102
}
330
1AE
100
AcDbPlotSettings
  1
AdobePDF_A2
  2
Adobe PDF
  4
User66
  6
A1
 40
3.174999952316284
 41
3.174999952316284
 42
3.17498779296875
 43
3.17498779296875
 44
420.0
 45
594.0
 46
-3.169999999999999
 47
-3.169999999999999
 48
0.0
 49
0.0
140
594.0
141
420.0
142
1.0
143
1.0
 70
   692
 72
     1
 73
     1
 74
     4
  7
LineScale_10.ctb
 75
    16
147
1.0
148
0.0
149
0.0
  0
PLOTSETTINGS
  5
1171D
102
{ACAD_REACTORS
330
1AE
102
}
330
1AE
100
AcDbPlotSettings
  1
普通紙Ａ２からＡ３_CX7500_WinXP
  2
RICOH IPSiO CX7500 RPCS
  4
A3
  6
A1
 40
5.873749732971191
 41
5.873747825622558
 42
5.873748779296875
 43
5.873748779296875
 44
296.9259948730469
 45
419.9466552734374
 46
-3.0
 47
-8.019999999999999
 48
0.0
 49
0.0
140
594.0
141
420.0
142
0.7071066999999999
143
1.0
 70
   672
 72
     1
 73
     1
 74
     4
  7
LineScale_07.ctb
 75
     0
147
0.7071066999999999
148
0.0
149
0.0
  0
PLOTSETTINGS
  5
1171E
102
{ACAD_REACTORS
330
1AE
102
}
330
1AE
100
AcDbPlotSettings
  1
普通紙Ａ２からＡ４_CX7500_WinXP
  2
RICOH IPSiO CX7500 RPCS
  4
A4
  6
A1
 40
5.873749732971191
 41
5.873747825622558
 42
5.873748779296875
 43
5.873748779296875
 44
209.9733276367187
 45
296.9259948730469
 46
-6.5
 47
-7.2
 48
0.0
 49
0.0
140
594.0
141
420.0
142
1.0
143
2.0
 70
   688
 72
     1
 73
     1
 74
     4
  7
LineScale_05.ctb
 75
    17
147
0.5
148
0.0
149
0.0
  0
PLOTSETTINGS
  5
298B
102
{ACAD_REACTORS
330
1AE
102
}
330
1AE
100
AcDbPlotSettings
  1
普通紙Ａ３_XL-5800_WinNT40
  2
FUJITSU XL-5800
  4
A3
  6
A1
 40
5.873749732971191
 41
5.873747825622558
 42
5.70440673828125
 43
5.873748779296875
 44
296.9259948730469
 45
420.1159973144531
 46
-5.009999999999999
 47
-6.7
 48
0.0
 49
0.0
140
420.0
141
297.0
142
1.0
143
1.0
 70
   688
 72
     1
 73
     1
 74
     4
  7
LineScale_10.ctb
 75
    16
147
1.0
148
0.0
149
0.0
  0
PLOTSETTINGS
  5
298C
102
{ACAD_REACTORS
330
1AE
102
}
330
1AE
100
AcDbPlotSettings
  1
普通紙Ａ３からＡ４_XL-5800_WinNT40
  2
FUJITSU XL-5800
  4
A4
  6
A1
 40
5.873749732971191
 41
5.704405784606933
 42
5.873748779296875
 43
5.873748779296875
 44
210.0579986572265
 45
296.9259948730469
 46
-6.4
 47
-5.459999999999999
 48
0.0
 49
0.0
140
420.0
141
297.0
142
0.7071066999999999
143
1.0
 70
   672
 72
     1
 73
     1
 74
     4
  7
LineScale_07.ctb
 75
     0
147
0.7071066999999999
148
0.0
149
0.0
  0
ACDBPLACEHOLDER
  5
1AC
102
{ACAD_REACTORS
330
1AB
102
}
330
1AB
  0
ENDSEC
  0
EOF
