  0
SECTION
  2
HEADER
  9
$ACADVER
  1
AC1015
  9
$ACADMAINTVER
 70
     6
  9
$DWGCODEPAGE
  3
ANSI_932
  9
$INSBASE
 10
0.0
 20
0.0
 30
0.0
  9
$EXTMIN
 10
688.5277407378976
 20
78.8019478533547
 30
-0.0000000100021362
  9
$EXTMAX
 10
1140.116348735705
 20
513.7803092008542
 30
0.0000000100021363
  9
$LIMMIN
 10
-131.4718069003108
 20
1.550508291043342
  9
$LIMMAX
 10
416.2084491359824
 20
536.8381225417749
  9
$ORTHOMODE
 70
     0
  9
$REGENMODE
 70
     1
  9
$FILLMODE
 70
     1
  9
$QTEXTMODE
 70
     0
  9
$MIRRTEXT
 70
     0
  9
$LTSCALE
 40
7.0
  9
$ATTMODE
 70
     1
  9
$TEXTSIZE
 40
3.2
  9
$TRACEWID
 40
1.0
  9
$TEXTSTYLE
  7
DIMFONT
  9
$CLAYER
  8
DRAW2
  9
$CELTYPE
  6
BYLAYER
  9
$CECOLOR
 62
   256
  9
$CELTSCALE
 40
1.0
  9
$DISPSILH
 70
     0
  9
$DIMSCALE
 40
1.414213562299999
  9
$DIMASZ
 40
3.0
  9
$DIMEXO
 40
0.0
  9
$DIMDLI
 40
10.0
  9
$DIMRND
 40
0.0
  9
$DIMDLE
 40
0.0
  9
$DIMEXE
 40
1.0
  9
$DIMTP
 40
0.0
  9
$DIMTM
 40
0.0
  9
$DIMTXT
 40
3.2
  9
$DIMCEN
 40
0.0
  9
$DIMTSZ
 40
0.0
  9
$DIMTOL
 70
     0
  9
$DIMLIM
 70
     0
  9
$DIMTIH
 70
     0
  9
$DIMTOH
 70
     0
  9
$DIMSE1
 70
     0
  9
$DIMSE2
 70
     0
  9
$DIMTAD
 70
     3
  9
$DIMZIN
 70
     8
  9
$DIMBLK
  1

  9
$DIMASO
 70
     1
  9
$DIMSHO
 70
     1
  9
$DIMPOST
  1

  9
$DIMAPOST
  1

  9
$DIMALT
 70
     0
  9
$DIMALTD
 70
     2
  9
$DIMALTF
 40
25.4
  9
$DIMLFAC
 40
1.0
  9
$DIMTOFL
 70
     1
  9
$DIMTVP
 40
0.0
  9
$DIMTIX
 70
     0
  9
$DIMSOXD
 70
     0
  9
$DIMSAH
 70
     1
  9
$DIMBLK1
  1
OPEN
  9
$DIMBLK2
  1
OPEN
  9
$DIMSTYLE
  2
1_RT2
  9
$DIMCLRD
 70
     0
  9
$DIMCLRE
 70
     0
  9
$DIMCLRT
 70
     0
  9
$DIMTFAC
 40
1.0
  9
$DIMGAP
 40
1.0
  9
$DIMJUST
 70
     0
  9
$DIMSD1
 70
     0
  9
$DIMSD2
 70
     0
  9
$DIMTOLJ
 70
     1
  9
$DIMTZIN
 70
     8
  9
$DIMALTZ
 70
     0
  9
$DIMALTTZ
 70
     0
  9
$DIMUPT
 70
     0
  9
$DIMDEC
 70
     3
  9
$DIMTDEC
 70
     3
  9
$DIMALTU
 70
     2
  9
$DIMALTTD
 70
     2
  9
$DIMTXSTY
  7
DIMFONT
  9
$DIMAUNIT
 70
     0
  9
$DIMADEC
 70
     0
  9
$DIMALTRND
 40
0.0
  9
$DIMAZIN
 70
     0
  9
$DIMDSEP
 70
    46
  9
$DIMATFIT
 70
     3
  9
$DIMFRAC
 70
     0
  9
$DIMLDRBLK
  1
OPEN
  9
$DIMLUNIT
 70
     2
  9
$DIMLWD
 70
    -2
  9
$DIMLWE
 70
    -2
  9
$DIMTMOVE
 70
     0
  9
$LUNITS
 70
     2
  9
$LUPREC
 70
     4
  9
$SKETCHINC
 40
1.0
  9
$FILLETRAD
 40
0.0
  9
$AUNITS
 70
     0
  9
$AUPREC
 70
     4
  9
$MENU
  1
acad
  9
$ELEVATION
 40
0.0
  9
$PELEVATION
 40
0.0
  9
$THICKNESS
 40
0.0
  9
$LIMCHECK
 70
     0
  9
$CHAMFERA
 40
0.0
  9
$CHAMFERB
 40
0.0
  9
$CHAMFERC
 40
0.0
  9
$CHAMFERD
 40
0.0
  9
$SKPOLY
 70
     0
  9
$TDCREATE
 40
2451590.580321527
  9
$TDUCREATE
 40
2451590.205321527
  9
$TDUPDATE
 40
2454973.387517720
  9
$TDUUPDATE
 40
2454973.012517720
  9
$TDINDWG
 40
0.1997411343
  9
$TDUSRTIMER
 40
0.1997411343
  9
$USRTIMER
 70
     1
  9
$ANGBASE
 50
0.0
  9
$ANGDIR
 70
     0
  9
$PDMODE
 70
    35
  9
$PDSIZE
 40
0.5
  9
$PLINEWID
 40
0.0
  9
$SPLFRAME
 70
     0
  9
$SPLINETYPE
 70
     6
  9
$SPLINESEGS
 70
     8
  9
$HANDSEED
  5
29AD
  9
$SURFTAB1
 70
     6
  9
$SURFTAB2
 70
     6
  9
$SURFTYPE
 70
     6
  9
$SURFU
 70
     6
  9
$SURFV
 70
     6
  9
$UCSBASE
  2

  9
$UCSNAME
  2

  9
$UCSORG
 10
0.0
 20
0.0
 30
0.0
  9
$UCSXDIR
 10
1.0
 20
0.0
 30
0.0
  9
$UCSYDIR
 10
0.0
 20
1.0
 30
0.0
  9
$UCSORTHOREF
  2

  9
$UCSORTHOVIEW
 70
     0
  9
$UCSORGTOP
 10
0.0
 20
0.0
 30
0.0
  9
$UCSORGBOTTOM
 10
0.0
 20
0.0
 30
0.0
  9
$UCSORGLEFT
 10
0.0
 20
0.0
 30
0.0
  9
$UCSORGRIGHT
 10
0.0
 20
0.0
 30
0.0
  9
$UCSORGFRONT
 10
0.0
 20
0.0
 30
0.0
  9
$UCSORGBACK
 10
0.0
 20
0.0
 30
0.0
  9
$PUCSBASE
  2

  9
$PUCSNAME
  2

  9
$PUCSORG
 10
0.0
 20
0.0
 30
0.0
  9
$PUCSXDIR
 10
1.0
 20
0.0
 30
0.0
  9
$PUCSYDIR
 10
0.0
 20
1.0
 30
0.0
  9
$PUCSORTHOREF
  2

  9
$PUCSORTHOVIEW
 70
     0
  9
$PUCSORGTOP
 10
0.0
 20
0.0
 30
0.0
  9
$PUCSORGBOTTOM
 10
0.0
 20
0.0
 30
0.0
  9
$PUCSORGLEFT
 10
0.0
 20
0.0
 30
0.0
  9
$PUCSORGRIGHT
 10
0.0
 20
0.0
 30
0.0
  9
$PUCSORGFRONT
 10
0.0
 20
0.0
 30
0.0
  9
$PUCSORGBACK
 10
0.0
 20
0.0
 30
0.0
  9
$USERI1
 70
     0
  9
$USERI2
 70
     0
  9
$USERI3
 70
     0
  9
$USERI4
 70
     0
  9
$USERI5
 70
     0
  9
$USERR1
 40
0.0
  9
$USERR2
 40
0.0
  9
$USERR3
 40
0.0
  9
$USERR4
 40
0.0
  9
$USERR5
 40
0.0
  9
$WORLDVIEW
 70
     1
  9
$SHADEDGE
 70
     3
  9
$SHADEDIF
 70
    70
  9
$TILEMODE
 70
     1
  9
$MAXACTVP
 70
    48
  9
$PINSBASE
 10
0.0
 20
0.0
 30
0.0
  9
$PLIMCHECK
 70
     0
  9
$PEXTMIN
 10
1.000000000000000E+20
 20
1.000000000000000E+20
 30
1.000000000000000E+20
  9
$PEXTMAX
 10
-1.000000000000000E+20
 20
-1.000000000000000E+20
 30
-1.000000000000000E+20
  9
$PLIMMIN
 10
-0.0049877929687501
 20
-0.0049999523162843
  9
$PLIMMAX
 10
593.9950122070312
 20
419.9950000476837
  9
$UNITMODE
 70
     0
  9
$VISRETAIN
 70
     0
  9
$PLINEGEN
 70
     1
  9
$PSLTSCALE
 70
     1
  9
$TREEDEPTH
 70
  3020
  9
$CMLSTYLE
  2
STANDARD
  9
$CMLJUST
 70
     0
  9
$CMLSCALE
 40
20.0
  9
$PROXYGRAPHICS
 70
     1
  9
$MEASUREMENT
 70
     1
  9
$CELWEIGHT
370
    -1
  9
$ENDCAPS
280
     0
  9
$JOINSTYLE
280
     0
  9
$LWDISPLAY
290
     0
  9
$INSUNITS
 70
     0
  9
$HYPERLINKBASE
  1

  9
$STYLESHEET
  1

  9
$XEDIT
290
     1
  9
$CEPSNTYPE
380
     0
  9
$PSTYLEMODE
290
     1
  9
$FINGERPRINTGUID
  2
{887C87F7-29B1-4987-B977-48A866AC2180}
  9
$VERSIONGUID
  2
{ACE6C363-634C-4099-B58D-4F22D63616EC}
  9
$EXTNAMES
290
     1
  9
$PSVPSCALE
 40
0.0
  9
$OLESTARTUP
290
     0
  0
ENDSEC
  0
SECTION
  2
CLASSES
  0
CLASS
  1
LWPOLYLINE
  2
AcDbPolyline
  3
AutoCAD 2000
 90
    32768
280
     0
281
     1
  0
CLASS
  1
ACDBDICTIONARYWDFLT
  2
AcDbDictionaryWithDefault
  3
AutoCAD 2000
 90
        0
280
     0
281
     0
  0
CLASS
  1
ACDBPLACEHOLDER
  2
AcDbPlaceHolder
  3
AutoCAD 2000
 90
        0
280
     0
281
     0
  0
CLASS
  1
LAYOUT
  2
AcDbLayout
  3
AutoCAD 2000
 90
        0
280
     0
281
     0
  0
CLASS
  1
PLOTSETTINGS
  2
AcDbPlotSettings
  3
AutoCAD 2000
 90
        0
280
     0
281
     0
  0
ENDSEC
  0
SECTION
  2
TABLES
  0
TABLE
  2
VPORT
  5
8
330
0
100
AcDbSymbolTable
 70
     3
  0
VPORT
  5
29AC
330
8
100
AcDbSymbolTableRecord
100
AcDbViewportTableRecord
  2
*Active
 70
     0
 10
0.0
 20
0.0
 11
1.0
 21
1.0
 12
914.3220447368014
 22
296.2911285271044
 13
0.0
 23
0.0
 14
5.0
 24
5.0
 15
10.0
 25
10.0
 16
0.0
 26
0.0
 36
1.0
 17
0.0
 27
0.0
 37
0.0
 40
438.2861815858834
 41
1.493654822335025
 42
50.0
 43
0.0
 44
0.0
 50
0.0
 51
0.0
 71
     0
 72
   100
 73
     1
 74
     0
 75
     0
 76
     0
 77
     0
 78
     0
281
     0
 65
     1
110
0.0
120
0.0
130
0.0
111
1.0
121
0.0
131
0.0
112
0.0
122
1.0
132
0.0
 79
     0
146
0.0
  0
ENDTAB
  0
TABLE
  2
LTYPE
  5
5
330
0
100
AcDbSymbolTable
 70
     4
  0
LTYPE
  5
12
330
5
100
AcDbSymbolTableRecord
100
AcDbLinetypeTableRecord
  2
BYBLOCK
 70
     0
  3

 72
    65
 73
     0
 40
0.0
  0
LTYPE
  5
13
330
5
100
AcDbSymbolTableRecord
100
AcDbLinetypeTableRecord
  2
BYLAYER
 70
     0
  3

 72
    65
 73
     0
 40
0.0
  0
LTYPE
  5
14
330
5
100
AcDbSymbolTableRecord
100
AcDbLinetypeTableRecord
  2
CONTINUOUS
 70
     0
  3
Solid line
 72
    65
 73
     0
 40
0.0
  0
ENDTAB
  0
TABLE
  2
LAYER
  5
2
330
0
100
AcDbSymbolTable
 70
    17
  0
LAYER
  5
E
330
2
100
AcDbSymbolTableRecord
100
AcDbLayerTableRecord
  2
0
 70
     0
 62
     7
  6
CONTINUOUS
370
    -3
390
A93
  0
LAYER
  5
29
330
2
100
AcDbSymbolTableRecord
100
AcDbLayerTableRecord
  2
DRAW2
 70
     0
 62
     4
  6
CONTINUOUS
370
    -3
390
A93
  0
LAYER
  5
2A
330
2
100
AcDbSymbolTableRecord
100
AcDbLayerTableRecord
  2
DRAW3
 70
     0
 62
     1
  6
CONTINUOUS
370
    -3
390
A93
  0
LAYER
  5
133
330
2
100
AcDbSymbolTableRecord
100
AcDbLayerTableRecord
  2
DEFPOINTS
 70
     0
 62
     7
  6
CONTINUOUS
290
     0
370
    -3
390
A93
  0
ENDTAB
  0
TABLE
  2
STYLE
  5
3
330
0
100
AcDbSymbolTable
 70
     4
  0
STYLE
  5
F
330
3
100
AcDbSymbolTableRecord
100
AcDbTextStyleTableRecord
  2
STANDARD
 70
     0
 40
0.0
 41
1.0
 50
0.0
 71
     0
 42
2.5
  3
txt
  4

  0
STYLE
  5
30
330
3
100
AcDbSymbolTableRecord
100
AcDbTextStyleTableRecord
  2
DIMFONT
 70
     0
 40
0.0
 41
1.0
 50
10.0
 71
     0
 42
3.2
  3
romans.shx
  4
extfont.shx
  0
ENDTAB
  0
TABLE
  2
VIEW
  5
6
330
0
100
AcDbSymbolTable
 70
     4
  0
VIEW
  5
39
330
6
100
AcDbSymbolTableRecord
100
AcDbViewTableRecord
  2
A1
 70
     1
 40
660.0
 10
420.5
 20
297.0
 41
1136.871508379888
 11
0.0
 21
0.0
 31
1.0
 12
0.0
 22
0.0
 32
0.0
 42
50.0
 43
0.0
 44
0.0
 50
0.0
 71
     0
281
     0
 72
     0
  0
VIEW
  5
3A
330
6
100
AcDbSymbolTableRecord
100
AcDbViewTableRecord
  2
A2
 70
     1
 40
466.6666666666666
 10
297.0
 20
210.0
 41
803.8485412787087
 11
0.0
 21
0.0
 31
1.0
 12
0.0
 22
0.0
 32
0.0
 42
50.0
 43
0.0
 44
0.0
 50
0.0
 71
     0
281
     0
 72
     0
  0
VIEW
  5
3B
330
6
100
AcDbSymbolTableRecord
100
AcDbViewTableRecord
  2
A3
 70
     1
 40
330.0
 10
210.0
 20
148.5
 41
568.4357541899441
 11
0.0
 21
0.0
 31
1.0
 12
0.0
 22
0.0
 32
0.0
 42
50.0
 43
0.0
 44
0.0
 50
0.0
 71
     0
281
     0
 72
     0
  0
VIEW
  5
3C
330
6
100
AcDbSymbolTableRecord
100
AcDbViewTableRecord
  2
A4
 70
     1
 40
330.0
 10
105.0
 20
148.5
 41
568.4357541899441
 11
0.0
 21
0.0
 31
1.0
 12
0.0
 22
0.0
 32
0.0
 42
50.0
 43
0.0
 44
0.0
 50
0.0
 71
     0
281
     0
 72
     0
  0
ENDTAB
  0
TABLE
  2
UCS
  5
7
330
0
100
AcDbSymbolTable
 70
     0
  0
ENDTAB
  0
TABLE
  2
APPID
  5
9
330
0
100
AcDbSymbolTable
 70
     1
  0
APPID
  5
10
330
9
100
AcDbSymbolTableRecord
100
AcDbRegAppTableRecord
  2
ACAD
 70
     0
  0
ENDTAB
  0
TABLE
  2
DIMSTYLE
  5
A
330
0
100
AcDbSymbolTable
 70
    13
100
AcDbDimStyleTable
 71
     1
340
50
  0
DIMSTYLE
105
1D
330
A
100
AcDbSymbolTableRecord
100
AcDbDimStyleTableRecord
  2
STANDARD
 70
     0
340
F
  0
DIMSTYLE
105
50
102
{ACAD_REACTORS
330
669
330
68E
330
762
330
796
330
744
330
73F
330
73E
330
5C5
330
620
330
618
330
5C9
330
5CA
330
297A
330
7D7
330
745
330
746
330
7ED
102
}
330
A
100
AcDbSymbolTableRecord
100
AcDbDimStyleTableRecord
  2
1_RT2
 70
     0
 40
1.414213562299999
 41
3.0
 42
0.0
 43
10.0
 44
1.0
 73
     0
 74
     0
 77
     3
 78
     8
140
3.2
141
0.0
147
1.0
172
     1
173
     1
271
     3
272
     3
284
     8
340
30
341
125
343
125
344
125
  0
ENDTAB
  0
TABLE
  2
BLOCK_RECORD
  5
1
330
0
100
AcDbSymbolTable
 70
    43
  0
BLOCK_RECORD
  5
18
330
1
100
AcDbSymbolTableRecord
100
AcDbBlockTableRecord
  2
*MODEL_SPACE
340
A96
  0
BLOCK_RECORD
  5
15
330
1
100
AcDbSymbolTableRecord
100
AcDbBlockTableRecord
  2
*PAPER_SPACE
340
A97
  0
BLOCK_RECORD
  5
125
330
1
100
AcDbSymbolTableRecord
100
AcDbBlockTableRecord
  2
_OPEN
340
0
102
{BLKREFS
331
1C0
331
1C1
331
1CC
331
1CD
331
1D8
331
1D9
331
1E4
331
1E5
331
1F0
331
1F1
331
1FC
331
1FD
331
208
331
209
331
214
331
215
331
220
331
221
331
22C
331
22D
331
238
331
239
331
244
331
245
331
250
331
251
331
25C
331
25D
331
268
331
269
331
274
331
275
331
280
331
281
331
28C
331
28D
331
28FF
331
2900
331
2908
331
2909
331
2911
331
2912
331
291A
331
291B
331
2923
331
2924
331
292C
331
292D
331
2935
331
2936
331
2947
331
2948
331
2950
331
2951
331
2959
331
295A
331
2962
331
2963
331
296B
331
296C
331
298A
331
298B
102
}
  0
ENDTAB
  0
ENDSEC
  0
SECTION
  2
BLOCKS
  0
BLOCK
  5
19
330
18
100
AcDbEntity
  8
0
100
AcDbBlockBegin
  2
*MODEL_SPACE
 70
     0
 10
0.0
 20
0.0
 30
0.0
  3
*MODEL_SPACE
  1

  0
ENDBLK
  5
1A
330
18
100
AcDbEntity
  8
0
100
AcDbBlockEnd
  0
BLOCK
  5
16
330
15
100
AcDbEntity
 67
     1
  8
0
100
AcDbBlockBegin
  2
*PAPER_SPACE
 70
     0
 10
0.0
 20
0.0
 30
0.0
  3
*PAPER_SPACE
  1

  0
ENDBLK
  5
17
330
15
100
AcDbEntity
 67
     1
  8
0
100
AcDbBlockEnd
  0
BLOCK
  5
126
330
125
100
AcDbEntity
  8
0
100
AcDbBlockBegin
  2
_OPEN
 70
     0
 10
0.0
 20
0.0
 30
0.0
  3
_OPEN
  1

  0
LINE
  5
127
330
125
100
AcDbEntity
  8
0
  6
ByBlock
 62
     0
100
AcDbLine
 10
-1.0
 20
0.1666666666666666
 30
0.0
 11
0.0
 21
0.0
 31
0.0
  0
LINE
  5
128
330
125
100
AcDbEntity
  8
0
  6
ByBlock
 62
     0
100
AcDbLine
 10
0.0
 20
0.0
 30
0.0
 11
-1.0
 21
-0.1666666666666666
 31
0.0
  0
LINE
  5
129
330
125
100
AcDbEntity
  8
0
  6
ByBlock
 62
     0
100
AcDbLine
 10
0.0
 20
0.0
 30
0.0
 11
-1.0
 21
0.0
 31
0.0
  0
ENDBLK
  5
12A
330
125
100
AcDbEntity
  8
0
100
AcDbBlockEnd
  0
ENDSEC
  0
SECTION
  2
ENTITIES
  0
LINE
  5
26B1
330
18
100
AcDbEntity
  8
DRAW2
100
AcDbLine
 10
853.5775411685335
 20
253.8097211384932
 30
0.0
 11
853.5775411685335
 21
263.8097211384932
 31
0.0
  0
LINE
  5
26B2
330
18
100
AcDbEntity
  8
DRAW2
100
AcDbLine
 10
818.5775411685336
 20
253.8097211384932
 30
0.0
 11
818.5775411685336
 21
263.8097211384932
 31
0.0
  0
LINE
  5
26B3
330
18
100
AcDbEntity
  8
DRAW2
100
AcDbLine
 10
755.5775411685336
 20
253.8097211384932
 30
0.0
 11
755.5775411685336
 21
263.8097211384932
 31
0.0
  0
LINE
  5
26B4
330
18
100
AcDbEntity
  8
DRAW2
100
AcDbLine
 10
720.5775411685335
 20
253.8097211384932
 30
0.0
 11
720.5775411685335
 21
263.8097211384932
 31
0.0
  0
SPLINE
  5
26B6
330
18
100
AcDbEntity
  8
DRAW3
100
AcDbSpline
210
0.0
220
0.0
230
1.0
 70
     8
 71
     3
 72
    10
 73
     6
 74
     0
 42
0.0000000001
 43
0.0000000001
 40
1.168860022475859
 40
1.168860022475859
 40
1.168860022475859
 40
1.168860022475859
 40
1.987508270875253
 40
2.820775360454861
 40
4.462642312805235
 40
4.462642312805235
 40
4.462642312805235
 40
4.462642312805235
 10
769.6775411685335
 20
216.9524337547879
 30
0.0
 10
769.9410169559617
 20
217.0188582496384
 30
0.0
 10
770.4595993526679
 20
217.0221521845602
 30
0.0
 10
771.4041644435921
 20
216.1342690999885
 30
0.0
 10
772.1603801734869
 20
216.917963164461
 30
0.0
 10
772.6775411685334
 20
217.1784167935888
 30
0.0
  0
SPLINE
  5
26B7
330
18
100
AcDbEntity
  8
DRAW3
100
AcDbSpline
210
0.0
220
0.0
230
1.0
 70
     8
 71
     3
 72
    10
 73
     6
 74
     0
 42
0.0000000001
 43
0.0000000001
 40
1.168860022475882
 40
1.168860022475882
 40
1.168860022475882
 40
1.168860022475882
 40
1.987508270875253
 40
2.820775360454861
 40
4.462642312805235
 40
4.462642312805235
 40
4.462642312805235
 40
4.462642312805235
 10
769.6775411685335
 20
215.5204297799002
 30
0.0
 10
769.9410169559617
 20
215.5868542747506
 30
0.0
 10
770.4595993526679
 20
215.5901482096723
 30
0.0
 10
771.4041644435921
 20
214.7022651251007
 30
0.0
 10
772.1603801734869
 20
215.4859591895732
 30
0.0
 10
772.6775411685334
 20
215.746412818701
 30
0.0
  0
LINE
  5
26B8
330
18
100
AcDbEntity
  8
DRAW2
100
AcDbLine
 10
720.5775411685335
 20
253.8097211384932
 30
0.0
 11
755.5775411685336
 21
253.8097211384932
 31
0.0
  0
LINE
  5
26B9
330
18
100
AcDbEntity
  8
DRAW2
100
AcDbLine
 10
720.5775411685335
 20
253.8097211384932
 30
0.0
 11
755.5775411685336
 21
253.8097211384932
 31
0.0
  0
LINE
  5
26BA
330
18
100
AcDbEntity
  8
DRAW2
100
AcDbLine
 10
733.8775311685335
 20
227.8097211384932
 30
0.0
 11
754.8775311685335
 21
227.8097211384932
 31
0.0
  0
LINE
  5
26BB
330
18
100
AcDbEntity
  8
DRAW2
100
AcDbLine
 10
720.5775411685335
 20
227.8097211384932
 30
0.0
 11
755.5775411685336
 21
227.8097211384932
 31
0.0
  0
LINE
  5
26BC
330
18
100
AcDbEntity
  8
DRAW2
100
AcDbLine
 10
733.8775311685335
 20
137.8097211384932
 30
0.0
 11
754.8775311685335
 21
137.8097211384932
 31
0.0
  0
LINE
  5
26BD
330
18
100
AcDbEntity
  8
DRAW2
100
AcDbLine
 10
720.5775411685335
 20
137.8097211384932
 30
0.0
 11
755.5775411685336
 21
137.8097211384932
 31
0.0
  0
ARC
  5
26BE
330
18
100
AcDbEntity
  8
DRAW2
100
AcDbCircle
 10
749.6263111685335
 20
83.80972113849328
 30
0.0
 40
2.0
100
AcDbArc
 50
270.0000200000019
 51
350.7702999999999
  0
LINE
  5
26BF
330
18
100
AcDbEntity
  8
DRAW2
100
AcDbLine
 10
720.5775411685335
 20
111.8097211384932
 30
0.0
 11
756.5775411685335
 21
111.8097211384932
 31
0.0
  0
LINE
  5
26C0
330
18
100
AcDbEntity
  8
DRAW2
100
AcDbLine
 10
756.5775411685335
 20
101.8097211384932
 30
0.0
 11
722.5775411685336
 21
101.8097211384932
 31
0.0
  0
LINE
  5
26C3
330
18
100
AcDbEntity
  8
DRAW2
100
AcDbLine
 10
726.5546811685335
 20
83.48889113849327
 30
0.0
 11
723.5775411685335
 21
101.8096911384932
 31
0.0
  0
LINE
  5
26C5
330
18
100
AcDbEntity
  8
DRAW2
100
AcDbLine
 10
728.5287711685335
 20
81.80972113849326
 30
0.0
 11
749.6263111685335
 21
81.80972113849326
 31
0.0
  0
ARC
  5
26C6
330
18
100
AcDbEntity
  8
DRAW2
100
AcDbCircle
 10
728.5287711685335
 20
83.80972113849328
 30
0.0
 40
2.0
100
AcDbArc
 50
189.2296800000003
 51
270.0000200000019
  0
LINE
  5
26C7
330
18
100
AcDbEntity
  8
DRAW2
100
AcDbLine
 10
720.5775311685336
 20
227.8097211384932
 30
0.0
 11
720.5775311685336
 21
137.8097211384932
 31
0.0
  0
LINE
  5
26C8
330
18
100
AcDbEntity
  8
DRAW2
100
AcDbLine
 10
720.5775311685336
 20
225.8097211384932
 30
0.0
 11
720.5775311685336
 21
139.8097211384932
 31
0.0
  0
LINE
  5
26C9
330
18
100
AcDbEntity
  8
DRAW2
100
AcDbLine
 10
710.5775311685335
 20
225.8097211384932
 30
0.0
 11
710.5775311685335
 21
139.8097211384932
 31
0.0
  0
LINE
  5
26CA
330
18
100
AcDbEntity
  8
DRAW2
100
AcDbLine
 10
693.5775311685335
 20
156.8686211384932
 30
0.0
 11
710.5775311685335
 21
156.8686211384932
 31
0.0
  0
LINE
  5
26CB
330
18
100
AcDbEntity
  8
DRAW2
100
AcDbLine
 10
693.5775311685335
 20
140.8686211384932
 30
0.0
 11
710.5775311685335
 21
140.8686211384932
 31
0.0
  0
LINE
  5
26CD
330
18
100
AcDbEntity
  8
DRAW2
100
AcDbLine
 10
691.5775311685336
 20
154.8686211384932
 30
0.0
 11
691.5775311685336
 21
142.8686211384932
 31
0.0
  0
LINE
  5
26CE
330
18
100
AcDbEntity
  8
DRAW2
100
AcDbLine
 10
693.5775311685335
 20
156.8686211384932
 30
0.0
 11
693.5775311685335
 21
140.8686211384932
 31
0.0
  0
LINE
  5
26CF
330
18
100
AcDbEntity
  8
DRAW2
100
AcDbLine
 10
691.5775311685336
 20
142.8685911384932
 30
0.0
 11
693.5775311685335
 21
140.8685911384932
 31
0.0
  0
LINE
  5
26D0
330
18
100
AcDbEntity
  8
DRAW2
100
AcDbLine
 10
693.5775311685335
 20
156.8686011384932
 30
0.0
 11
691.5775311685336
 21
154.8686011384932
 31
0.0
  0
LINE
  5
26D1
330
18
100
AcDbEntity
  8
DRAW2
100
AcDbLine
 10
720.5775411685335
 20
137.8097211384932
 30
0.0
 11
720.5775411685335
 21
111.8097211384932
 31
0.0
  0
LINE
  5
26D2
330
18
100
AcDbEntity
  8
DRAW2
100
AcDbLine
 10
720.5775411685335
 20
101.8097211384932
 30
0.0
 11
742.5775411685336
 21
101.8097211384932
 31
0.0
  0
LINE
  5
26D3
330
18
100
AcDbEntity
  8
DRAW2
100
AcDbLine
 10
720.5775411685335
 20
111.8097211384932
 30
0.0
 11
720.5775411685335
 21
101.8097211384932
 31
0.0
  0
LINE
  5
26D4
330
18
100
AcDbEntity
  8
DRAW2
100
AcDbLine
 10
730.0775411685336
 20
128.8097211384932
 30
0.0
 11
730.0775411685336
 21
111.8097211384932
 31
0.0
  0
LINE
  5
26D5
330
18
100
AcDbEntity
  8
DRAW2
100
AcDbLine
 10
746.0775411685335
 20
128.8097211384932
 30
0.0
 11
746.0775411685335
 21
111.8097211384932
 31
0.0
  0
LINE
  5
26D6
330
18
100
AcDbEntity
  8
DRAW2
100
AcDbLine
 10
744.0775411685335
 20
130.8097211384932
 30
0.0
 11
732.0775411685335
 21
130.8097211384932
 31
0.0
  0
LINE
  5
26D7
330
18
100
AcDbEntity
  8
DRAW2
100
AcDbLine
 10
730.0775411685336
 20
128.8097211384932
 30
0.0
 11
746.0775411685335
 21
128.8097211384932
 31
0.0
  0
LINE
  5
26D8
330
18
100
AcDbEntity
  8
DRAW2
100
AcDbLine
 10
732.0775411685335
 20
130.8097211384932
 30
0.0
 11
730.0775411685336
 21
128.8097211384932
 31
0.0
  0
LINE
  5
26D9
330
18
100
AcDbEntity
  8
DRAW2
100
AcDbLine
 10
746.0775411685335
 20
128.8097211384932
 30
0.0
 11
744.0775411685335
 21
130.8097211384932
 31
0.0
  0
LINE
  5
26DA
330
18
100
AcDbEntity
  8
DRAW2
100
AcDbLine
 10
720.5775311685336
 20
137.8097211384932
 30
0.0
 11
733.8775311685335
 21
137.8097211384932
 31
0.0
  0
LINE
  5
26DB
330
18
100
AcDbEntity
  8
DRAW2
100
AcDbLine
 10
727.9775311685336
 20
137.8097211384932
 30
0.0
 11
739.7775211685335
 21
137.8097211384932
 31
0.0
  0
LINE
  5
26DC
330
18
100
AcDbEntity
  8
DRAW2
100
AcDbLine
 10
710.5775311685335
 20
139.8097211384932
 30
0.0
 11
720.5775311685336
 21
139.8097211384932
 31
0.0
  0
LINE
  5
26DD
330
18
100
AcDbEntity
  8
DRAW2
100
AcDbLine
 10
710.5775311685335
 20
156.8686211384932
 30
0.0
 11
710.5775311685335
 21
140.8686211384932
 31
0.0
  0
LINE
  5
26DE
330
18
100
AcDbEntity
  8
DRAW2
100
AcDbLine
 10
710.5775311685335
 20
156.8686211384932
 30
0.0
 11
710.5775311685335
 21
140.8686211384932
 31
0.0
  0
LINE
  5
26DF
330
18
100
AcDbEntity
  8
DRAW2
100
AcDbLine
 10
693.5775311685335
 20
224.7508811384932
 30
0.0
 11
710.5775311685335
 21
224.7508811384932
 31
0.0
  0
LINE
  5
26E0
330
18
100
AcDbEntity
  8
DRAW2
100
AcDbLine
 10
693.5775311685335
 20
208.7508811384933
 30
0.0
 11
710.5775311685335
 21
208.7508811384933
 31
0.0
  0
LINE
  5
26E2
330
18
100
AcDbEntity
  8
DRAW2
100
AcDbLine
 10
691.5775311685336
 20
222.7508811384932
 30
0.0
 11
691.5775311685336
 21
210.7508811384933
 31
0.0
  0
LINE
  5
26E3
330
18
100
AcDbEntity
  8
DRAW2
100
AcDbLine
 10
693.5775311685335
 20
224.7508811384932
 30
0.0
 11
693.5775311685335
 21
208.7508811384933
 31
0.0
  0
LINE
  5
26E4
330
18
100
AcDbEntity
  8
DRAW2
100
AcDbLine
 10
691.5775311685336
 20
210.7508511384932
 30
0.0
 11
693.5775311685335
 21
208.7508511384932
 31
0.0
  0
LINE
  5
26E5
330
18
100
AcDbEntity
  8
DRAW2
100
AcDbLine
 10
693.5775311685335
 20
224.7508511384932
 30
0.0
 11
691.5775311685336
 21
222.7508511384932
 31
0.0
  0
LINE
  5
26E6
330
18
100
AcDbEntity
  8
DRAW2
100
AcDbLine
 10
720.5775311685336
 20
227.8097211384932
 30
0.0
 11
733.8775311685335
 21
227.8097211384932
 31
0.0
  0
LINE
  5
26E7
330
18
100
AcDbEntity
  8
DRAW2
100
AcDbLine
 10
727.9775311685336
 20
227.8097211384932
 30
0.0
 11
739.7775211685335
 21
227.8097211384932
 31
0.0
  0
LINE
  5
26E8
330
18
100
AcDbEntity
  8
DRAW2
100
AcDbLine
 10
720.5775411685335
 20
227.8097211384932
 30
0.0
 11
720.5775411685335
 21
253.8097211384932
 31
0.0
  0
LINE
  5
26E9
330
18
100
AcDbEntity
  8
DRAW2
100
AcDbLine
 10
710.5775311685335
 20
225.8097211384932
 30
0.0
 11
720.5775311685336
 21
225.8097211384932
 31
0.0
  0
LINE
  5
26EA
330
18
100
AcDbEntity
  8
DRAW2
100
AcDbLine
 10
851.0775711685335
 20
101.8097011384932
 30
0.0
 11
848.1004311685335
 21
83.48890113849327
 31
0.0
  0
LINE
  5
26EB
330
18
100
AcDbEntity
  8
DRAW2
100
AcDbLine
 10
823.0546811685336
 20
83.48889113849327
 30
0.0
 11
820.0775411685336
 21
101.8096911384932
 31
0.0
  0
LINE
  5
26ED
330
18
100
AcDbEntity
  8
DRAW2
100
AcDbLine
 10
754.5775711685335
 20
101.8097011384932
 30
0.0
 11
751.6004611685335
 21
83.48892113849329
 31
0.0
  0
LINE
  5
26EE
330
18
100
AcDbEntity
  8
DRAW2
100
AcDbLine
 10
825.0287711685336
 20
81.80972113849326
 30
0.0
 11
846.1263111685335
 21
81.80972113849326
 31
0.0
  0
ARC
  5
26EF
330
18
100
AcDbEntity
  8
DRAW2
100
AcDbCircle
 10
825.0287711685336
 20
83.80972113849328
 30
0.0
 40
2.0
100
AcDbArc
 50
189.2296800000003
 51
270.0000200000019
  0
ARC
  5
26F0
330
18
100
AcDbEntity
  8
DRAW2
100
AcDbCircle
 10
846.1263111685335
 20
83.80972113849328
 30
0.0
 40
2.0
100
AcDbArc
 50
270.0000200000019
 51
350.7702999999999
  0
LINE
  5
26F1
330
18
100
AcDbEntity
  8
DRAW2
100
AcDbLine
 10
839.8775311685335
 20
227.8097211384932
 30
0.0
 11
818.8775311685335
 21
227.8097211384932
 31
0.0
  0
LINE
  5
26F2
330
18
100
AcDbEntity
  8
DRAW2
100
AcDbLine
 10
827.5775411685335
 20
128.8097211384932
 30
0.0
 11
843.5775411685336
 21
128.8097211384932
 31
0.0
  0
LINE
  5
26F3
330
18
100
AcDbEntity
  8
DRAW2
100
AcDbLine
 10
841.5775411685336
 20
130.8097211384932
 30
0.0
 11
829.5775411685335
 21
130.8097211384932
 31
0.0
  0
LINE
  5
26F4
330
18
100
AcDbEntity
  8
DRAW2
100
AcDbLine
 10
839.8775311685335
 20
137.8097211384932
 30
0.0
 11
818.8775311685335
 21
137.8097211384932
 31
0.0
  0
LINE
  5
26F5
330
18
100
AcDbEntity
  8
DRAW2
100
AcDbLine
 10
818.5775411685336
 20
137.8097211384932
 30
0.0
 11
853.5775411685335
 21
137.8097211384932
 31
0.0
  0
LINE
  5
26F6
330
18
100
AcDbEntity
  8
DRAW2
100
AcDbLine
 10
818.5775411685336
 20
227.8097211384932
 30
0.0
 11
853.5775411685335
 21
227.8097211384932
 31
0.0
  0
LINE
  5
26F7
330
18
100
AcDbEntity
  8
DRAW2
100
AcDbLine
 10
818.5775411685336
 20
253.8097211384932
 30
0.0
 11
853.5775411685335
 21
253.8097211384932
 31
0.0
  0
LINE
  5
26F8
330
18
100
AcDbEntity
  8
DRAW2
100
AcDbLine
 10
853.5775411685335
 20
253.8097211384932
 30
0.0
 11
818.5775411685336
 21
253.8097211384932
 31
0.0
  0
LINE
  5
26F9
330
18
100
AcDbEntity
  8
DRAW2
100
AcDbLine
 10
833.9775311685336
 20
137.8097211384932
 30
0.0
 11
845.7775211685335
 21
137.8097211384932
 31
0.0
  0
LINE
  5
26FA
330
18
100
AcDbEntity
  8
DRAW2
100
AcDbLine
 10
833.9775311685336
 20
227.8097211384932
 30
0.0
 11
845.7775211685335
 21
227.8097211384932
 31
0.0
  0
LINE
  5
26FB
330
18
100
AcDbEntity
  8
DRAW2
100
AcDbLine
 10
817.5775411685336
 20
111.8097211384932
 30
0.0
 11
853.5775411685335
 21
111.8097211384932
 31
0.0
  0
LINE
  5
26FC
330
18
100
AcDbEntity
  8
DRAW2
100
AcDbLine
 10
853.5775411685335
 20
101.8097211384932
 30
0.0
 11
817.5775411685336
 21
101.8097211384932
 31
0.0
  0
LINE
  5
26FD
330
18
100
AcDbEntity
  8
DRAW2
100
AcDbLine
 10
820.5775411685335
 20
101.8097211384932
 30
0.0
 11
851.5775411685336
 21
101.8097211384932
 31
0.0
  0
CIRCLE
  5
26FF
330
18
100
AcDbEntity
  8
DRAW2
100
AcDbCircle
 10
771.1775411685334
 20
182.8097211384932
 30
0.0
 40
4.0
  0
CIRCLE
  5
2700
330
18
100
AcDbEntity
  8
DRAW3
100
AcDbCircle
 10
771.1775411685334
 20
182.8097211384932
 30
0.0
 40
6.5
  0
CIRCLE
  5
2701
330
18
100
AcDbEntity
  8
DRAW2
100
AcDbCircle
 10
771.1775411685334
 20
182.8097211384932
 30
0.0
 40
5.724999999999999
  0
CIRCLE
  5
2702
330
18
100
AcDbEntity
  8
DRAW2
100
AcDbCircle
 10
802.9775411685434
 20
182.8097211384966
 30
0.0
 40
5.724999999999999
  0
CIRCLE
  5
2703
330
18
100
AcDbEntity
  8
DRAW2
100
AcDbCircle
 10
802.9775411685434
 20
182.8097211384966
 30
0.0
 40
4.0
  0
CIRCLE
  5
2704
330
18
100
AcDbEntity
  8
DRAW3
100
AcDbCircle
 10
802.9775411685434
 20
182.8097211384966
 30
0.0
 40
6.5
  0
LINE
  5
2705
330
18
100
AcDbEntity
  8
DRAW2
100
AcDbLine
 10
818.5775411685336
 20
227.8097211384932
 30
0.0
 11
818.5775411685336
 21
137.8097211384932
 31
0.0
  0
LINE
  5
2706
330
18
100
AcDbEntity
  8
DRAW2
100
AcDbLine
 10
786.5775411685335
 20
227.8097211384932
 30
0.0
 11
786.5775411685335
 21
137.8097211384932
 31
0.0
  0
LINE
  5
2708
330
18
100
AcDbEntity
  8
DRAW2
100
AcDbLine
 10
818.177541168534
 20
227.8097211384998
 30
0.0
 11
818.177541168553
 21
137.8097211384998
 31
0.0
  0
LINE
  5
2709
330
18
100
AcDbEntity
  8
DRAW2
100
AcDbLine
 10
787.5775411685339
 20
227.8097211384933
 30
0.0
 11
787.577541168553
 21
137.8097211384933
 31
0.0
  0
LINE
  5
270A
330
18
100
AcDbEntity
  8
DRAW2
100
AcDbLine
 10
755.5775411685336
 20
227.8097211384932
 30
0.0
 11
755.5775411685336
 21
137.8097211384932
 31
0.0
  0
LINE
  5
270B
330
18
100
AcDbEntity
  8
DRAW2
100
AcDbLine
 10
755.9775411685336
 20
227.8097211384932
 30
0.0
 11
755.9775411685335
 21
137.8097211384932
 31
0.0
  0
LINE
  5
270C
330
18
100
AcDbEntity
  8
DRAW2
100
AcDbLine
 10
787.577541168553
 20
137.8097211384933
 30
0.0
 11
818.177541168553
 21
137.8097211384998
 31
0.0
  0
LINE
  5
270D
330
18
100
AcDbEntity
  8
DRAW2
100
AcDbLine
 10
755.5775411685336
 20
133.8097211384932
 30
0.0
 11
818.5775411685336
 21
133.8097211384932
 31
0.0
  0
LINE
  5
270E
330
18
100
AcDbEntity
  8
DRAW2
100
AcDbLine
 10
755.5775411685336
 20
115.8097211384932
 30
0.0
 11
818.5775411685336
 21
115.8097211384932
 31
0.0
  0
LINE
  5
270F
330
18
100
AcDbEntity
  8
DRAW2
100
AcDbLine
 10
755.5775411685336
 20
137.8097211384932
 30
0.0
 11
755.5775411685336
 21
111.8097211384932
 31
0.0
  0
LINE
  5
2710
330
18
100
AcDbEntity
  8
DRAW2
100
AcDbLine
 10
756.5775411685335
 20
111.8097211384933
 30
0.0
 11
756.5775411685335
 21
101.8097211384932
 31
0.0
  0
LINE
  5
2711
330
18
100
AcDbEntity
  8
DRAW2
100
AcDbLine
 10
786.5775411685335
 20
137.8097211384932
 30
0.0
 11
755.9775411685335
 21
137.8097211384932
 31
0.0
  0
LINE
  5
2712
330
18
100
AcDbEntity
  8
DRAW2
100
AcDbLine
 10
755.9775411685336
 20
141.8097211384932
 30
0.0
 11
755.5775411685336
 21
141.8097211384932
 31
0.0
  0
LINE
  5
2713
330
18
100
AcDbEntity
  8
DRAW2
100
AcDbLine
 10
786.5775411685335
 20
137.8097211384932
 30
0.0
 11
787.5775411685335
 21
137.8097211384932
 31
0.0
  0
LINE
  5
2714
330
18
100
AcDbEntity
  8
DRAW2
100
AcDbLine
 10
818.5775411685336
 20
137.8097211384932
 30
0.0
 11
818.5775411685336
 21
111.8097211384932
 31
0.0
  0
LINE
  5
2715
330
18
100
AcDbEntity
  8
DRAW2
100
AcDbLine
 10
827.5775411685335
 20
128.8097211384932
 30
0.0
 11
827.5775411685335
 21
111.8097211384932
 31
0.0
  0
LINE
  5
2716
330
18
100
AcDbEntity
  8
DRAW2
100
AcDbLine
 10
817.5775411685336
 20
111.8097211384932
 30
0.0
 11
817.5775411685336
 21
101.8097211384932
 31
0.0
  0
LINE
  5
2717
330
18
100
AcDbEntity
  8
DRAW2
100
AcDbLine
 10
829.5775411685335
 20
130.8097211384932
 30
0.0
 11
827.5775411685335
 21
128.8097211384932
 31
0.0
  0
LINE
  5
2718
330
18
100
AcDbEntity
  8
DRAW2
100
AcDbLine
 10
818.1775411685361
 20
141.8097211384932
 30
0.0
 11
818.5775411685362
 21
141.8097211384932
 31
0.0
  0
LINE
  5
2719
330
18
100
AcDbEntity
  8
DRAW2
100
AcDbLine
 10
818.1775411685338
 20
227.8097211384998
 30
0.0
 11
787.5775411685339
 21
227.8097211384933
 31
0.0
  0
LINE
  5
271A
330
18
100
AcDbEntity
  8
DRAW2
100
AcDbLine
 10
755.5775411685336
 20
231.8097211384932
 30
0.0
 11
818.5775411685336
 21
231.8097211384932
 31
0.0
  0
LINE
  5
271B
330
18
100
AcDbEntity
  8
DRAW2
100
AcDbLine
 10
755.5775411685336
 20
249.8097211384932
 30
0.0
 11
818.5775411685336
 21
249.8097211384932
 31
0.0
  0
LINE
  5
271D
330
18
100
AcDbEntity
  8
DRAW2
100
AcDbLine
 10
769.6775411685335
 20
216.9524337547879
 30
0.0
 11
769.6775411685335
 21
224.0937459149683
 31
0.0
  0
LINE
  5
271E
330
18
100
AcDbEntity
  8
DRAW2
100
AcDbLine
 10
772.6775411685334
 20
217.1784167935888
 30
0.0
 11
772.6775411685334
 21
224.0937459149683
 31
0.0
  0
ARC
  5
2720
330
18
100
AcDbEntity
  8
DRAW2
100
AcDbCircle
 10
771.1775411685334
 20
200.8097211384932
 30
0.0
 40
1.5
100
AcDbArc
 50
180.0
 51
0.0
  0
LINE
  5
2721
330
18
100
AcDbEntity
  8
DRAW2
100
AcDbLine
 10
767.7134395533958
 20
195.3097211384932
 30
0.0
 11
774.6416427836712
 21
195.3097211384932
 31
0.0
  0
ARC
  5
2722
330
18
100
AcDbEntity
  8
DRAW2
100
AcDbCircle
 10
771.1775411685334
 20
200.8097211384932
 30
0.0
 40
5.0
100
AcDbArc
 50
107.4576031237196
 51
72.54239687628036
  0
LINE
  5
2723
330
18
100
AcDbEntity
  8
DRAW2
100
AcDbLine
 10
765.6775411685335
 20
204.273822753631
 30
0.0
 11
765.6775411685335
 21
197.3456195233555
 31
0.0
  0
ARC
  5
2724
330
18
100
AcDbEntity
  8
DRAW2
100
AcDbCircle
 10
771.1775411685334
 20
200.8097211384932
 30
0.0
 40
6.5
100
AcDbArc
 50
212.2042275039726
 51
237.7957724960274
  0
LINE
  5
2725
330
18
100
AcDbEntity
  8
DRAW2
100
AcDbLine
 10
769.6775411685335
 20
200.8097211384932
 30
0.0
 11
769.6775411685335
 21
215.5204297799002
 31
0.0
  0
ARC
  5
2726
330
18
100
AcDbEntity
  8
DRAW2
100
AcDbCircle
 10
771.1775411685334
 20
200.8097211384932
 30
0.0
 40
6.5
100
AcDbArc
 50
122.2042275039725
 51
147.7957724960273
  0
LINE
  5
2727
330
18
100
AcDbEntity
  8
DRAW2
100
AcDbLine
 10
767.7134395533958
 20
206.3097211384932
 30
0.0
 11
769.6775411685335
 21
206.3097211384932
 31
0.0
  0
LINE
  5
2728
330
18
100
AcDbEntity
  8
DRAW2
100
AcDbLine
 10
776.6775411685334
 20
204.273822753631
 30
0.0
 11
776.6775411685334
 21
197.3456195233555
 31
0.0
  0
ARC
  5
2729
330
18
100
AcDbEntity
  8
DRAW2
100
AcDbCircle
 10
771.1775411685334
 20
200.8097211384932
 30
0.0
 40
6.5
100
AcDbArc
 50
302.2042275039725
 51
327.7957724960272
  0
LINE
  5
272A
330
18
100
AcDbEntity
  8
DRAW2
100
AcDbLine
 10
772.6775411685334
 20
200.8097211384932
 30
0.0
 11
772.6775411685334
 21
215.746412818701
 31
0.0
  0
LINE
  5
272B
330
18
100
AcDbEntity
  8
DRAW2
100
AcDbLine
 10
774.6416427836714
 20
206.3097211384932
 30
0.0
 11
772.6775411685334
 21
206.3097211384932
 31
0.0
  0
ARC
  5
272C
330
18
100
AcDbEntity
  8
DRAW2
100
AcDbCircle
 10
771.1775411685334
 20
200.8097211384932
 30
0.0
 40
6.5
100
AcDbArc
 50
32.20422750397269
 51
57.79577249602749
  0
ARC
  5
272D
330
18
100
AcDbEntity
  8
DRAW2
100
AcDbCircle
 10
771.1775411685334
 20
224.0937459149683
 30
0.0
 40
1.5
100
AcDbArc
 50
0.0
 51
180.0
  0
LINE
  5
272E
330
18
100
AcDbEntity
  8
DRAW2
100
AcDbLine
 10
755.9775411685336
 20
227.8097211384932
 30
0.0
 11
786.5775411685335
 21
227.8097211384932
 31
0.0
  0
LINE
  5
272F
330
18
100
AcDbEntity
  8
DRAW2
100
AcDbLine
 10
755.5775411685336
 20
227.8097211384932
 30
0.0
 11
755.5775411685336
 21
253.8097211384932
 31
0.0
  0
LINE
  5
2730
330
18
100
AcDbEntity
  8
DRAW2
100
AcDbLine
 10
755.9775411685336
 20
223.8097211384932
 30
0.0
 11
755.5775411685336
 21
223.8097211384932
 31
0.0
  0
LINE
  5
2731
330
18
100
AcDbEntity
  8
DRAW2
100
AcDbLine
 10
786.5775411685335
 20
227.8097211384932
 30
0.0
 11
787.5775411685335
 21
227.8097211384932
 31
0.0
  0
LINE
  5
2732
330
18
100
AcDbEntity
  8
DRAW2
100
AcDbLine
 10
818.5775411685336
 20
227.8097211384932
 30
0.0
 11
818.5775411685336
 21
253.8097211384932
 31
0.0
  0
LINE
  5
2733
330
18
100
AcDbEntity
  8
DRAW2
100
AcDbLine
 10
818.1775411685361
 20
223.8097211384932
 30
0.0
 11
818.5775411685362
 21
223.8097211384932
 31
0.0
  0
LINE
  5
2734
330
18
100
AcDbEntity
  8
DRAW2
100
AcDbLine
 10
863.5775811685336
 20
225.8097211384932
 30
0.0
 11
863.5775811685336
 21
139.8097211384932
 31
0.0
  0
LINE
  5
2735
330
18
100
AcDbEntity
  8
DRAW2
100
AcDbLine
 10
853.5775811685336
 20
227.8097211384932
 30
0.0
 11
853.5775811685336
 21
111.8097211384932
 31
0.0
  0
LINE
  5
2736
330
18
100
AcDbEntity
  8
DRAW2
100
AcDbLine
 10
880.5775811685336
 20
156.8686211384932
 30
0.0
 11
863.5775811685336
 21
156.8686211384932
 31
0.0
  0
LINE
  5
2737
330
18
100
AcDbEntity
  8
DRAW2
100
AcDbLine
 10
853.5775411685335
 20
137.3097211384932
 30
0.0
 11
882.5775411685336
 21
137.3097211384932
 31
0.0
  0
LINE
  5
2739
330
18
100
AcDbEntity
  8
DRAW2
100
AcDbLine
 10
880.5775811685336
 20
140.8686211384932
 30
0.0
 11
863.5775811685336
 21
140.8686211384932
 31
0.0
  0
LINE
  5
273A
330
18
100
AcDbEntity
  8
DRAW2
100
AcDbLine
 10
853.5775411685335
 20
112.3097211384932
 30
0.0
 11
882.5775411685336
 21
112.3097211384932
 31
0.0
  0
LINE
  5
273B
330
18
100
AcDbEntity
  8
DRAW2
100
AcDbLine
 10
853.5775411685335
 20
137.8097211384932
 30
0.0
 11
853.5775411685335
 21
137.3097211384932
 31
0.0
  0
LINE
  5
273C
330
18
100
AcDbEntity
  8
DRAW2
100
AcDbLine
 10
843.5775411685336
 20
128.8097211384932
 30
0.0
 11
843.5775411685336
 21
111.8097211384932
 31
0.0
  0
LINE
  5
273D
330
18
100
AcDbEntity
  8
DRAW2
100
AcDbLine
 10
853.5775411685335
 20
111.8097211384932
 30
0.0
 11
853.5775411685335
 21
101.8097211384932
 31
0.0
  0
LINE
  5
273E
330
18
100
AcDbEntity
  8
DRAW2
100
AcDbLine
 10
843.5775411685336
 20
128.8097211384932
 30
0.0
 11
841.5775411685336
 21
130.8097211384932
 31
0.0
  0
LINE
  5
273F
330
18
100
AcDbEntity
  8
DRAW2
100
AcDbLine
 10
863.5775811685336
 20
139.8097211384932
 30
0.0
 11
853.5775811685336
 21
139.8097211384932
 31
0.0
  0
LINE
  5
2740
330
18
100
AcDbEntity
  8
DRAW2
100
AcDbLine
 10
863.5775811685336
 20
140.8686211384932
 30
0.0
 11
863.5775811685336
 21
156.8686211384932
 31
0.0
  0
LINE
  5
2741
330
18
100
AcDbEntity
  8
DRAW2
100
AcDbLine
 10
883.5775411685336
 20
136.3097211384932
 30
0.0
 11
883.5775411685336
 21
113.3097211384932
 31
0.0
  0
LINE
  5
2742
330
18
100
AcDbEntity
  8
DRAW2
100
AcDbLine
 10
882.5775411685336
 20
137.3097211384932
 30
0.0
 11
882.5775411685336
 21
112.3097211384932
 31
0.0
  0
LINE
  5
2743
330
18
100
AcDbEntity
  8
DRAW2
100
AcDbLine
 10
883.5775411685336
 20
113.3097211384932
 30
0.0
 11
882.5775411685336
 21
112.3097211384932
 31
0.0
  0
LINE
  5
2744
330
18
100
AcDbEntity
  8
DRAW2
100
AcDbLine
 10
882.5775411685336
 20
137.3097211384932
 30
0.0
 11
883.5775411685336
 21
136.3097211384932
 31
0.0
  0
LINE
  5
2745
330
18
100
AcDbEntity
  8
DRAW2
100
AcDbLine
 10
882.5775811685335
 20
142.8686211384932
 30
0.0
 11
882.5775811685335
 21
154.8686211384932
 31
0.0
  0
LINE
  5
2746
330
18
100
AcDbEntity
  8
DRAW2
100
AcDbLine
 10
880.5775811685336
 20
140.8686211384932
 30
0.0
 11
880.5775811685336
 21
156.8686211384932
 31
0.0
  0
LINE
  5
2747
330
18
100
AcDbEntity
  8
DRAW2
100
AcDbLine
 10
880.5775811685336
 20
140.8686211384932
 30
0.0
 11
882.5775811685335
 21
142.8686211384932
 31
0.0
  0
LINE
  5
2748
330
18
100
AcDbEntity
  8
DRAW2
100
AcDbLine
 10
882.5775811685335
 20
154.8686211384932
 30
0.0
 11
880.5775811685336
 21
156.8686311384932
 31
0.0
  0
LINE
  5
2749
330
18
100
AcDbEntity
  8
DRAW2
100
AcDbLine
 10
853.5775411685335
 20
253.3097211384932
 30
0.0
 11
882.5775411685336
 21
253.3097211384932
 31
0.0
  0
LINE
  5
274A
330
18
100
AcDbEntity
  8
DRAW2
100
AcDbLine
 10
853.5775411685335
 20
228.3097211384932
 30
0.0
 11
882.5775411685336
 21
228.3097211384932
 31
0.0
  0
LINE
  5
274C
330
18
100
AcDbEntity
  8
DRAW2
100
AcDbLine
 10
880.5775811685336
 20
208.7508811384933
 30
0.0
 11
863.5775811685336
 21
208.7508811384933
 31
0.0
  0
LINE
  5
274D
330
18
100
AcDbEntity
  8
DRAW2
100
AcDbLine
 10
880.5775811685336
 20
224.7508811384932
 30
0.0
 11
863.5775811685336
 21
224.7508811384932
 31
0.0
  0
LINE
  5
274E
330
18
100
AcDbEntity
  8
DRAW2
100
AcDbLine
 10
863.5775811685336
 20
208.7508811384933
 30
0.0
 11
863.5775811685336
 21
224.7508811384932
 31
0.0
  0
LINE
  5
274F
330
18
100
AcDbEntity
  8
DRAW2
100
AcDbLine
 10
863.5775811685336
 20
225.8097211384932
 30
0.0
 11
853.5775811685336
 21
225.8097211384932
 31
0.0
  0
LINE
  5
2750
330
18
100
AcDbEntity
  8
DRAW2
100
AcDbLine
 10
853.5775411685335
 20
227.8097211384932
 30
0.0
 11
853.5775411685335
 21
253.8097211384932
 31
0.0
  0
LINE
  5
2751
330
18
100
AcDbEntity
  8
DRAW2
100
AcDbLine
 10
882.5775811685335
 20
210.7508811384933
 30
0.0
 11
882.5775811685335
 21
222.7508811384932
 31
0.0
  0
LINE
  5
2752
330
18
100
AcDbEntity
  8
DRAW2
100
AcDbLine
 10
880.5775811685336
 20
208.7508811384933
 30
0.0
 11
880.5775811685336
 21
224.7508811384932
 31
0.0
  0
LINE
  5
2753
330
18
100
AcDbEntity
  8
DRAW2
100
AcDbLine
 10
880.5775811685336
 20
208.7508811384933
 30
0.0
 11
882.5775811685335
 21
210.7508811384933
 31
0.0
  0
LINE
  5
2754
330
18
100
AcDbEntity
  8
DRAW2
100
AcDbLine
 10
883.5775411685336
 20
229.3097211384932
 30
0.0
 11
883.5775411685336
 21
252.3097211384932
 31
0.0
  0
LINE
  5
2755
330
18
100
AcDbEntity
  8
DRAW2
100
AcDbLine
 10
882.5775411685336
 20
253.3097211384932
 30
0.0
 11
882.5775411685336
 21
228.3097511384932
 31
0.0
  0
LINE
  5
2756
330
18
100
AcDbEntity
  8
DRAW2
100
AcDbLine
 10
882.5775411685336
 20
228.3097511384932
 30
0.0
 11
883.5775411685336
 21
229.3097511384932
 31
0.0
  0
LINE
  5
2757
330
18
100
AcDbEntity
  8
DRAW2
100
AcDbLine
 10
882.5775811685335
 20
222.7508811384932
 30
0.0
 11
880.5775811685336
 21
224.7508811384932
 31
0.0
  0
LINE
  5
2758
330
18
100
AcDbEntity
  8
DRAW2
100
AcDbLine
 10
883.5775711685334
 20
252.3097211384932
 30
0.0
 11
882.5775711685334
 21
253.3097211384932
 31
0.0
  0
ELLIPSE
  5
2759
330
18
100
AcDbEntity
  8
DRAW2
100
AcDbEllipse
 10
771.1775411685334
 20
388.7713746281074
 30
0.0
 11
4.926931801355408
 21
0.0
 31
0.0
210
0.0
220
0.0
230
1.0
 40
0.3983562668180043
 41
6.283185307179586
 42
9.424777960769379
  0
LINE
  5
275B
330
18
100
AcDbEntity
  8
DRAW2
100
AcDbLine
 10
755.5775411685332
 20
411.7425204688524
 30
0.0
 11
720.5775411685332
 21
411.7425204688524
 31
0.0
  0
LINE
  5
275C
330
18
100
AcDbEntity
  8
DRAW2
100
AcDbLine
 10
755.5775411685331
 20
384.2425204688524
 30
0.0
 11
720.577531168533
 21
384.2425204688524
 31
0.0
  0
ARC
  5
275D
330
18
100
AcDbEntity
  8
DRAW2
100
AcDbCircle
 10
750.5775411685331
 20
377.7425164688525
 30
0.0
 40
5.0
100
AcDbArc
 50
270.0
 51
0.0
  0
LINE
  5
275E
330
18
100
AcDbEntity
  8
DRAW2
100
AcDbLine
 10
720.5775411685332
 20
413.7425204688524
 30
0.0
 11
755.5775411685332
 21
413.7425204688524
 31
0.0
  0
LINE
  5
275F
330
18
100
AcDbEntity
  8
DRAW2
100
AcDbLine
 10
720.5775411685332
 20
467.7425204688524
 30
0.0
 11
755.5775411685332
 21
467.7425204688524
 31
0.0
  0
LINE
  5
2760
330
18
100
AcDbEntity
  8
DRAW2
100
AcDbLine
 10
755.5775411685332
 20
469.7425204688524
 30
0.0
 11
720.5775411685332
 21
469.7425204688524
 31
0.0
  0
LINE
  5
2761
330
18
100
AcDbEntity
  8
DRAW2
100
AcDbLine
 10
755.5775411685331
 20
497.2425204688526
 30
0.0
 11
720.577531168533
 21
497.2425204688526
 31
0.0
  0
ARC
  5
2762
330
18
100
AcDbEntity
  8
DRAW2
100
AcDbCircle
 10
750.5775411685331
 20
503.7425244688523
 30
0.0
 40
5.0
100
AcDbArc
 50
0.0
 51
90.0
  0
LINE
  5
2763
330
18
100
AcDbEntity
  8
DRAW2
100
AcDbLine
 10
720.5775411685335
 20
263.8097211384932
 30
0.0
 11
755.5775411685336
 21
263.8097211384932
 31
0.0
  0
LINE
  5
2764
330
18
100
AcDbEntity
  8
DRAW2
100
AcDbLine
 10
710.577531168533
 20
383.2425204688525
 30
0.0
 11
710.5775311685331
 21
498.2425204688524
 31
0.0
  0
LINE
  5
2765
330
18
100
AcDbEntity
  8
DRAW2
100
AcDbLine
 10
720.5775411685332
 20
469.7425204688526
 30
0.0
 11
720.5775411685332
 21
411.7425204688522
 31
0.0
  0
CIRCLE
  5
2767
330
18
100
AcDbEntity
  8
DRAW2
100
AcDbCircle
 10
734.5775411685329
 20
423.7425204688524
 30
0.0
 40
8.0
  0
LINE
  5
2768
330
18
100
AcDbEntity
  8
DRAW2
100
AcDbLine
 10
742.5775411685336
 20
263.8097211384932
 30
0.0
 11
726.5775411685336
 21
263.8097211384932
 31
0.0
  0
LINE
  5
2769
330
18
100
AcDbEntity
  8
DRAW2
100
AcDbLine
 10
740.5775411685335
 20
282.8097211384932
 30
0.0
 11
728.5775411685335
 21
282.8097211384932
 31
0.0
  0
LINE
  5
276A
330
18
100
AcDbEntity
  8
DRAW2
100
AcDbLine
 10
740.8275411685336
 20
263.8097211384932
 30
0.0
 11
728.3275411685336
 21
263.8097211384932
 31
0.0
  0
LINE
  5
276B
330
18
100
AcDbEntity
  8
DRAW2
100
AcDbLine
 10
726.5775411685336
 20
280.8097211384932
 30
0.0
 11
742.5775411685336
 21
280.8097211384932
 31
0.0
  0
LINE
  5
276C
330
18
100
AcDbEntity
  8
DRAW2
100
AcDbLine
 10
726.5775411685336
 20
280.8097211384932
 30
0.0
 11
726.5775411685336
 21
263.8097211384932
 31
0.0
  0
LINE
  5
276D
330
18
100
AcDbEntity
  8
DRAW2
100
AcDbLine
 10
728.5775711685334
 20
282.8096911384932
 30
0.0
 11
726.5775711685335
 21
280.8096911384932
 31
0.0
  0
LINE
  5
276E
330
18
100
AcDbEntity
  8
DRAW2
100
AcDbLine
 10
742.5775411685336
 20
280.8097211384932
 30
0.0
 11
742.5775411685336
 21
263.8097211384932
 31
0.0
  0
LINE
  5
276F
330
18
100
AcDbEntity
  8
DRAW2
100
AcDbLine
 10
742.5775411685336
 20
280.8097211384932
 30
0.0
 11
740.5775711685334
 21
282.8096911384932
 31
0.0
  0
LINE
  5
2771
330
18
100
AcDbEntity
  8
DRAW2
100
AcDbLine
 10
693.577531168533
 20
398.8013949218927
 30
0.0
 11
710.577531168533
 21
398.8013949218927
 31
0.0
  0
LINE
  5
2772
330
18
100
AcDbEntity
  8
DRAW2
100
AcDbLine
 10
693.577531168533
 20
414.8013969218927
 30
0.0
 11
710.577531168533
 21
414.8013969218927
 31
0.0
  0
LINE
  5
2773
330
18
100
AcDbEntity
  8
DRAW2
100
AcDbLine
 10
691.5775311685329
 20
412.8013949218927
 30
0.0
 11
691.5775311685329
 21
400.8013949218927
 31
0.0
  0
LINE
  5
2774
330
18
100
AcDbEntity
  8
DRAW2
100
AcDbLine
 10
693.577531168533
 20
414.8013969218927
 30
0.0
 11
693.577531168533
 21
398.8013949218927
 31
0.0
  0
LINE
  5
2775
330
18
100
AcDbEntity
  8
DRAW2
100
AcDbLine
 10
691.5775311685329
 20
400.8013949218927
 30
0.0
 11
693.577531168533
 21
398.8013909218927
 31
0.0
  0
LINE
  5
2776
330
18
100
AcDbEntity
  8
DRAW2
100
AcDbLine
 10
691.5775311685329
 20
412.8013929218927
 30
0.0
 11
693.577531168533
 21
414.8013949218927
 31
0.0
  0
LINE
  5
2777
330
18
100
AcDbEntity
  8
DRAW2
100
AcDbLine
 10
720.577531168533
 20
411.7425204688524
 30
0.0
 11
720.577531168533
 21
383.2425204688524
 31
0.0
  0
LINE
  5
2778
330
18
100
AcDbEntity
  8
DRAW2
100
AcDbLine
 10
725.5775311685331
 20
372.7425164688525
 30
0.0
 11
750.5775411685331
 21
372.7425164688525
 31
0.0
  0
LINE
  5
2779
330
18
100
AcDbEntity
  8
DRAW2
100
AcDbLine
 10
720.577531168533
 20
383.2425204688524
 30
0.0
 11
710.5775311685331
 21
383.2425204688524
 31
0.0
  0
LINE
  5
277A
330
18
100
AcDbEntity
  8
DRAW2
100
AcDbLine
 10
720.5775311685331
 20
377.7425164688525
 30
0.0
 11
720.577531168533
 21
383.2425204688524
 31
0.0
  0
ARC
  5
277B
330
18
100
AcDbEntity
  8
DRAW2
100
AcDbCircle
 10
725.5775311685331
 20
377.7425164688525
 30
0.0
 40
5.0
100
AcDbArc
 50
180.0
 51
270.0
  0
ARC
  5
277D
330
18
100
AcDbEntity
  8
DRAW2
100
AcDbCircle
 10
738.5775311685331
 20
390.7425164688524
 30
0.0
 40
8.0
100
AcDbArc
 50
234.3408631618739
 51
305.659136838126
  0
CIRCLE
  5
277F
330
18
100
AcDbEntity
  8
DRAW2
100
AcDbCircle
 10
734.5775411685329
 20
423.7425204688524
 30
0.0
 40
6.0
  0
LINE
  5
2781
330
18
100
AcDbEntity
  8
DRAW2
100
AcDbLine
 10
693.577531168533
 20
482.6836460158124
 30
0.0
 11
710.577531168533
 21
482.6836460158124
 31
0.0
  0
LINE
  5
2782
330
18
100
AcDbEntity
  8
DRAW2
100
AcDbLine
 10
693.577531168533
 20
466.6836440158124
 30
0.0
 11
710.577531168533
 21
466.6836440158124
 31
0.0
  0
LINE
  5
2783
330
18
100
AcDbEntity
  8
DRAW2
100
AcDbLine
 10
693.577531168533
 20
466.6836440158124
 30
0.0
 11
693.577531168533
 21
482.6836460158124
 31
0.0
  0
LINE
  5
2784
330
18
100
AcDbEntity
  8
DRAW2
100
AcDbLine
 10
691.5775311685329
 20
468.6836460158123
 30
0.0
 11
691.5775311685329
 21
480.6836460158123
 31
0.0
  0
LINE
  5
2785
330
18
100
AcDbEntity
  8
DRAW2
100
AcDbLine
 10
691.5775311685329
 20
468.6836480158123
 30
0.0
 11
693.577531168533
 21
466.6836460158124
 31
0.0
  0
LINE
  5
2786
330
18
100
AcDbEntity
  8
DRAW2
100
AcDbLine
 10
691.5775311685329
 20
480.6836460158123
 30
0.0
 11
693.577531168533
 21
482.6836500158123
 31
0.0
  0
LINE
  5
2787
330
18
100
AcDbEntity
  8
DRAW2
100
AcDbLine
 10
720.577531168533
 20
469.7425204688524
 30
0.0
 11
720.577531168533
 21
498.2425204688524
 31
0.0
  0
CIRCLE
  5
2788
330
18
100
AcDbEntity
  8
DRAW2
100
AcDbCircle
 10
734.5775411685329
 20
457.7425204688524
 30
0.0
 40
8.0
  0
CIRCLE
  5
2789
330
18
100
AcDbEntity
  8
DRAW2
100
AcDbCircle
 10
734.5775411685329
 20
457.7425204688524
 30
0.0
 40
6.0
  0
LINE
  5
278B
330
18
100
AcDbEntity
  8
DRAW2
100
AcDbLine
 10
725.5775311685331
 20
508.7425244688524
 30
0.0
 11
750.5775411685331
 21
508.7425244688524
 31
0.0
  0
LINE
  5
278C
330
18
100
AcDbEntity
  8
DRAW2
100
AcDbLine
 10
720.577531168533
 20
498.2425204688524
 30
0.0
 11
710.5775311685331
 21
498.2425204688524
 31
0.0
  0
LINE
  5
278D
330
18
100
AcDbEntity
  8
DRAW2
100
AcDbLine
 10
720.5775311685331
 20
503.7425244688523
 30
0.0
 11
720.577531168533
 21
498.2425204688524
 31
0.0
  0
ARC
  5
278E
330
18
100
AcDbEntity
  8
DRAW2
100
AcDbCircle
 10
725.5775311685331
 20
503.7425244688523
 30
0.0
 40
5.0
100
AcDbArc
 50
90.0
 51
180.0
  0
ARC
  5
278F
330
18
100
AcDbEntity
  8
DRAW2
100
AcDbCircle
 10
738.5775311685331
 20
490.7425244688523
 30
0.0
 40
8.0
100
AcDbArc
 50
54.34086316187397
 51
125.659136838126
  0
LINE
  5
2791
330
18
100
AcDbEntity
  8
DRAW2
100
AcDbLine
 10
755.9775411685334
 20
385.7425204688525
 30
0.0
 11
755.9775411685334
 21
431.7425204688524
 31
0.0
  0
LINE
  5
2792
330
18
100
AcDbEntity
  8
DRAW2
100
AcDbLine
 10
755.5775411685332
 20
469.7425204688526
 30
0.0
 11
755.5775411685332
 21
411.7425204688522
 31
0.0
  0
LINE
  5
2793
330
18
100
AcDbEntity
  8
DRAW2
100
AcDbLine
 10
818.1775411685336
 20
385.7425204688525
 30
0.0
 11
818.1775411685336
 21
431.7425204688524
 31
0.0
  0
LINE
  5
2794
330
18
100
AcDbEntity
  8
DRAW2
100
AcDbLine
 10
787.5775411685338
 20
385.7425204688524
 30
0.0
 11
787.5775411685337
 21
431.7425204688524
 31
0.0
  0
LINE
  5
2795
330
18
100
AcDbEntity
  8
DRAW2
100
AcDbLine
 10
786.5775411685334
 20
385.7425204688524
 30
0.0
 11
786.5775411685334
 21
431.7425204688524
 31
0.0
  0
LINE
  5
2797
330
18
100
AcDbEntity
  8
DRAW2
100
AcDbLine
 10
818.5775311685331
 20
469.7425204688525
 30
0.0
 11
818.5775311685331
 21
411.7425204688524
 31
0.0
  0
LINE
  5
2798
330
18
100
AcDbEntity
  8
DRAW2
100
AcDbLine
 10
853.5775411685333
 20
469.7425204688525
 30
0.0
 11
853.5775411685333
 21
411.7425204688524
 31
0.0
  0
CIRCLE
  5
2799
330
18
100
AcDbEntity
  8
DRAW2
100
AcDbCircle
 10
839.5775411685331
 20
423.7425204688524
 30
0.0
 40
8.0
  0
LINE
  5
279A
330
18
100
AcDbEntity
  8
DRAW2
100
AcDbLine
 10
883.5775371685333
 20
452.2425204688524
 30
0.0
 11
883.5775371685333
 21
429.2425204688524
 31
0.0
  0
LINE
  5
279B
330
18
100
AcDbEntity
  8
DRAW2
100
AcDbLine
 10
882.5775371685333
 20
453.2425204688524
 30
0.0
 11
882.5775371685333
 21
428.2425204688524
 31
0.0
  0
LINE
  5
279C
330
18
100
AcDbEntity
  8
DRAW2
100
AcDbLine
 10
848.5775411685333
 20
372.7425164688525
 30
0.0
 11
823.5775311685332
 21
372.7425164688525
 31
0.0
  0
LINE
  5
279D
330
18
100
AcDbEntity
  8
DRAW2
100
AcDbLine
 10
818.5775311685331
 20
384.2425204688524
 30
0.0
 11
853.5775411685333
 21
384.2425204688524
 31
0.0
  0
LINE
  5
279E
330
18
100
AcDbEntity
  8
DRAW2
100
AcDbLine
 10
853.5775411685333
 20
411.7425204688524
 30
0.0
 11
818.5775311685331
 21
411.7425204688524
 31
0.0
  0
ARC
  5
279F
330
18
100
AcDbEntity
  8
DRAW2
100
AcDbCircle
 10
835.5775411685332
 20
390.7425164688524
 30
0.0
 40
8.0
100
AcDbArc
 50
234.3408631618739
 51
305.659136838126
  0
LINE
  5
27A1
330
18
100
AcDbEntity
  8
DRAW2
100
AcDbLine
 10
818.5775311685331
 20
413.7425204688524
 30
0.0
 11
853.5775411685332
 21
413.7425204688524
 31
0.0
  0
CIRCLE
  5
27A2
330
18
100
AcDbEntity
  8
DRAW2
100
AcDbCircle
 10
839.5775411685331
 20
423.7425204688524
 30
0.0
 40
6.0
  0
LINE
  5
27A3
330
18
100
AcDbEntity
  8
DRAW2
100
AcDbLine
 10
853.5775411685335
 20
263.8097211384932
 30
0.0
 11
818.5775411685336
 21
263.8097211384932
 31
0.0
  0
LINE
  5
27A4
330
18
100
AcDbEntity
  8
DRAW2
100
AcDbLine
 10
847.5775411685335
 20
263.8097211384932
 30
0.0
 11
831.5775411685335
 21
263.8097211384932
 31
0.0
  0
LINE
  5
27A5
330
18
100
AcDbEntity
  8
DRAW2
100
AcDbLine
 10
845.5775411685335
 20
282.8097211384932
 30
0.0
 11
833.5775411685336
 21
282.8097211384932
 31
0.0
  0
LINE
  5
27A6
330
18
100
AcDbEntity
  8
DRAW2
100
AcDbLine
 10
831.5775411685335
 20
280.8097211384932
 30
0.0
 11
847.5775411685335
 21
280.8097211384932
 31
0.0
  0
LINE
  5
27A8
330
18
100
AcDbEntity
  8
DRAW2
100
AcDbLine
 10
772.6777211685333
 20
357.4047204688525
 30
0.0
 11
772.6777211685333
 21
340.4049004688525
 31
0.0
  0
LINE
  5
27A9
330
18
100
AcDbEntity
  8
DRAW2
100
AcDbLine
 10
769.6776011685333
 20
356.2797104688525
 30
0.0
 11
769.6776011685334
 21
340.431733821234
 31
0.0
  0
ARC
  5
27AA
330
18
100
AcDbEntity
  8
DRAW2
100
AcDbCircle
 10
771.1775411685334
 20
340.4049004688525
 30
0.0
 40
1.50018
100
AcDbArc
 50
178.9751097643329
 51
0.0
  0
LINE
  5
27AB
330
18
100
AcDbEntity
  8
DRAW2
100
AcDbLine
 10
831.5775411685335
 20
280.8097211384932
 30
0.0
 11
831.5775411685335
 21
263.8097211384932
 31
0.0
  0
LINE
  5
27AC
330
18
100
AcDbEntity
  8
DRAW2
100
AcDbLine
 10
833.5775411685336
 20
282.8097211384932
 30
0.0
 11
831.5775411685335
 21
280.8097211384932
 31
0.0
  0
LINE
  5
27AD
330
18
100
AcDbEntity
  8
DRAW2
100
AcDbLine
 10
776.6775411685333
 20
385.7425204688525
 30
0.0
 11
818.1775411685336
 21
385.7425204688524
 31
0.0
  0
LINE
  5
27AE
330
18
100
AcDbEntity
  8
DRAW2
100
AcDbLine
 10
776.1044729698888
 20
388.7713746281056
 30
0.0
 11
776.1982311685333
 21
385.7713304688525
 31
0.0
  0
LINE
  5
27AF
330
18
100
AcDbEntity
  8
DRAW2
100
AcDbLine
 10
766.2521363908239
 20
388.8202358310363
 30
0.0
 11
766.1568511685333
 21
385.7713304688525
 31
0.0
  0
LINE
  5
27B0
330
18
100
AcDbEntity
  8
DRAW2
100
AcDbLine
 10
755.5775411685331
 20
411.7425204688524
 30
0.0
 11
755.5775411685331
 21
384.2425204688524
 31
0.0
  0
LINE
  5
27B2
330
18
100
AcDbEntity
  8
DRAW3
100
AcDbLine
 10
766.8669757754177
 20
389.7219100255188
 30
0.0
 11
766.7759311685333
 21
386.8085304688525
 31
0.0
  0
LINE
  5
27B3
330
18
100
AcDbEntity
  8
DRAW3
100
AcDbLine
 10
775.488106561649
 20
389.7219100255188
 30
0.0
 11
775.5791511685333
 21
386.8085304688525
 31
0.0
  0
LWPOLYLINE
  5
27B4
330
18
100
AcDbEntity
  8
DRAW3
100
AcDbPolyline
 90
        6
 70
     0
 43
0.0
 10
772.6777511685333
 20
360.4047204688526
 42
0.072777938
 10
771.9986211685332
 20
360.5720304688525
 42
0.19774904
 10
771.3363411685333
 20
360.4021804688525
 42
0.05796169
 10
770.8916311685332
 20
359.8619004688525
 42
-0.14831896
 10
770.3636811685332
 20
359.4147304688525
 42
-0.077962573
 10
769.6776911685333
 20
359.2797104688525
  0
LWPOLYLINE
  5
27B5
330
18
100
AcDbEntity
  8
DRAW3
100
AcDbPolyline
 90
        6
 70
     0
 43
0.0
 10
772.6777511685333
 20
357.4047204688525
 42
0.072777938
 10
771.9986211685332
 20
357.5720304688525
 42
0.19774904
 10
771.3363411685333
 20
357.4021804688525
 42
0.05796169
 10
770.8916311685332
 20
356.8619004688525
 42
-0.14831896
 10
770.3636811685332
 20
356.4147304688525
 42
-0.077962573
 10
769.6776911685333
 20
356.2797104688525
  0
LINE
  5
27B6
330
18
100
AcDbEntity
  8
DRAW2
100
AcDbLine
 10
766.1775411685333
 20
365.2713704688526
 30
0.0
 11
776.1775411685333
 21
365.2713704688526
 31
0.0
  0
LINE
  5
27B7
330
18
100
AcDbEntity
  8
DRAW2
100
AcDbLine
 10
766.6775411685334
 20
364.7713704688525
 30
0.0
 11
775.6775411685334
 21
364.7713704688525
 31
0.0
  0
LINE
  5
27B8
330
18
100
AcDbEntity
  8
DRAW2
100
AcDbLine
 10
765.6775411685333
 20
385.7713704688525
 30
0.0
 11
776.6775411685333
 21
385.7713704688525
 31
0.0
  0
LINE
  5
27B9
330
18
100
AcDbEntity
  8
DRAW2
100
AcDbLine
 10
766.1896211685333
 20
386.8087004688526
 30
0.0
 11
775.579145855946
 21
386.8087004688526
 31
0.0
  0
LINE
  5
27BA
330
18
100
AcDbEntity
  8
DRAW2
100
AcDbLine
 10
766.1775411685333
 20
374.7714704688525
 30
0.0
 11
776.1775411685333
 21
374.7714704688525
 31
0.0
  0
LINE
  5
27BB
330
18
100
AcDbEntity
  8
DRAW2
100
AcDbLine
 10
765.6775411685333
 20
377.7714404688525
 30
0.0
 11
776.6775411685332
 21
377.7714404688525
 31
0.0
  0
LINE
  5
27BC
330
18
100
AcDbEntity
  8
DRAW2
100
AcDbLine
 10
766.1775411685333
 20
365.2713704688526
 30
0.0
 11
766.1775411685333
 21
374.7714704688525
 31
0.0
  0
LINE
  5
27BD
330
18
100
AcDbEntity
  8
DRAW2
100
AcDbLine
 10
766.1775411685333
 20
365.2713704688526
 30
0.0
 11
766.6775411685334
 21
364.7713704688525
 31
0.0
  0
LINE
  5
27BE
330
18
100
AcDbEntity
  8
DRAW2
100
AcDbLine
 10
769.6776011685334
 20
364.7713704688525
 30
0.0
 11
769.6776011685333
 21
359.2797104688525
 31
0.0
  0
LINE
  5
27BF
330
18
100
AcDbEntity
  8
DRAW2
100
AcDbLine
 10
755.9775411685334
 20
385.7425204688525
 30
0.0
 11
765.6775411685333
 21
385.7425204688525
 31
0.0
  0
LINE
  5
27C0
330
18
100
AcDbEntity
  8
DRAW2
100
AcDbLine
 10
755.5775411685331
 20
377.7425164688525
 30
0.0
 11
755.5775411685331
 21
384.2425204688524
 31
0.0
  0
LINE
  5
27C1
330
18
100
AcDbEntity
  8
DRAW2
100
AcDbLine
 10
767.7134395533955
 20
377.7714404688525
 30
0.0
 11
767.7134395533955
 21
385.7713704688525
 31
0.0
  0
LINE
  5
27C2
330
18
100
AcDbEntity
  8
DRAW2
100
AcDbLine
 10
765.6775411685333
 20
377.7714404688525
 30
0.0
 11
765.6775411685333
 21
385.7713704688525
 31
0.0
  0
LINE
  5
27C3
330
18
100
AcDbEntity
  8
DRAW2
100
AcDbLine
 10
768.6773611685334
 20
377.7712804688525
 30
0.0
 11
768.6773611685334
 21
374.7713404688525
 31
0.0
  0
LINE
  5
27C4
330
18
100
AcDbEntity
  8
DRAW3
100
AcDbLine
 10
766.7762311685333
 20
386.8086404688525
 30
0.0
 11
766.1773611685333
 21
385.7713404688525
 31
0.0
  0
LINE
  5
27C5
330
18
100
AcDbEntity
  8
DRAW2
100
AcDbLine
 10
776.1775411685333
 20
365.2713704688526
 30
0.0
 11
776.1775411685333
 21
374.7714704688525
 31
0.0
  0
LINE
  5
27C6
330
18
100
AcDbEntity
  8
DRAW2
100
AcDbLine
 10
775.6775411685334
 20
364.7713704688525
 30
0.0
 11
776.1775411685333
 21
365.2713704688526
 31
0.0
  0
LINE
  5
27C7
330
18
100
AcDbEntity
  8
DRAW2
100
AcDbLine
 10
772.6777211685332
 20
364.7713704688525
 30
0.0
 11
772.6777211685333
 21
360.4047204688526
 31
0.0
  0
LINE
  5
27C8
330
18
100
AcDbEntity
  8
DRAW2
100
AcDbLine
 10
774.641642783671
 20
377.7714404688525
 30
0.0
 11
774.641642783671
 21
385.7713704688525
 31
0.0
  0
LINE
  5
27C9
330
18
100
AcDbEntity
  8
DRAW2
100
AcDbLine
 10
776.6775411685333
 20
377.7714404688525
 30
0.0
 11
776.6775411685333
 21
385.7713704688525
 31
0.0
  0
LINE
  5
27CA
330
18
100
AcDbEntity
  8
DRAW2
100
AcDbLine
 10
773.6773611685333
 20
377.7713404688525
 30
0.0
 11
773.6773611685333
 21
374.7713404688525
 31
0.0
  0
LINE
  5
27CB
330
18
100
AcDbEntity
  8
DRAW3
100
AcDbLine
 10
775.5788511685333
 20
386.8086404688525
 30
0.0
 11
776.1777211685333
 21
385.7713404688525
 31
0.0
  0
LINE
  5
27CD
330
18
100
AcDbEntity
  8
DRAW3
100
AcDbLine
 10
755.5775411685331
 20
409.3013949218927
 30
0.0
 11
755.9775411685334
 21
409.3013949218928
 31
0.0
  0
LINE
  5
27CE
330
18
100
AcDbEntity
  8
DRAW2
100
AcDbLine
 10
755.5775411685331
 20
403.8013949218926
 30
0.0
 11
755.9775411685334
 21
403.8013949218928
 31
0.0
  0
LINE
  5
27CF
330
18
100
AcDbEntity
  8
DRAW3
100
AcDbLine
 10
755.5775411685331
 20
404.3013949218927
 30
0.0
 11
755.9775411685334
 21
404.3013949218928
 31
0.0
  0
LINE
  5
27D0
330
18
100
AcDbEntity
  8
DRAW2
100
AcDbLine
 10
755.5775411685331
 20
409.8013949218926
 30
0.0
 11
755.9775411685334
 21
409.8013949218926
 31
0.0
  0
LINE
  5
27D1
330
18
100
AcDbEntity
  8
DRAW2
100
AcDbLine
 10
818.5775311685331
 20
411.7425204688524
 30
0.0
 11
818.5775311685331
 21
384.2425204688524
 31
0.0
  0
LINE
  5
27D3
330
18
100
AcDbEntity
  8
DRAW2
100
AcDbLine
 10
818.5775311685331
 20
377.7425164688525
 30
0.0
 11
818.5775311685331
 21
384.2425204688524
 31
0.0
  0
ARC
  5
27D4
330
18
100
AcDbEntity
  8
DRAW2
100
AcDbCircle
 10
823.5775311685332
 20
377.7425164688525
 30
0.0
 40
5.0
100
AcDbArc
 50
180.0
 51
270.0
  0
LINE
  5
27D5
330
18
100
AcDbEntity
  8
DRAW3
100
AcDbLine
 10
818.5775311685331
 20
409.3013949218927
 30
0.0
 11
818.1775411685336
 21
409.3013949218928
 31
0.0
  0
LINE
  5
27D6
330
18
100
AcDbEntity
  8
DRAW2
100
AcDbLine
 10
818.5775311685331
 20
403.8013949218926
 30
0.0
 11
818.1775411685336
 21
403.8013949218928
 31
0.0
  0
LINE
  5
27D7
330
18
100
AcDbEntity
  8
DRAW3
100
AcDbLine
 10
818.5775311685331
 20
404.3013949218927
 30
0.0
 11
818.1775411685336
 21
404.3013949218928
 31
0.0
  0
LINE
  5
27D8
330
18
100
AcDbEntity
  8
DRAW2
100
AcDbLine
 10
818.5775311685331
 20
409.8013949218926
 30
0.0
 11
818.1775411685336
 21
409.8013949218926
 31
0.0
  0
LINE
  5
27D9
330
18
100
AcDbEntity
  8
DRAW2
100
AcDbLine
 10
847.5775411685335
 20
280.8097211384932
 30
0.0
 11
845.5775411685335
 21
282.8097211384932
 31
0.0
  0
LINE
  5
27DA
330
18
100
AcDbEntity
  8
DRAW2
100
AcDbLine
 10
847.5775411685335
 20
280.8097211384932
 30
0.0
 11
847.5775411685335
 21
263.8097211384932
 31
0.0
  0
LINE
  5
27DB
330
18
100
AcDbEntity
  8
DRAW2
100
AcDbLine
 10
880.5775411685333
 20
398.8013949218927
 30
0.0
 11
863.5775411685333
 21
398.8013949218927
 31
0.0
  0
LINE
  5
27DD
330
18
100
AcDbEntity
  8
DRAW2
100
AcDbLine
 10
853.5775411685332
 20
428.2425204688524
 30
0.0
 11
882.5775371685333
 21
428.2425204688524
 31
0.0
  0
LINE
  5
27DE
330
18
100
AcDbEntity
  8
DRAW2
100
AcDbLine
 10
880.5775411685333
 20
414.8013969218927
 30
0.0
 11
863.5775411685333
 21
414.8013969218927
 31
0.0
  0
LINE
  5
27DF
330
18
100
AcDbEntity
  8
DRAW2
100
AcDbLine
 10
863.5775411685333
 20
383.2425204688525
 30
0.0
 11
863.5775411685331
 21
428.2425204688524
 31
0.0
  0
LINE
  5
27E0
330
18
100
AcDbEntity
  8
DRAW2
100
AcDbLine
 10
853.5775411685333
 20
411.7425204688524
 30
0.0
 11
853.5775411685333
 21
383.2425204688524
 31
0.0
  0
LINE
  5
27E1
330
18
100
AcDbEntity
  8
DRAW2
100
AcDbLine
 10
853.5775411685333
 20
383.2425204688524
 30
0.0
 11
863.5775411685331
 21
383.2425204688524
 31
0.0
  0
LINE
  5
27E2
330
18
100
AcDbEntity
  8
DRAW2
100
AcDbLine
 10
853.5775411685333
 20
383.2425204688524
 30
0.0
 11
853.5775411685332
 21
377.7425164688525
 31
0.0
  0
ARC
  5
27E3
330
18
100
AcDbEntity
  8
DRAW2
100
AcDbCircle
 10
848.5775411685333
 20
377.7425164688525
 30
0.0
 40
5.0
100
AcDbArc
 50
270.0
 51
0.0
  0
LINE
  5
27E4
330
18
100
AcDbEntity
  8
DRAW2
100
AcDbLine
 10
882.5775411685333
 20
412.8013949218927
 30
0.0
 11
882.5775411685333
 21
400.8013949218927
 31
0.0
  0
LINE
  5
27E5
330
18
100
AcDbEntity
  8
DRAW2
100
AcDbLine
 10
880.5775411685333
 20
414.8013969218927
 30
0.0
 11
880.5775411685333
 21
398.8013949218927
 31
0.0
  0
LINE
  5
27E6
330
18
100
AcDbEntity
  8
DRAW2
100
AcDbLine
 10
882.5775411685333
 20
400.8013949218927
 30
0.0
 11
880.5775411685333
 21
398.8013909218927
 31
0.0
  0
LINE
  5
27E7
330
18
100
AcDbEntity
  8
DRAW2
100
AcDbLine
 10
882.5775411685333
 20
412.8013929218927
 30
0.0
 11
880.5775411685333
 21
414.8013949218927
 31
0.0
  0
LINE
  5
27E8
330
18
100
AcDbEntity
  8
DRAW2
100
AcDbLine
 10
882.5775371685333
 20
428.2425204688524
 30
0.0
 11
883.5775371685333
 21
429.2425124688524
 31
0.0
  0
LINE
  5
27E9
330
18
100
AcDbEntity
  8
DRAW2
100
AcDbLine
 10
848.5775411685333
 20
508.7425244688524
 30
0.0
 11
823.5775311685332
 21
508.7425244688524
 31
0.0
  0
CIRCLE
  5
27EB
330
18
100
AcDbEntity
  8
DRAW2
100
AcDbCircle
 10
839.5775411685331
 20
457.7425204688524
 30
0.0
 40
6.0
  0
CIRCLE
  5
27EC
330
18
100
AcDbEntity
  8
DRAW2
100
AcDbCircle
 10
839.5775411685331
 20
457.7425204688524
 30
0.0
 40
8.0
  0
LINE
  5
27ED
330
18
100
AcDbEntity
  8
DRAW2
100
AcDbLine
 10
818.5775311685331
 20
467.7425204688524
 30
0.0
 11
853.5775411685332
 21
467.7425204688524
 31
0.0
  0
LINE
  5
27EE
330
18
100
AcDbEntity
  8
DRAW2
100
AcDbLine
 10
853.5775411685333
 20
469.7425204688524
 30
0.0
 11
818.5775311685331
 21
469.7425204688525
 31
0.0
  0
LINE
  5
27EF
330
18
100
AcDbEntity
  8
DRAW2
100
AcDbLine
 10
818.5775311685331
 20
497.2425204688526
 30
0.0
 11
853.5775411685333
 21
497.2425204688526
 31
0.0
  0
ARC
  5
27F0
330
18
100
AcDbEntity
  8
DRAW2
100
AcDbCircle
 10
835.5775411685332
 20
490.7425244688523
 30
0.0
 40
8.0
100
AcDbArc
 50
54.34086316187397
 51
125.659136838126
  0
LINE
  5
27F1
330
18
100
AcDbEntity
  8
DRAW2
100
AcDbLine
 10
755.9775411685334
 20
495.7425204688523
 30
0.0
 11
818.1775411685336
 21
495.7425204688523
 31
0.0
  0
LINE
  5
27F2
330
18
100
AcDbEntity
  8
DRAW2
100
AcDbLine
 10
755.5775411685332
 20
449.7425204688524
 30
0.0
 11
818.5775311685331
 21
449.7425204688524
 31
0.0
  0
LINE
  5
27F3
330
18
100
AcDbEntity
  8
DRAW2
100
AcDbLine
 10
755.5775411685332
 20
431.7425204688524
 30
0.0
 11
818.5775311685331
 21
431.7425204688524
 31
0.0
  0
LINE
  5
27F4
330
18
100
AcDbEntity
  8
DRAW2
100
AcDbLine
 10
755.5775411685331
 20
469.7425204688525
 30
0.0
 11
755.5775411685331
 21
497.2425204688524
 31
0.0
  0
LINE
  5
27F5
330
18
100
AcDbEntity
  8
DRAW2
100
AcDbLine
 10
755.9775411685334
 20
495.7425204688523
 30
0.0
 11
755.9775411685334
 21
449.7425204688524
 31
0.0
  0
LINE
  5
27F6
330
18
100
AcDbEntity
  8
DRAW2
100
AcDbLine
 10
786.5775411685334
 20
495.7425204688523
 30
0.0
 11
786.5775411685334
 21
449.7425204688524
 31
0.0
  0
LINE
  5
27F7
330
18
100
AcDbEntity
  8
DRAW2
100
AcDbLine
 10
787.5775411685338
 20
495.7425204688523
 30
0.0
 11
787.5775411685337
 21
449.7425204688524
 31
0.0
  0
LINE
  5
27F8
330
18
100
AcDbEntity
  8
DRAW2
100
AcDbLine
 10
755.5775411685331
 20
471.6836460158123
 30
0.0
 11
755.9775411685334
 21
471.6836460158123
 31
0.0
  0
LINE
  5
27F9
330
18
100
AcDbEntity
  8
DRAW3
100
AcDbLine
 10
755.5775411685331
 20
472.1836460158123
 30
0.0
 11
755.9775411685334
 21
472.1836460158123
 31
0.0
  0
LINE
  5
27FA
330
18
100
AcDbEntity
  8
DRAW2
100
AcDbLine
 10
755.5775411685331
 20
477.6836460158122
 30
0.0
 11
755.9775411685334
 21
477.6836460158122
 31
0.0
  0
LINE
  5
27FB
330
18
100
AcDbEntity
  8
DRAW3
100
AcDbLine
 10
755.5775411685331
 20
477.1836460158123
 30
0.0
 11
755.9775411685334
 21
477.1836460158123
 31
0.0
  0
LINE
  5
27FC
330
18
100
AcDbEntity
  8
DRAW2
100
AcDbLine
 10
755.5775411685331
 20
503.7425244688523
 30
0.0
 11
755.5775411685331
 21
497.2425204688526
 31
0.0
  0
LINE
  5
27FD
330
18
100
AcDbEntity
  8
DRAW2
100
AcDbLine
 10
818.5775311685331
 20
469.7425204688525
 30
0.0
 11
818.5775311685331
 21
497.2425204688524
 31
0.0
  0
LINE
  5
27FE
330
18
100
AcDbEntity
  8
DRAW2
100
AcDbLine
 10
818.1775411685336
 20
495.7425204688523
 30
0.0
 11
818.1775411685336
 21
449.7425204688524
 31
0.0
  0
LINE
  5
27FF
330
18
100
AcDbEntity
  8
DRAW2
100
AcDbLine
 10
818.5775311685331
 20
471.6836460158123
 30
0.0
 11
818.1775411685336
 21
471.6836460158123
 31
0.0
  0
LINE
  5
2800
330
18
100
AcDbEntity
  8
DRAW3
100
AcDbLine
 10
818.5775311685331
 20
472.1836460158123
 30
0.0
 11
818.1775411685336
 21
472.1836460158123
 31
0.0
  0
LINE
  5
2801
330
18
100
AcDbEntity
  8
DRAW2
100
AcDbLine
 10
818.5775311685331
 20
477.6836460158122
 30
0.0
 11
818.1775411685336
 21
477.6836460158122
 31
0.0
  0
LINE
  5
2802
330
18
100
AcDbEntity
  8
DRAW3
100
AcDbLine
 10
818.5775311685331
 20
477.1836460158123
 30
0.0
 11
818.1775411685336
 21
477.1836460158123
 31
0.0
  0
LINE
  5
2803
330
18
100
AcDbEntity
  8
DRAW2
100
AcDbLine
 10
818.5775311685331
 20
503.7425244688523
 30
0.0
 11
818.5775311685331
 21
497.2425204688526
 31
0.0
  0
ARC
  5
2804
330
18
100
AcDbEntity
  8
DRAW2
100
AcDbCircle
 10
823.5775311685332
 20
503.7425244688523
 30
0.0
 40
5.0
100
AcDbArc
 50
90.0
 51
180.0
  0
LINE
  5
2806
330
18
100
AcDbEntity
  8
DRAW2
100
AcDbLine
 10
853.5775411685332
 20
453.2425204688524
 30
0.0
 11
882.5775371685333
 21
453.2425204688524
 31
0.0
  0
LINE
  5
2807
330
18
100
AcDbEntity
  8
DRAW2
100
AcDbLine
 10
880.5775411685333
 20
482.6836460158124
 30
0.0
 11
863.5775411685333
 21
482.6836460158124
 31
0.0
  0
LINE
  5
2808
330
18
100
AcDbEntity
  8
DRAW2
100
AcDbLine
 10
880.5775411685333
 20
466.6836440158124
 30
0.0
 11
863.5775411685333
 21
466.6836440158124
 31
0.0
  0
LINE
  5
280A
330
18
100
AcDbEntity
  8
DRAW2
100
AcDbLine
 10
853.5775411685333
 20
469.7425204688524
 30
0.0
 11
853.5775411685333
 21
498.2425204688524
 31
0.0
  0
LINE
  5
280B
330
18
100
AcDbEntity
  8
DRAW2
100
AcDbLine
 10
863.5775411685333
 20
498.2425204688524
 30
0.0
 11
863.5775411685331
 21
453.2425204688524
 31
0.0
  0
LINE
  5
280C
330
18
100
AcDbEntity
  8
DRAW2
100
AcDbLine
 10
853.5775411685333
 20
498.2425204688524
 30
0.0
 11
863.5775411685331
 21
498.2425204688524
 31
0.0
  0
LINE
  5
280D
330
18
100
AcDbEntity
  8
DRAW2
100
AcDbLine
 10
853.5775411685333
 20
498.2425204688524
 30
0.0
 11
853.5775411685332
 21
503.7425244688523
 31
0.0
  0
ARC
  5
280E
330
18
100
AcDbEntity
  8
DRAW2
100
AcDbCircle
 10
848.5775411685333
 20
503.7425244688523
 30
0.0
 40
5.0
100
AcDbArc
 50
0.0
 51
90.0
  0
LINE
  5
280F
330
18
100
AcDbEntity
  8
DRAW2
100
AcDbLine
 10
882.5775411685333
 20
468.6836460158123
 30
0.0
 11
882.5775411685333
 21
480.6836460158123
 31
0.0
  0
LINE
  5
2810
330
18
100
AcDbEntity
  8
DRAW2
100
AcDbLine
 10
880.5775411685333
 20
466.6836440158124
 30
0.0
 11
880.5775411685333
 21
482.6836460158124
 31
0.0
  0
LINE
  5
2811
330
18
100
AcDbEntity
  8
DRAW2
100
AcDbLine
 10
882.5775371685333
 20
453.2425204688524
 30
0.0
 11
883.5775371685333
 21
452.2425284688524
 31
0.0
  0
LINE
  5
2812
330
18
100
AcDbEntity
  8
DRAW2
100
AcDbLine
 10
882.5775411685333
 20
468.6836480158123
 30
0.0
 11
880.5775411685333
 21
466.6836460158124
 31
0.0
  0
LINE
  5
2813
330
18
100
AcDbEntity
  8
DRAW2
100
AcDbLine
 10
882.5775411685333
 20
480.6836460158123
 30
0.0
 11
880.5775411685333
 21
482.6836500158123
 31
0.0
  0
LINE
  5
2814
330
18
100
AcDbEntity
  8
DRAW2
100
AcDbLine
 10
1099.077541168533
 20
253.8097211384932
 30
0.0
 11
1099.077541168533
 21
263.8097211384932
 31
0.0
  0
LINE
  5
2815
330
18
100
AcDbEntity
  8
DRAW2
100
AcDbLine
 10
1045.077541168533
 20
253.8097211384932
 30
0.0
 11
1045.077541168533
 21
263.8097211384932
 31
0.0
  0
LINE
  5
281A
330
18
100
AcDbEntity
  8
DRAW2
100
AcDbLine
 10
1037.91250055682
 20
137.8097211384932
 30
0.0
 11
1106.242581780246
 21
137.8097211384932
 31
0.0
  0
LINE
  5
281B
330
18
100
AcDbEntity
  8
DRAW2
100
AcDbLine
 10
1037.91250055682
 20
227.8097211384932
 30
0.0
 11
1106.242581780246
 21
227.8097211384932
 31
0.0
  0
LINE
  5
281C
330
18
100
AcDbEntity
  8
DRAW2
100
AcDbLine
 10
1098.000511168533
 20
253.8097211384932
 30
0.0
 11
1072.077541168533
 21
253.8097211384932
 31
0.0
  0
LINE
  5
281D
330
18
100
AcDbEntity
  8
DRAW2
100
AcDbLine
 10
1045.077541168533
 20
253.8097211384932
 30
0.0
 11
1099.077541168533
 21
253.8097211384932
 31
0.0
  0
LINE
  5
281E
330
18
100
AcDbEntity
  8
DRAW2
100
AcDbLine
 10
1081.077541168533
 20
101.8097211384932
 30
0.0
 11
1097.077541168533
 21
101.8097211384932
 31
0.0
  0
LINE
  5
281F
330
18
100
AcDbEntity
  8
DRAW2
100
AcDbLine
 10
1097.077541168533
 20
84.80972113849327
 30
0.0
 11
1081.077541168533
 21
84.80972113849327
 31
0.0
  0
LINE
  5
2820
330
18
100
AcDbEntity
  8
DRAW2
100
AcDbLine
 10
1083.077541168533
 20
82.80972113849328
 30
0.0
 11
1095.077541168533
 21
82.80972113849328
 31
0.0
  0
LINE
  5
2821
330
18
100
AcDbEntity
  8
DRAW2
100
AcDbLine
 10
1098.000511168533
 20
111.8097211384932
 30
0.0
 11
1072.077541168533
 21
111.8097211384932
 31
0.0
  0
LINE
  5
2823
330
18
100
AcDbEntity
  8
DRAW2
100
AcDbLine
 10
1004.077541168533
 20
111.8097211384932
 30
0.0
 11
1140.077541168533
 21
111.8097211384932
 31
0.0
  0
LINE
  5
2826
330
18
100
AcDbEntity
  8
DRAW2
100
AcDbLine
 10
1004.077541168533
 20
101.8097211384932
 30
0.0
 11
1140.077541168533
 21
101.8097211384932
 31
0.0
  0
LINE
  5
2827
330
18
100
AcDbEntity
  8
DRAW2
100
AcDbLine
 10
1098.000504128337
 20
227.8097214698529
 30
0.0
 11
1046.154576389782
 21
227.8097250969707
 31
0.0
  0
LINE
  5
2828
330
18
100
AcDbEntity
  8
DRAW2
100
AcDbLine
 10
1098.000503962165
 20
137.8097211384932
 30
0.0
 11
1046.154578374901
 21
137.8097211384932
 31
0.0
  0
LINE
  5
2829
330
18
100
AcDbEntity
  8
DRAW2
100
AcDbLine
 10
1081.077541168533
 20
84.80972113849327
 30
0.0
 11
1081.077541168533
 21
101.8097211384932
 31
0.0
  0
LINE
  5
282A
330
18
100
AcDbEntity
  8
DRAW2
100
AcDbLine
 10
1063.077541168533
 20
84.80972113849327
 30
0.0
 11
1063.077541168533
 21
101.8097211384932
 31
0.0
  0
LINE
  5
282B
330
18
100
AcDbEntity
  8
DRAW2
100
AcDbLine
 10
1047.077541168533
 20
84.80972113849327
 30
0.0
 11
1047.077541168533
 21
101.8097211384932
 31
0.0
  0
LINE
  5
282C
330
18
100
AcDbEntity
  8
DRAW2
100
AcDbLine
 10
1037.577561168533
 20
101.8096911384932
 30
0.0
 11
1034.600431168533
 21
83.48890113849327
 31
0.0
  0
LINE
  5
282D
330
18
100
AcDbEntity
  8
DRAW2
100
AcDbLine
 10
1009.554651168533
 20
83.48889113849327
 30
0.0
 11
1006.577521168533
 21
101.8096911384932
 31
0.0
  0
LINE
  5
2831
330
18
100
AcDbEntity
  8
DRAW2
100
AcDbLine
 10
1049.077541168533
 20
82.80972113849328
 30
0.0
 11
1061.077541168533
 21
82.80972113849328
 31
0.0
  0
LINE
  5
2832
330
18
100
AcDbEntity
  8
DRAW2
100
AcDbLine
 10
1063.077541168533
 20
84.80972113849327
 30
0.0
 11
1047.077541168533
 21
84.80972113849327
 31
0.0
  0
LINE
  5
2833
330
18
100
AcDbEntity
  8
DRAW2
100
AcDbLine
 10
1011.528771168533
 20
81.80972113849326
 30
0.0
 11
1032.626311168533
 21
81.80972113849326
 31
0.0
  0
ARC
  5
2834
330
18
100
AcDbEntity
  8
DRAW2
100
AcDbCircle
 10
1011.528771168533
 20
83.80972113849328
 30
0.0
 40
2.0
100
AcDbArc
 50
189.2296800000003
 51
270.0000200000019
  0
ARC
  5
2835
330
18
100
AcDbEntity
  8
DRAW2
100
AcDbCircle
 10
1032.626311168533
 20
83.80972113849328
 30
0.0
 40
2.0
100
AcDbArc
 50
270.0000200000019
 51
350.7702999999999
  0
LINE
  5
2836
330
18
100
AcDbEntity
  8
DRAW2
100
AcDbLine
 10
1047.077541168533
 20
84.80974113849327
 30
0.0
 11
1049.077541168533
 21
82.80972113849328
 31
0.0
  0
LINE
  5
2837
330
18
100
AcDbEntity
  8
DRAW2
100
AcDbLine
 10
1061.077521168533
 20
82.80972113849328
 30
0.0
 11
1063.077521168533
 21
84.80974113849327
 31
0.0
  0
LINE
  5
2838
330
18
100
AcDbEntity
  8
DRAW2
100
AcDbLine
 10
1081.077541168533
 20
84.80972113849327
 30
0.0
 11
1083.077531168533
 21
82.80974113849328
 31
0.0
  0
LINE
  5
2839
330
18
100
AcDbEntity
  8
DRAW2
100
AcDbLine
 10
1009.119880799699
 20
198.3099011384932
 30
0.0
 11
1006.119880799699
 21
198.3099011384932
 31
0.0
  0
LINE
  5
283A
330
18
100
AcDbEntity
  8
DRAW2
100
AcDbLine
 10
1009.119820799699
 20
203.3099011384932
 30
0.0
 11
1006.119880799699
 21
203.3099011384932
 31
0.0
  0
LINE
  5
283C
330
18
100
AcDbEntity
  8
DRAW2
100
AcDbLine
 10
1004.077541168533
 20
111.8097211384932
 30
0.0
 11
1004.077541168533
 21
101.8097211384932
 31
0.0
  0
LINE
  5
283D
330
18
100
AcDbEntity
  8
DRAW2
100
AcDbLine
 10
961.7396611685336
 20
249.9470511384933
 30
0.0
 11
971.7396611685336
 21
249.9470511384933
 31
0.0
  0
LINE
  5
283E
330
18
100
AcDbEntity
  8
DRAW2
100
AcDbLine
 10
961.7396611685336
 20
252.4470511384933
 30
0.0
 11
971.7396611685336
 21
252.4470511384933
 31
0.0
  0
LINE
  5
283F
330
18
100
AcDbEntity
  8
DRAW2
100
AcDbLine
 10
961.7396611685336
 20
261.4470511384932
 30
0.0
 11
971.7396611685336
 21
261.4470511384932
 31
0.0
  0
ARC
  5
2840
330
18
100
AcDbEntity
  8
DRAW2
100
AcDbCircle
 10
971.7396611685336
 20
205.8097211384932
 30
0.0
 40
6.5
100
AcDbArc
 50
179.9999899999997
 51
269.9999970000023
  0
LINE
  5
2841
330
18
100
AcDbEntity
  8
DRAW2
100
AcDbLine
 10
961.7396611685336
 20
249.9470511384933
 30
0.0
 11
961.7396611685336
 21
261.4470511384932
 31
0.0
  0
LINE
  5
2842
330
18
100
AcDbEntity
  8
DRAW2
100
AcDbLine
 10
968.2396611685335
 20
205.8097211384932
 30
0.0
 11
968.2396611685335
 21
249.9470211384932
 31
0.0
  0
LINE
  5
2843
330
18
100
AcDbEntity
  8
DRAW2
100
AcDbLine
 10
965.2396611685336
 20
205.8097211384932
 30
0.0
 11
965.2396611685336
 21
249.9470511384933
 31
0.0
  0
LWPOLYLINE
  5
2844
330
18
100
AcDbEntity
  8
DRAW3
100
AcDbPolyline
 90
        6
 70
     0
 43
0.0
 10
986.7396611685336
 20
199.3095111384932
 42
0.072777938
 10
986.9069711685336
 20
199.9886411384932
 42
0.19774904
 10
986.7371211685336
 20
200.6509211384932
 42
0.05796169
 10
986.1968411685335
 20
201.0956311384932
 42
-0.14831896
 10
985.7496711685335
 20
201.6235811384933
 42
-0.077962573
 10
985.6146511685336
 20
202.3095711384932
  0
LINE
  5
2845
330
18
100
AcDbEntity
  8
DRAW2
100
AcDbLine
 10
996.1199107996989
 20
202.3096611384931
 30
0.0
 11
985.6146511685336
 21
202.3096611384932
 31
0.0
  0
LWPOLYLINE
  5
2846
330
18
100
AcDbEntity
  8
DRAW3
100
AcDbPolyline
 90
        6
 70
     0
 43
0.0
 10
983.7396611685337
 20
199.3095111384932
 42
0.072777938
 10
983.9069711685336
 20
199.9886411384932
 42
0.19774904
 10
983.7371211685335
 20
200.6509211384932
 42
0.05796169
 10
983.1968411685336
 20
201.0956311384932
 42
-0.14831896
 10
982.7496711685336
 20
201.6235811384933
 42
-0.077962573
 10
982.6146511685335
 20
202.3095711384932
  0
LINE
  5
2848
330
18
100
AcDbEntity
  8
DRAW2
100
AcDbLine
 10
983.7396611685337
 20
199.3095411384932
 30
0.0
 11
971.7396611685336
 21
199.3095411384932
 31
0.0
  0
LINE
  5
2849
330
18
100
AcDbEntity
  8
DRAW2
100
AcDbLine
 10
982.6146511685335
 20
202.3096611384932
 30
0.0
 11
971.7396611685336
 21
202.3096611384932
 31
0.0
  0
ARC
  5
284A
330
18
100
AcDbEntity
  8
DRAW2
100
AcDbCircle
 10
971.7396611685336
 20
205.8097211384932
 30
0.0
 40
3.5
100
AcDbArc
 50
179.9999899999997
 51
269.9999970000023
  0
LINE
  5
284B
330
18
100
AcDbEntity
  8
DRAW2
100
AcDbLine
 10
996.619910799699
 20
205.8097211384932
 30
0.0
 11
996.619910799699
 21
195.8097211384932
 31
0.0
  0
LINE
  5
284C
330
18
100
AcDbEntity
  8
DRAW2
100
AcDbLine
 10
996.1199107996989
 20
205.3097211384932
 30
0.0
 11
996.1199107996989
 21
196.3097211384932
 31
0.0
  0
LINE
  5
284D
330
18
100
AcDbEntity
  8
DRAW2
100
AcDbLine
 10
1006.120010799699
 20
205.8097211384932
 30
0.0
 11
1006.120010799699
 21
195.8097211384932
 31
0.0
  0
LINE
  5
284E
330
18
100
AcDbEntity
  8
DRAW2
100
AcDbLine
 10
996.619910799699
 20
195.8097211384932
 30
0.0
 11
1006.120010799699
 21
195.8097211384932
 31
0.0
  0
LINE
  5
284F
330
18
100
AcDbEntity
  8
DRAW2
100
AcDbLine
 10
996.1199107996989
 20
199.3095411384934
 30
0.0
 11
986.7396611685336
 21
199.3095411384932
 31
0.0
  0
LINE
  5
2850
330
18
100
AcDbEntity
  8
DRAW2
100
AcDbLine
 10
996.1199107996989
 20
196.3097211384932
 30
0.0
 11
996.619910799699
 21
195.8097211384932
 31
0.0
  0
LINE
  5
2851
330
18
100
AcDbEntity
  8
DRAW2
100
AcDbLine
 10
996.619910799699
 20
205.8097211384932
 30
0.0
 11
1006.120010799699
 21
205.8097211384932
 31
0.0
  0
LINE
  5
2852
330
18
100
AcDbEntity
  8
DRAW2
100
AcDbLine
 10
996.619910799699
 20
205.8097211384932
 30
0.0
 11
996.1199107996989
 21
205.3097211384932
 31
0.0
  0
LINE
  5
2853
330
18
100
AcDbEntity
  8
DRAW2
100
AcDbLine
 10
971.7396611685336
 20
249.9470511384933
 30
0.0
 11
971.7396611685336
 21
261.4470511384932
 31
0.0
  0
ARC
  5
2854
330
18
100
AcDbEntity
  8
DRAW2
100
AcDbCircle
 10
1072.077541168533
 20
182.8097211384932
 30
0.0
 40
56.5
100
AcDbArc
 50
127.2066086158345
 51
232.7933913841654
  0
LINE
  5
2855
330
18
100
AcDbEntity
  8
DRAW2
100
AcDbLine
 10
1046.154581168533
 20
111.8097211384932
 30
0.0
 11
1072.077541168533
 21
111.8097211384932
 31
0.0
  0
LINE
  5
2856
330
18
100
AcDbEntity
  8
DRAW2
100
AcDbLine
 10
1047.077541168533
 20
101.8097211384932
 30
0.0
 11
1063.077541168533
 21
101.8097211384932
 31
0.0
  0
ARC
  5
2857
330
18
100
AcDbEntity
  8
DRAW2
100
AcDbCircle
 10
1072.077541168533
 20
124.8097211384932
 30
0.0
 40
29.0
100
AcDbArc
 50
153.3668799999996
 51
206.6331099999986
  0
LINE
  5
2858
330
18
100
AcDbEntity
  8
DRAW2
100
AcDbLine
 10
1030.077541168533
 20
128.8097211384932
 30
0.0
 11
1028.077541168533
 21
130.8097211384932
 31
0.0
  0
LINE
  5
2859
330
18
100
AcDbEntity
  8
DRAW2
100
AcDbLine
 10
1014.077541168533
 20
128.8097211384932
 30
0.0
 11
1030.077541168533
 21
128.8097211384932
 31
0.0
  0
LINE
  5
285A
330
18
100
AcDbEntity
  8
DRAW2
100
AcDbLine
 10
1025.077541168533
 20
101.8097211384932
 30
0.0
 11
1037.577541168533
 21
101.8097211384932
 31
0.0
  0
LINE
  5
285B
330
18
100
AcDbEntity
  8
DRAW2
100
AcDbLine
 10
1030.077541168533
 20
111.8097211384932
 30
0.0
 11
1014.077541168533
 21
111.8097211384932
 31
0.0
  0
LINE
  5
285C
330
18
100
AcDbEntity
  8
DRAW2
100
AcDbLine
 10
1014.077541168533
 20
128.8097211384932
 30
0.0
 11
1014.077541168533
 21
111.8097211384932
 31
0.0
  0
LINE
  5
285D
330
18
100
AcDbEntity
  8
DRAW2
100
AcDbLine
 10
1028.077541168533
 20
130.8097211384932
 30
0.0
 11
1016.077541168533
 21
130.8097211384932
 31
0.0
  0
LINE
  5
285E
330
18
100
AcDbEntity
  8
DRAW2
100
AcDbLine
 10
1016.077541168533
 20
130.8097211384932
 30
0.0
 11
1014.077541168533
 21
128.8097211384932
 31
0.0
  0
LINE
  5
285F
330
18
100
AcDbEntity
  8
DRAW2
100
AcDbLine
 10
1030.077541168533
 20
128.8097211384932
 30
0.0
 11
1030.077541168533
 21
111.8097211384932
 31
0.0
  0
CIRCLE
  5
2860
330
18
100
AcDbEntity
  8
DRAW2
100
AcDbCircle
 10
1038.059521168533
 20
148.9456511384932
 30
0.0
 40
6.0
  0
CIRCLE
  5
2861
330
18
100
AcDbEntity
  8
DRAW2
100
AcDbCircle
 10
1038.059521168533
 20
148.9456511384932
 30
0.0
 40
8.0
  0
CIRCLE
  5
2864
330
18
100
AcDbEntity
  8
DRAW2
100
AcDbCircle
 10
1072.077541168533
 20
124.8097211384932
 30
0.0
 40
4.0
  0
CIRCLE
  5
2865
330
18
100
AcDbEntity
  8
DRAW2
100
AcDbCircle
 10
1072.077541168533
 20
124.8097211384932
 30
0.0
 40
5.7225
  0
CIRCLE
  5
2866
330
18
100
AcDbEntity
  8
DRAW3
100
AcDbCircle
 10
1072.077541168533
 20
124.8097211384932
 30
0.0
 40
6.549999999999999
  0
CIRCLE
  5
2867
330
18
100
AcDbEntity
  8
DRAW2
100
AcDbCircle
 10
1072.077541168533
 20
124.8097211384932
 30
0.0
 40
11.5
  0
CIRCLE
  5
2868
330
18
100
AcDbEntity
  8
DRAW2
100
AcDbCircle
 10
1072.077541168533
 20
124.8097211384932
 30
0.0
 40
12.5
  0
LINE
  5
2869
330
18
100
AcDbEntity
  8
DRAW2
100
AcDbLine
 10
1046.154581168533
 20
253.8097211384932
 30
0.0
 11
1072.077541168533
 21
253.8097211384932
 31
0.0
  0
CIRCLE
  5
286C
330
18
100
AcDbEntity
  8
DRAW2
100
AcDbCircle
 10
1038.059521168533
 20
216.6737911384933
 30
0.0
 40
6.0
  0
CIRCLE
  5
286D
330
18
100
AcDbEntity
  8
DRAW2
100
AcDbCircle
 10
1038.059521168533
 20
216.6737911384933
 30
0.0
 40
8.0
  0
LINE
  5
286E
330
18
100
AcDbEntity
  8
DRAW2
100
AcDbLine
 10
1017.119910799699
 20
206.3097211384932
 30
0.0
 11
1017.119910799699
 21
195.9211232085454
 31
0.0
  0
LINE
  5
286F
330
18
100
AcDbEntity
  8
DRAW2
100
AcDbLine
 10
1009.119980799699
 20
206.3097211384932
 30
0.0
 11
1009.119980799699
 21
195.3097211384933
 31
0.0
  0
LINE
  5
2870
330
18
100
AcDbEntity
  8
DRAW2
100
AcDbLine
 10
1018.157270799699
 20
205.7976411384932
 30
0.0
 11
1018.157270799699
 21
199.68735258819
 31
0.0
  0
LINE
  5
2871
330
18
100
AcDbEntity
  8
DRAW2
100
AcDbLine
 10
1009.119980799699
 20
197.3456195233555
 30
0.0
 11
1017.119910799699
 21
197.3456195233555
 31
0.0
  0
LINE
  5
2872
330
18
100
AcDbEntity
  8
DRAW2
100
AcDbLine
 10
1009.119980799699
 20
195.3097211384932
 30
0.0
 11
1016.977631912709
 21
195.3097211384932
 31
0.0
  0
LINE
  5
2873
330
18
100
AcDbEntity
  8
DRAW2
100
AcDbLine
 10
1020.43399608426
 20
205.7268381283898
 30
0.0
 11
1017.119900799699
 21
205.8304111384932
 31
0.0
  0
LINE
  5
2874
330
18
100
AcDbEntity
  8
DRAW3
100
AcDbLine
 10
1020.181032389779
 20
205.1480822372101
 30
0.0
 11
1018.157100799699
 21
205.2113311384932
 31
0.0
  0
LINE
  5
2875
330
18
100
AcDbEntity
  8
DRAW2
100
AcDbLine
 10
1009.119980799699
 20
204.273822753631
 30
0.0
 11
1017.119910799699
 21
204.273822753631
 31
0.0
  0
LINE
  5
2876
330
18
100
AcDbEntity
  8
DRAW2
100
AcDbLine
 10
1009.119980799699
 20
206.3097211384932
 30
0.0
 11
1017.119910799699
 21
206.3097211384932
 31
0.0
  0
LINE
  5
2877
330
18
100
AcDbEntity
  8
DRAW3
100
AcDbLine
 10
1018.157210799699
 20
205.2110311384932
 30
0.0
 11
1017.119910799699
 21
205.8099011384932
 31
0.0
  0
ARC
  5
2878
330
18
100
AcDbEntity
  8
DRAW2
100
AcDbCircle
 10
1072.077541168533
 20
240.8097211384932
 30
0.0
 40
29.0
100
AcDbArc
 50
153.3668799999996
 51
206.6331099999986
  0
CIRCLE
  5
2879
330
18
100
AcDbEntity
  8
DRAW2
100
AcDbCircle
 10
1072.077541168533
 20
240.8097211384932
 30
0.0
 40
4.0
  0
CIRCLE
  5
287A
330
18
100
AcDbEntity
  8
DRAW2
100
AcDbCircle
 10
1072.077541168533
 20
240.8097211384932
 30
0.0
 40
5.7225
  0
CIRCLE
  5
287B
330
18
100
AcDbEntity
  8
DRAW3
100
AcDbCircle
 10
1072.077541168533
 20
240.8097211384932
 30
0.0
 40
6.549999999999999
  0
CIRCLE
  5
287C
330
18
100
AcDbEntity
  8
DRAW2
100
AcDbCircle
 10
1072.077541168533
 20
240.8097211384932
 30
0.0
 40
12.5
  0
CIRCLE
  5
287D
330
18
100
AcDbEntity
  8
DRAW2
100
AcDbCircle
 10
1072.077541168533
 20
240.8097211384932
 30
0.0
 40
11.5
  0
LINE
  5
287E
330
18
100
AcDbEntity
  8
DRAW2
100
AcDbLine
 10
1137.577556168533
 20
101.8097011384932
 30
0.0
 11
1134.600429168533
 21
83.48890113849327
 31
0.0
  0
LINE
  5
287F
330
18
100
AcDbEntity
  8
DRAW2
100
AcDbLine
 10
1109.554668168533
 20
83.48889113849327
 30
0.0
 11
1106.577541168533
 21
101.8096911384932
 31
0.0
  0
LINE
  5
2881
330
18
100
AcDbEntity
  8
DRAW2
100
AcDbLine
 10
1097.077541168533
 20
84.80972113849327
 30
0.0
 11
1097.077541168533
 21
101.8097211384932
 31
0.0
  0
LINE
  5
2882
330
18
100
AcDbEntity
  8
DRAW2
100
AcDbLine
 10
1111.528774168533
 20
81.80972113849326
 30
0.0
 11
1132.626308168533
 21
81.80972113849326
 31
0.0
  0
LINE
  5
2883
330
18
100
AcDbEntity
  8
DRAW2
100
AcDbLine
 10
1095.077541168533
 20
82.80972113849328
 30
0.0
 11
1097.077541168533
 21
84.80972113849327
 31
0.0
  0
ARC
  5
2884
330
18
100
AcDbEntity
  8
DRAW2
100
AcDbCircle
 10
1111.528774168533
 20
83.80972113849328
 30
0.0
 40
2.0
100
AcDbArc
 50
189.2296800000003
 51
270.0000200000019
  0
ARC
  5
2885
330
18
100
AcDbEntity
  8
DRAW2
100
AcDbCircle
 10
1132.626308168533
 20
83.80972113849328
 30
0.0
 40
2.0
100
AcDbArc
 50
270.0000200000019
 51
350.7702999999999
  0
ARC
  5
2886
330
18
100
AcDbEntity
  8
DRAW2
100
AcDbCircle
 10
1072.077541168533
 20
182.8097211384932
 30
0.0
 40
56.5
100
AcDbArc
 50
307.2066086158345
 51
52.79339138416546
  0
LINE
  5
2887
330
18
100
AcDbEntity
  8
DRAW2
100
AcDbLine
 10
1106.577541168533
 20
101.8097211384932
 30
0.0
 11
1137.577541168533
 21
101.8097211384932
 31
0.0
  0
ARC
  5
2888
330
18
100
AcDbEntity
  8
DRAW2
100
AcDbCircle
 10
1072.077541168533
 20
124.8097211384932
 30
0.0
 40
29.0
100
AcDbArc
 50
333.3668799999996
 51
26.63311500000059
  0
LINE
  5
2889
330
18
100
AcDbEntity
  8
DRAW2
100
AcDbLine
 10
1116.077533168533
 20
130.8097411384932
 30
0.0
 11
1114.077533168533
 21
128.8097411384932
 31
0.0
  0
LINE
  5
288A
330
18
100
AcDbEntity
  8
DRAW2
100
AcDbLine
 10
1114.077541168533
 20
128.8097211384932
 30
0.0
 11
1130.077541168533
 21
128.8097211384932
 31
0.0
  0
LINE
  5
288B
330
18
100
AcDbEntity
  8
DRAW2
100
AcDbLine
 10
1130.077541168533
 20
111.8097211384932
 30
0.0
 11
1114.077541168533
 21
111.8097211384932
 31
0.0
  0
LINE
  5
288C
330
18
100
AcDbEntity
  8
DRAW2
100
AcDbLine
 10
1114.077541168533
 20
128.8097211384932
 30
0.0
 11
1114.077541168533
 21
111.8097211384932
 31
0.0
  0
LINE
  5
288D
330
18
100
AcDbEntity
  8
DRAW2
100
AcDbLine
 10
1130.077541168533
 20
128.8097211384932
 30
0.0
 11
1130.077541168533
 21
111.8097211384932
 31
0.0
  0
LINE
  5
288E
330
18
100
AcDbEntity
  8
DRAW2
100
AcDbLine
 10
1128.077541168533
 20
130.8097211384932
 30
0.0
 11
1116.077541168533
 21
130.8097211384932
 31
0.0
  0
LINE
  5
288F
330
18
100
AcDbEntity
  8
DRAW2
100
AcDbLine
 10
1130.077533168533
 20
128.8097411384932
 30
0.0
 11
1128.077526168533
 21
130.8097411384932
 31
0.0
  0
CIRCLE
  5
2890
330
18
100
AcDbEntity
  8
DRAW2
100
AcDbCircle
 10
1106.095561168533
 20
148.9456511384932
 30
0.0
 40
6.0
  0
CIRCLE
  5
2892
330
18
100
AcDbEntity
  8
DRAW2
100
AcDbCircle
 10
1106.095561168533
 20
148.9456511384932
 30
0.0
 40
8.0
  0
LINE
  5
2894
330
18
100
AcDbEntity
  8
DRAW2
100
AcDbLine
 10
1140.077541168533
 20
111.8097211384932
 30
0.0
 11
1140.077541168533
 21
101.8097211384932
 31
0.0
  0
CIRCLE
  5
2895
330
18
100
AcDbEntity
  8
DRAW2
100
AcDbCircle
 10
1106.095561168533
 20
216.6737911384933
 30
0.0
 40
6.0
  0
CIRCLE
  5
2896
330
18
100
AcDbEntity
  8
DRAW2
100
AcDbCircle
 10
1106.095561168533
 20
216.6737911384933
 30
0.0
 40
8.0
  0
ARC
  5
2899
330
18
100
AcDbEntity
  8
DRAW2
100
AcDbCircle
 10
1072.077541168533
 20
240.8097211384932
 30
0.0
 40
29.0
100
AcDbArc
 50
333.3668799999996
 51
26.63311899999863
  0
LINE
  5
289A
330
18
100
AcDbEntity
  8
DRAW2
100
AcDbLine
 10
1081.077541168533
 20
280.8097211384932
 30
0.0
 11
1097.077541168533
 21
280.8097211384932
 31
0.0
  0
LINE
  5
289B
330
18
100
AcDbEntity
  8
DRAW2
100
AcDbLine
 10
1097.077541168533
 20
263.8097211384932
 30
0.0
 11
1081.077541168533
 21
263.8097211384932
 31
0.0
  0
LINE
  5
289C
330
18
100
AcDbEntity
  8
DRAW2
100
AcDbLine
 10
1095.077541168533
 20
282.8097211384932
 30
0.0
 11
1083.077541168533
 21
282.8097211384932
 31
0.0
  0
LINE
  5
289D
330
18
100
AcDbEntity
  8
DRAW2
100
AcDbLine
 10
1045.077541168533
 20
263.8097211384932
 30
0.0
 11
1099.077541168533
 21
263.8097211384932
 31
0.0
  0
LINE
  5
289E
330
18
100
AcDbEntity
  8
DRAW2
100
AcDbLine
 10
1047.077541168533
 20
280.8097211384932
 30
0.0
 11
1063.077541168533
 21
280.8097211384932
 31
0.0
  0
LINE
  5
289F
330
18
100
AcDbEntity
  8
DRAW2
100
AcDbLine
 10
1063.077541168533
 20
263.8097211384932
 30
0.0
 11
1047.077541168533
 21
263.8097211384932
 31
0.0
  0
LINE
  5
28A0
330
18
100
AcDbEntity
  8
DRAW2
100
AcDbLine
 10
1061.077541168533
 20
282.8097211384932
 30
0.0
 11
1049.077541168533
 21
282.8097211384932
 31
0.0
  0
LINE
  5
28A1
330
18
100
AcDbEntity
  8
DRAW2
100
AcDbLine
 10
1047.077541168533
 20
280.8097211384932
 30
0.0
 11
1047.077541168533
 21
263.8097211384932
 31
0.0
  0
LINE
  5
28A2
330
18
100
AcDbEntity
  8
DRAW2
100
AcDbLine
 10
1049.077541168533
 20
282.8097211384932
 30
0.0
 11
1047.077541168533
 21
280.8097211384932
 31
0.0
  0
LINE
  5
28A3
330
18
100
AcDbEntity
  8
DRAW2
100
AcDbLine
 10
1063.077561168533
 20
280.8097211384932
 30
0.0
 11
1061.077541168533
 21
282.8097211384932
 31
0.0
  0
LINE
  5
28A4
330
18
100
AcDbEntity
  8
DRAW2
100
AcDbLine
 10
1063.077541168533
 20
280.8097211384932
 30
0.0
 11
1063.077541168533
 21
263.8097211384932
 31
0.0
  0
LINE
  5
28A5
330
18
100
AcDbEntity
  8
DRAW2
100
AcDbLine
 10
1083.077541168533
 20
282.8097211384932
 30
0.0
 11
1081.077531168533
 21
280.8097211384932
 31
0.0
  0
LINE
  5
28A6
330
18
100
AcDbEntity
  8
DRAW2
100
AcDbLine
 10
1081.077541168533
 20
280.8097211384932
 30
0.0
 11
1081.077541168533
 21
263.8097211384932
 31
0.0
  0
LINE
  5
28A7
330
18
100
AcDbEntity
  8
DRAW2
100
AcDbLine
 10
1097.077541168533
 20
280.8097211384932
 30
0.0
 11
1097.077541168533
 21
263.8097211384932
 31
0.0
  0
LINE
  5
28A8
330
18
100
AcDbEntity
  8
DRAW2
100
AcDbLine
 10
1097.077541168533
 20
280.8097211384932
 30
0.0
 11
1095.077541168533
 21
282.8097211384932
 31
0.0
  0
VIEWPORT
  5
37
330
15
100
AcDbEntity
 67
     1
  8
0
100
AcDbViewport
 10
296.9950122070312
 20
209.9950000476836
 30
0.0
 40
632.1056339387388
 41
423.1939163498098
 68
     1
 69
     1
 12
296.9950122070312
 22
209.9950000476836
 13
0.0
 23
0.0
 14
5.0
 24
5.0
 15
10.0
 25
10.0
 16
0.0
 26
0.0
 36
1.0
 17
0.0
 27
0.0
 37
0.0
 42
50.0
 43
0.0
 44
0.0
 45
423.1939163498098
 50
0.0
 51
0.0
 72
   100
 90
    32768
  1

281
     0
 71
     1
 74
     0
110
0.0
120
0.0
130
0.0
111
1.0
121
0.0
131
0.0
112
0.0
122
1.0
132
0.0
 79
     0
146
0.0
  0
ENDSEC
  0
SECTION
  2
OBJECTS
  0
DICTIONARY
  5
C
330
0
100
AcDbDictionary
281
     1
  3
ACAD_GROUP
350
D
  3
ACAD_LAYOUT
350
A94
  3
ACAD_MLINESTYLE
350
1B
  3
ACAD_PLOTSETTINGS
350
A95
  3
ACAD_PLOTSTYLENAME
350
A92
  0
DICTIONARY
  5
D
102
{ACAD_REACTORS
330
C
102
}
330
C
100
AcDbDictionary
281
     1
  3
*A1
350
1B2E
  3
*A2
350
1C2D
  3
*A3
350
221C
  0
DICTIONARY
  5
A94
102
{ACAD_REACTORS
330
C
102
}
330
C
100
AcDbDictionary
281
     1
  3
Model
350
A96
  3
ﾚｲｱｳﾄ1
350
A97
  0
DICTIONARY
  5
1B
102
{ACAD_REACTORS
330
C
102
}
330
C
100
AcDbDictionary
281
     1
  3
STANDARD
350
1C
  0
DICTIONARY
  5
A95
102
{ACAD_REACTORS
330
C
102
}
330
C
100
AcDbDictionary
281
     1
  3
AdobePDF_A2
350
B3F
  0
ACDBDICTIONARYWDFLT
  5
A92
102
{ACAD_REACTORS
330
C
102
}
330
C
100
AcDbDictionary
281
     1
  3
Normal
350
A93
100
AcDbDictionaryWithDefault
340
A93
  0
GROUP
  5
1B2E
102
{ACAD_REACTORS
330
D
102
}
330
D
100
AcDbGroup
300

 70
     1
 71
     1
  0
GROUP
  5
1C2D
102
{ACAD_REACTORS
330
D
102
}
330
D
100
AcDbGroup
300

 70
     1
 71
     1
  0
GROUP
  5
221C
102
{ACAD_REACTORS
330
D
102
}
330
D
100
AcDbGroup
300

 70
     1
 71
     1
  0
LAYOUT
  5
A96
102
{ACAD_REACTORS
330
A94
102
}
330
A94
100
AcDbPlotSettings
  1

  2
Acrobat Distiller
  4

  6

 40
0.0
 41
0.0
 42
0.0
 43
0.0
 44
0.0
 45
0.0
 46
0.0
 47
0.0
 48
0.0
 49
0.0
140
0.0
141
0.0
142
1.0
143
1.0
 70
  1712
 72
     0
 73
     0
 74
     0
  7

 75
     0
147
1.0
148
0.0
149
0.0
100
AcDbLayout
  1
Model
 70
     1
 71
     0
 10
0.0
 20
0.0
 11
12.0
 21
9.0
 12
0.0
 22
0.0
 32
0.0
 14
0.0
 24
0.0
 34
0.0
 15
0.0
 25
0.0
 35
0.0
146
0.0
 13
0.0
 23
0.0
 33
0.0
 16
1.0
 26
0.0
 36
0.0
 17
0.0
 27
1.0
 37
0.0
 76
     0
330
18
  0
LAYOUT
  5
A97
102
{ACAD_REACTORS
330
A94
102
}
330
A94
100
AcDbPlotSettings
  1
AdobePDF_A2
  2
Adobe PDF
  4
User66
  6
A1
 40
3.174999952316284
 41
3.174999952316284
 42
3.17498779296875
 43
3.17498779296875
 44
420.0
 45
594.0
 46
-3.169999999999999
 47
-3.169999999999999
 48
0.0
 49
0.0
140
594.0
141
420.0
142
1.0
143
1.0
 70
   692
 72
     1
 73
     1
 74
     4
  7
LineScale_10.ctb
 75
    16
147
1.0
148
0.0
149
0.0
100
AcDbLayout
  1
ﾚｲｱｳﾄ1
 70
     1
 71
     1
 10
-0.0049877929687501
 20
-0.0049999523162843
 11
593.9950122070312
 21
419.9950000476837
 12
0.0
 22
0.0
 32
0.0
 14
1.000000000000000E+20
 24
1.000000000000000E+20
 34
1.000000000000000E+20
 15
-1.000000000000000E+20
 25
-1.000000000000000E+20
 35
-1.000000000000000E+20
146
0.0
 13
0.0
 23
0.0
 33
0.0
 16
1.0
 26
0.0
 36
0.0
 17
0.0
 27
1.0
 37
0.0
 76
     0
330
15
331
37
  0
MLINESTYLE
  5
1C
102
{ACAD_REACTORS
330
1B
102
}
330
1B
100
AcDbMlineStyle
  2
STANDARD
 70
     0
  3

 62
   256
 51
90.0
 52
90.0
 71
     2
 49
0.5
 62
   256
  6
BYLAYER
 49
-0.5
 62
   256
  6
BYLAYER
  0
PLOTSETTINGS
  5
B3F
102
{ACAD_REACTORS
330
A95
102
}
330
A95
100
AcDbPlotSettings
  1
AdobePDF_A2
  2
Adobe PDF
  4
User66
  6
A1
 40
3.174999952316284
 41
3.174999952316284
 42
3.17498779296875
 43
3.17498779296875
 44
420.0
 45
594.0
 46
-3.169999999999999
 47
-3.169999999999999
 48
0.0
 49
0.0
140
594.0
141
420.0
142
1.0
143
1.0
 70
   692
 72
     1
 73
     1
 74
     4
  7
LineScale_10.ctb
 75
    16
147
1.0
148
0.0
149
0.0
  0
ACDBPLACEHOLDER
  5
A93
102
{ACAD_REACTORS
330
A92
102
}
330
A92
  0
ENDSEC
  0
EOF
