  0
SECTION
  2
HEADER
  9
$ACADVER
  1
AC1015
  9
$ACADMAINTVER
 70
     6
  9
$DWGCODEPAGE
  3
ANSI_932
  9
$INSBASE
 10
0.0
 20
0.0
 30
0.0
  9
$EXTMIN
 10
-123.6133476550612
 20
-165.5276124250451
 30
-0.0000000100021362
  9
$EXTMAX
 10
580.2693272077817
 20
479.9771643029857
 30
0.0000000100021363
  9
$LIMMIN
 10
0.0
 20
0.0
  9
$LIMMAX
 10
841.0
 20
594.0
  9
$ORTHOMODE
 70
     1
  9
$REGENMODE
 70
     1
  9
$FILLMODE
 70
     1
  9
$QTEXTMODE
 70
     0
  9
$MIRRTEXT
 70
     0
  9
$LTSCALE
 40
7.0
  9
$ATTMODE
 70
     1
  9
$TEXTSIZE
 40
3.2
  9
$TRACEWID
 40
0.05
  9
$TEXTSTYLE
  7
DIMFONT
  9
$CLAYER
  8
DRAW2
  9
$CELTYPE
  6
BYLAYER
  9
$CECOLOR
 62
   256
  9
$CELTSCALE
 40
1.0
  9
$DISPSILH
 70
     0
  9
$DIMSCALE
 40
2.0
  9
$DIMASZ
 40
3.0
  9
$DIMEXO
 40
0.0
  9
$DIMDLI
 40
10.0
  9
$DIMRND
 40
0.0
  9
$DIMDLE
 40
0.0
  9
$DIMEXE
 40
1.0
  9
$DIMTP
 40
0.0
  9
$DIMTM
 40
0.0
  9
$DIMTXT
 40
3.2
  9
$DIMCEN
 40
0.0
  9
$DIMTSZ
 40
0.0
  9
$DIMTOL
 70
     0
  9
$DIMLIM
 70
     0
  9
$DIMTIH
 70
     0
  9
$DIMTOH
 70
     0
  9
$DIMSE1
 70
     0
  9
$DIMSE2
 70
     0
  9
$DIMTAD
 70
     3
  9
$DIMZIN
 70
     8
  9
$DIMBLK
  1

  9
$DIMASO
 70
     1
  9
$DIMSHO
 70
     1
  9
$DIMPOST
  1

  9
$DIMAPOST
  1

  9
$DIMALT
 70
     0
  9
$DIMALTD
 70
     2
  9
$DIMALTF
 40
25.4
  9
$DIMLFAC
 40
1.0
  9
$DIMTOFL
 70
     1
  9
$DIMTVP
 40
0.0
  9
$DIMTIX
 70
     0
  9
$DIMSOXD
 70
     0
  9
$DIMSAH
 70
     1
  9
$DIMBLK1
  1
OPEN
  9
$DIMBLK2
  1
OPEN
  9
$DIMSTYLE
  2
1_2
  9
$DIMCLRD
 70
     0
  9
$DIMCLRE
 70
     0
  9
$DIMCLRT
 70
     0
  9
$DIMTFAC
 40
0.75
  9
$DIMGAP
 40
1.0
  9
$DIMJUST
 70
     0
  9
$DIMSD1
 70
     0
  9
$DIMSD2
 70
     0
  9
$DIMTOLJ
 70
     1
  9
$DIMTZIN
 70
     8
  9
$DIMALTZ
 70
     0
  9
$DIMALTTZ
 70
     0
  9
$DIMUPT
 70
     0
  9
$DIMDEC
 70
     4
  9
$DIMTDEC
 70
     4
  9
$DIMALTU
 70
     2
  9
$DIMALTTD
 70
     2
  9
$DIMTXSTY
  7
DIMFONT
  9
$DIMAUNIT
 70
     0
  9
$DIMADEC
 70
     2
  9
$DIMALTRND
 40
0.0
  9
$DIMAZIN
 70
     2
  9
$DIMDSEP
 70
    46
  9
$DIMATFIT
 70
     1
  9
$DIMFRAC
 70
     0
  9
$DIMLDRBLK
  1
OPEN
  9
$DIMLUNIT
 70
     2
  9
$DIMLWD
 70
    -2
  9
$DIMLWE
 70
    -2
  9
$DIMTMOVE
 70
     0
  9
$LUNITS
 70
     2
  9
$LUPREC
 70
     4
  9
$SKETCHINC
 40
0.1
  9
$FILLETRAD
 40
3.0
  9
$AUNITS
 70
     0
  9
$AUPREC
 70
     4
  9
$MENU
  1
acad
  9
$ELEVATION
 40
0.0
  9
$PELEVATION
 40
0.0
  9
$THICKNESS
 40
0.0
  9
$LIMCHECK
 70
     0
  9
$CHAMFERA
 40
0.0
  9
$CHAMFERB
 40
0.0
  9
$CHAMFERC
 40
0.0
  9
$CHAMFERD
 40
0.0
  9
$SKPOLY
 70
     0
  9
$TDCREATE
 40
2450927.422880741
  9
$TDUCREATE
 40
2450927.047880740
  9
$TDUPDATE
 40
2455586.695183738
  9
$TDUUPDATE
 40
2455586.320183738
  9
$TDINDWG
 40
0.3488295023
  9
$TDUSRTIMER
 40
0.3488295023
  9
$USRTIMER
 70
     1
  9
$ANGBASE
 50
0.0
  9
$ANGDIR
 70
     0
  9
$PDMODE
 70
    35
  9
$PDSIZE
 40
0.5
  9
$PLINEWID
 40
0.0
  9
$SPLFRAME
 70
     0
  9
$SPLINETYPE
 70
     6
  9
$SPLINESEGS
 70
     8
  9
$HANDSEED
  5
959C
  9
$SURFTAB1
 70
     6
  9
$SURFTAB2
 70
     6
  9
$SURFTYPE
 70
     6
  9
$SURFU
 70
     6
  9
$SURFV
 70
     6
  9
$UCSBASE
  2

  9
$UCSNAME
  2

  9
$UCSORG
 10
0.0
 20
0.0
 30
0.0
  9
$UCSXDIR
 10
1.0
 20
0.0
 30
0.0
  9
$UCSYDIR
 10
0.0
 20
1.0
 30
0.0
  9
$UCSORTHOREF
  2

  9
$UCSORTHOVIEW
 70
     0
  9
$UCSORGTOP
 10
0.0
 20
0.0
 30
0.0
  9
$UCSORGBOTTOM
 10
0.0
 20
0.0
 30
0.0
  9
$UCSORGLEFT
 10
0.0
 20
0.0
 30
0.0
  9
$UCSORGRIGHT
 10
0.0
 20
0.0
 30
0.0
  9
$UCSORGFRONT
 10
0.0
 20
0.0
 30
0.0
  9
$UCSORGBACK
 10
0.0
 20
0.0
 30
0.0
  9
$PUCSBASE
  2

  9
$PUCSNAME
  2

  9
$PUCSORG
 10
0.0
 20
0.0
 30
0.0
  9
$PUCSXDIR
 10
1.0
 20
0.0
 30
0.0
  9
$PUCSYDIR
 10
0.0
 20
1.0
 30
0.0
  9
$PUCSORTHOREF
  2

  9
$PUCSORTHOVIEW
 70
     0
  9
$PUCSORGTOP
 10
0.0
 20
0.0
 30
0.0
  9
$PUCSORGBOTTOM
 10
0.0
 20
0.0
 30
0.0
  9
$PUCSORGLEFT
 10
0.0
 20
0.0
 30
0.0
  9
$PUCSORGRIGHT
 10
0.0
 20
0.0
 30
0.0
  9
$PUCSORGFRONT
 10
0.0
 20
0.0
 30
0.0
  9
$PUCSORGBACK
 10
0.0
 20
0.0
 30
0.0
  9
$USERI1
 70
     0
  9
$USERI2
 70
     0
  9
$USERI3
 70
     0
  9
$USERI4
 70
     0
  9
$USERI5
 70
     0
  9
$USERR1
 40
0.0
  9
$USERR2
 40
0.0
  9
$USERR3
 40
0.0
  9
$USERR4
 40
0.0
  9
$USERR5
 40
0.0
  9
$WORLDVIEW
 70
     1
  9
$SHADEDGE
 70
     3
  9
$SHADEDIF
 70
    70
  9
$TILEMODE
 70
     1
  9
$MAXACTVP
 70
    16
  9
$PINSBASE
 10
0.0
 20
0.0
 30
0.0
  9
$PLIMCHECK
 70
     0
  9
$PEXTMIN
 10
1.000000000000000E+20
 20
1.000000000000000E+20
 30
1.000000000000000E+20
  9
$PEXTMAX
 10
-1.000000000000000E+20
 20
-1.000000000000000E+20
 30
-1.000000000000000E+20
  9
$PLIMMIN
 10
-0.0049877929687501
 20
-0.0049999523162843
  9
$PLIMMAX
 10
593.9950122070312
 20
419.9950000476837
  9
$UNITMODE
 70
     0
  9
$VISRETAIN
 70
     0
  9
$PLINEGEN
 70
     1
  9
$PSLTSCALE
 70
     1
  9
$TREEDEPTH
 70
  3020
  9
$CMLSTYLE
  2
STANDARD
  9
$CMLJUST
 70
     0
  9
$CMLSCALE
 40
1.0
  9
$PROXYGRAPHICS
 70
     1
  9
$MEASUREMENT
 70
     1
  9
$CELWEIGHT
370
    -1
  9
$ENDCAPS
280
     0
  9
$JOINSTYLE
280
     0
  9
$LWDISPLAY
290
     0
  9
$INSUNITS
 70
     0
  9
$HYPERLINKBASE
  1

  9
$STYLESHEET
  1

  9
$XEDIT
290
     1
  9
$CEPSNTYPE
380
     0
  9
$PSTYLEMODE
290
     1
  9
$FINGERPRINTGUID
  2
{40C1D4C0-2D54-40CC-9A97-63FF3BD1959E}
  9
$VERSIONGUID
  2
{A292581A-24BD-4E17-B9C0-661AC1365FC8}
  9
$EXTNAMES
290
     1
  9
$PSVPSCALE
 40
0.0
  9
$OLESTARTUP
290
     0
  0
ENDSEC
  0
SECTION
  2
CLASSES
  0
CLASS
  1
ACDBDICTIONARYWDFLT
  2
AcDbDictionaryWithDefault
  3
AutoCAD 2000
 90
        0
280
     0
281
     0
  0
CLASS
  1
ACDBPLACEHOLDER
  2
AcDbPlaceHolder
  3
AutoCAD 2000
 90
        0
280
     0
281
     0
  0
CLASS
  1
LAYOUT
  2
AcDbLayout
  3
AutoCAD 2000
 90
        0
280
     0
281
     0
  0
CLASS
  1
PLOTSETTINGS
  2
AcDbPlotSettings
  3
AutoCAD 2000
 90
        0
280
     0
281
     0
  0
ENDSEC
  0
SECTION
  2
TABLES
  0
TABLE
  2
VPORT
  5
8
330
0
100
AcDbSymbolTable
 70
     3
  0
VPORT
  5
959B
330
8
100
AcDbSymbolTableRecord
100
AcDbViewportTableRecord
  2
*Active
 70
     0
 10
0.0
 20
0.0
 11
1.0
 21
1.0
 12
228.3279897763601
 22
157.2247759389703
 13
0.0
 23
0.0
 14
20.0
 24
20.0
 15
10.0
 25
10.0
 16
0.0
 26
0.0
 36
1.0
 17
0.0
 27
0.0
 37
0.0
 40
650.3581961019259
 41
1.442910915934755
 42
50.0
 43
0.0
 44
0.0
 50
0.0
 51
0.0
 71
     0
 72
   100
 73
     1
 74
     0
 75
     0
 76
     0
 77
     0
 78
     0
281
     0
 65
     1
110
0.0
120
0.0
130
0.0
111
1.0
121
0.0
131
0.0
112
0.0
122
1.0
132
0.0
 79
     0
146
0.0
  0
ENDTAB
  0
TABLE
  2
LTYPE
  5
5
330
0
100
AcDbSymbolTable
 70
     3
  0
LTYPE
  5
12
330
5
100
AcDbSymbolTableRecord
100
AcDbLinetypeTableRecord
  2
BYBLOCK
 70
     0
  3

 72
    65
 73
     0
 40
0.0
  0
LTYPE
  5
13
330
5
100
AcDbSymbolTableRecord
100
AcDbLinetypeTableRecord
  2
BYLAYER
 70
     0
  3

 72
    65
 73
     0
 40
0.0
  0
LTYPE
  5
14
330
5
100
AcDbSymbolTableRecord
100
AcDbLinetypeTableRecord
  2
CONTINUOUS
 70
     0
  3
Solid line
 72
    65
 73
     0
 40
0.0
  0
LTYPE
  5
21
330
5
100
AcDbSymbolTableRecord
100
AcDbLinetypeTableRecord
  2
HIDDEN
 70
     0
  3
Hidden __ __ __ __ __ __ __ __ __ __ __ __ __ _
 72
    65
 73
     2
 40
0.375
 49
0.25
 74
     0
 49
-0.125
 74
     0
  0
ENDTAB
  0
TABLE
  2
LAYER
  5
2
102
{ACAD_XDICTIONARY
360
2D04
102
}
330
0
100
AcDbSymbolTable
 70
    12
  0
LAYER
  5
F
330
2
100
AcDbSymbolTableRecord
100
AcDbLayerTableRecord
  2
0
 70
     0
 62
     7
  6
CONTINUOUS
370
    -3
390
2C4C
  0
LAYER
  5
2B
330
2
100
AcDbSymbolTableRecord
100
AcDbLayerTableRecord
  2
HIDDEN
 70
     0
 62
     7
  6
HIDDEN
370
    -3
390
2C4C
  0
LAYER
  5
30
330
2
100
AcDbSymbolTableRecord
100
AcDbLayerTableRecord
  2
DRAW2
 70
     0
 62
     4
  6
CONTINUOUS
370
    -3
390
2C4C
  0
LAYER
  5
B93
330
2
100
AcDbSymbolTableRecord
100
AcDbLayerTableRecord
  2
DRAW3
 70
     0
 62
     1
  6
CONTINUOUS
370
    -3
390
2C4C
  0
LAYER
  5
156C
330
2
100
AcDbSymbolTableRecord
100
AcDbLayerTableRecord
  2
DEFPOINTS
 70
     0
 62
     7
  6
CONTINUOUS
290
     0
370
    -3
390
2C4C
  0
ENDTAB
  0
TABLE
  2
STYLE
  5
3
330
0
100
AcDbSymbolTable
 70
     4
  0
STYLE
  5
10
330
3
100
AcDbSymbolTableRecord
100
AcDbTextStyleTableRecord
  2
STANDARD
 70
     0
 40
0.0
 41
1.0
 50
0.0
 71
     0
 42
0.2
  3
ROMANS.SHX
  4

  0
STYLE
  5
20
330
3
100
AcDbSymbolTableRecord
100
AcDbTextStyleTableRecord
  2
DIMFONT
 70
     0
 40
0.0
 41
1.0
 50
10.0
 71
     0
 42
3.2
  3
romans.shx
  4
extfont.shx
  0
ENDTAB
  0
TABLE
  2
VIEW
  5
6
330
0
100
AcDbSymbolTable
 70
     4
  0
VIEW
  5
24
330
6
100
AcDbSymbolTableRecord
100
AcDbViewTableRecord
  2
OLE1
 70
     0
 40
300.0
 10
232.1482602118003
 20
150.0
 41
464.2965204236006
 11
0.0
 21
0.0
 31
1.0
 12
0.0
 22
0.0
 32
0.0
 42
50.0
 43
0.0
 44
0.0
 50
0.0
 71
     0
281
     0
 72
     0
  0
VIEW
  5
E0E
330
6
100
AcDbSymbolTableRecord
100
AcDbViewTableRecord
  2
A1
 70
     1
 40
660.0
 10
511.7119266055046
 20
297.0
 41
1137.137614678899
 11
0.0
 21
0.0
 31
1.0
 12
0.0
 22
0.0
 32
0.0
 42
50.0
 43
0.0
 44
0.0
 50
0.0
 71
     0
281
     0
 72
     0
  0
VIEW
  5
E0F
330
6
100
AcDbSymbolTableRecord
100
AcDbViewTableRecord
  2
A2
 70
     1
 40
466.6666666666666
 10
361.8165137614679
 20
210.0
 41
804.0366972477063
 11
0.0
 21
0.0
 31
1.0
 12
0.0
 22
0.0
 32
0.0
 42
50.0
 43
0.0
 44
0.0
 50
0.0
 71
     0
281
     0
 72
     0
  0
VIEW
  5
E10
330
6
100
AcDbSymbolTableRecord
100
AcDbViewTableRecord
  2
A3
 70
     1
 40
330.0
 10
255.8559633027523
 20
148.5
 41
568.5688073394495
 11
0.0
 21
0.0
 31
1.0
 12
0.0
 22
0.0
 32
0.0
 42
50.0
 43
0.0
 44
0.0
 50
0.0
 71
     0
281
     0
 72
     0
  0
ENDTAB
  0
TABLE
  2
UCS
  5
7
330
0
100
AcDbSymbolTable
 70
     0
  0
ENDTAB
  0
TABLE
  2
APPID
  5
9
330
0
100
AcDbSymbolTable
 70
     1
  0
APPID
  5
11
330
9
100
AcDbSymbolTableRecord
100
AcDbRegAppTableRecord
  2
ACAD
 70
     0
  0
ENDTAB
  0
TABLE
  2
DIMSTYLE
  5
A
330
0
100
AcDbSymbolTable
 70
     2
100
AcDbDimStyleTable
 71
     1
340
8BCB
  0
DIMSTYLE
105
ED6
330
A
100
AcDbSymbolTableRecord
100
AcDbDimStyleTableRecord
  2
STANDARD
 70
     0
340
10
  0
DIMSTYLE
105
8BCB
102
{ACAD_REACTORS
330
2A00
330
29ED
330
1576
330
1571
330
29FC
330
29FD
330
29FB
330
2A97
330
29FE
330
29EC
330
29EA
330
29EB
330
29F4
330
29F3
102
}
330
A
100
AcDbSymbolTableRecord
100
AcDbDimStyleTableRecord
  2
1_2
 70
     0
 40
2.0
 41
3.0
 42
0.0
 43
10.0
 44
1.0
 73
     0
 74
     0
 77
     3
 78
     8
 79
     2
140
3.2
141
0.0
146
0.75
147
1.0
172
     1
173
     1
179
     2
284
     8
289
     1
340
20
341
14C6
343
14C6
344
14C6
  0
ENDTAB
  0
TABLE
  2
BLOCK_RECORD
  5
1
330
0
100
AcDbSymbolTable
 70
    15
  0
BLOCK_RECORD
  5
18
330
1
100
AcDbSymbolTableRecord
100
AcDbBlockTableRecord
  2
*MODEL_SPACE
340
2C4F
  0
BLOCK_RECORD
  5
15
330
1
100
AcDbSymbolTableRecord
100
AcDbBlockTableRecord
  2
*PAPER_SPACE
340
2C50
  0
BLOCK_RECORD
  5
14C6
330
1
100
AcDbSymbolTableRecord
100
AcDbBlockTableRecord
  2
_OPEN
340
0
102
{BLKREFS
331
8C64
331
8C65
331
8CF1
331
8CF2
331
8D03
331
8D04
331
8D0D
331
8D0E
331
8D16
331
8D17
331
8D28
331
8D29
331
8D3A
331
8D3B
331
8D43
331
8D44
331
8D65
331
8D66
331
8D80
331
8D81
331
8D89
331
8D8A
331
8DC5
331
8DC6
102
}
  0
ENDTAB
  0
ENDSEC
  0
SECTION
  2
BLOCKS
  0
BLOCK
  5
36
330
18
100
AcDbEntity
  8
0
100
AcDbBlockBegin
  2
*MODEL_SPACE
 70
     0
 10
0.0
 20
0.0
 30
0.0
  3
*MODEL_SPACE
  1

  0
ENDBLK
  5
37
330
18
100
AcDbEntity
  8
0
100
AcDbBlockEnd
  0
BLOCK
  5
34
330
15
100
AcDbEntity
 67
     1
  8
0
100
AcDbBlockBegin
  2
*PAPER_SPACE
 70
     0
 10
0.0
 20
0.0
 30
0.0
  3
*PAPER_SPACE
  1

  0
ENDBLK
  5
35
330
15
100
AcDbEntity
 67
     1
  8
0
100
AcDbBlockEnd
  0
BLOCK
  5
14CA
330
14C6
100
AcDbEntity
  8
0
100
AcDbBlockBegin
  2
_OPEN
 70
     0
 10
0.0
 20
0.0
 30
0.0
  3
_OPEN
  1

  0
LINE
  5
14C7
330
14C6
100
AcDbEntity
  8
0
  6
ByBlock
 62
     0
100
AcDbLine
 10
-1.0
 20
0.1666666666666666
 30
0.0
 11
0.0
 21
0.0
 31
0.0
  0
LINE
  5
14C8
330
14C6
100
AcDbEntity
  8
0
  6
ByBlock
 62
     0
100
AcDbLine
 10
0.0
 20
0.0
 30
0.0
 11
-1.0
 21
-0.1666666666666666
 31
0.0
  0
LINE
  5
14C9
330
14C6
100
AcDbEntity
  8
0
  6
ByBlock
 62
     0
100
AcDbLine
 10
0.0
 20
0.0
 30
0.0
 11
-1.0
 21
0.0
 31
0.0
  0
ENDBLK
  5
14CB
330
14C6
100
AcDbEntity
  8
0
100
AcDbBlockEnd
  0
ENDSEC
  0
SECTION
  2
ENTITIES
  0
LINE
  5
FE4
330
18
100
AcDbEntity
  8
DRAW2
100
AcDbLine
 10
-64.80000000000018
 20
-65.28204000000002
 30
0.0
 11
-67.29997000000025
 21
-65.28204000000002
 31
0.0
  0
LINE
  5
FE5
330
18
100
AcDbEntity
  8
DRAW3
100
AcDbLine
 10
-64.80000000000018
 20
-65.88202000000004
 30
0.0
 11
-67.29997000000025
 21
-65.88202000000004
 31
0.0
  0
LINE
  5
FE6
330
18
100
AcDbEntity
  8
DRAW2
100
AcDbLine
 10
-64.80000000000029
 20
-73.28203000000006
 30
0.0
 11
-67.29997000000025
 21
-73.28203000000005
 31
0.0
  0
LINE
  5
FE7
330
18
100
AcDbEntity
  8
DRAW3
100
AcDbLine
 10
-64.80000000000018
 20
-72.68204000000004
 30
0.0
 11
-67.29997000000025
 21
-72.68204000000003
 31
0.0
  0
CIRCLE
  5
1262
330
18
100
AcDbEntity
  8
DRAW2
100
AcDbCircle
 10
0.0
 20
-120.9999999999639
 30
0.0
 40
17.0
  0
CIRCLE
  5
127E
330
18
100
AcDbEntity
  8
DRAW2
100
AcDbCircle
 10
0.0
 20
-120.9999999999639
 30
0.0
 40
12.0
  0
CIRCLE
  5
127F
330
18
100
AcDbEntity
  8
DRAW3
100
AcDbCircle
 10
0.0
 20
-120.9999999999639
 30
0.0
 40
12.999999
  0
LINE
  5
13C6
330
18
100
AcDbEntity
  8
DRAW2
100
AcDbLine
 10
90.57183500000002
 20
-135.5358999999999
 30
0.0
 11
90.57183500000002
 21
-140.94819
 31
0.0
  0
LINE
  5
13C7
330
18
100
AcDbEntity
  8
DRAW2
100
AcDbLine
 10
104.4282450000001
 20
-135.5358999999999
 30
0.0
 11
104.4282450000001
 21
-140.94819
 31
0.0
  0
LINE
  5
13C8
330
18
100
AcDbEntity
  8
DRAW2
100
AcDbLine
 10
100.964145
 20
-135.5358999999999
 30
0.0
 11
100.964145
 21
-140.94819
 31
0.0
  0
LINE
  5
13C9
330
18
100
AcDbEntity
  8
DRAW2
100
AcDbLine
 10
94.03593500000004
 20
-135.5358999999999
 30
0.0
 11
94.03593500000004
 21
-140.94819
 31
0.0
  0
LINE
  5
13CA
330
18
100
AcDbEntity
  8
DRAW2
100
AcDbLine
 10
89.25003500000007
 20
-143.0
 30
0.0
 11
105.750035
 21
-143.0
 31
0.0
  0
LINE
  5
13CB
330
18
100
AcDbEntity
  8
DRAW2
100
AcDbLine
 10
91.50003500000009
 20
-135.0
 30
0.0
 11
103.500035
 21
-135.0
 31
0.0
  0
LINE
  5
13CC
330
18
100
AcDbEntity
  8
DRAW2
100
AcDbLine
 10
88.75003500000008
 20
-142.0
 30
0.0
 11
106.250035
 21
-142.0
 31
0.0
  0
LINE
  5
13CD
330
18
100
AcDbEntity
  8
DRAW2
100
AcDbLine
 10
90.57183500000002
 20
-135.5358999999999
 30
0.0
 11
91.50003500000009
 21
-135.0
 31
0.0
  0
LINE
  5
13CE
330
18
100
AcDbEntity
  8
DRAW2
100
AcDbLine
 10
103.500035
 20
-135.0
 30
0.0
 11
104.4282450000001
 21
-135.5358999999999
 31
0.0
  0
LINE
  5
13CF
330
18
100
AcDbEntity
  8
DRAW2
100
AcDbLine
 10
106.250035
 20
-142.0
 30
0.0
 11
106.250035
 21
-142.5
 31
0.0
  0
LINE
  5
13D0
330
18
100
AcDbEntity
  8
DRAW2
100
AcDbLine
 10
88.75003500000008
 20
-142.0
 30
0.0
 11
88.75003500000008
 21
-142.5
 31
0.0
  0
LINE
  5
13D1
330
18
100
AcDbEntity
  8
DRAW2
100
AcDbLine
 10
88.75004500000017
 20
-142.0
 30
0.0
 11
90.57183500000002
 21
-140.94819
 31
0.0
  0
LINE
  5
13D2
330
18
100
AcDbEntity
  8
DRAW2
100
AcDbLine
 10
104.4282450000001
 20
-140.94819
 30
0.0
 11
106.250035
 21
-142.0
 31
0.0
  0
ARC
  5
13D3
330
18
100
AcDbEntity
  8
DRAW2
100
AcDbCircle
 10
92.30388500000008
 20
-143.47927
 30
0.0
 40
3.066979399999999
100
AcDbArc
 50
55.615638
 51
124.38438
  0
ARC
  5
13D4
330
18
100
AcDbEntity
  8
DRAW2
100
AcDbCircle
 10
102.6961950000001
 20
-143.47927
 30
0.0
 40
3.066979399999999
100
AcDbArc
 50
55.615638
 51
124.38438
  0
ARC
  5
13D5
330
18
100
AcDbEntity
  8
DRAW2
100
AcDbCircle
 10
97.50003500000008
 20
-151.87635
 30
0.0
 40
11.464065
100
AcDbArc
 50
72.411992
 51
107.58803
  0
ARC
  5
13D6
330
18
100
AcDbEntity
  8
DRAW2
100
AcDbCircle
 10
92.30388500000008
 20
-138.0669799999999
 30
0.0
 40
3.066979399999999
100
AcDbArc
 50
55.615638
 51
124.38438
  0
ARC
  5
13D7
330
18
100
AcDbEntity
  8
DRAW2
100
AcDbCircle
 10
97.50003500000008
 20
-146.4640699999999
 30
0.0
 40
11.464065
100
AcDbArc
 50
72.411992
 51
107.58803
  0
ARC
  5
13D8
330
18
100
AcDbEntity
  8
DRAW2
100
AcDbCircle
 10
102.6961950000001
 20
-138.0669799999999
 30
0.0
 40
3.066979399999999
100
AcDbArc
 50
55.615638
 51
124.38438
  0
ARC
  5
13D9
330
18
100
AcDbEntity
  8
DRAW2
100
AcDbCircle
 10
89.25003500000007
 20
-142.5
 30
0.0
 40
0.5
100
AcDbArc
 50
179.9999799999999
 51
270.0000299999999
  0
ARC
  5
13DA
330
18
100
AcDbEntity
  8
DRAW2
100
AcDbCircle
 10
105.750035
 20
-142.5
 30
0.0
 40
0.5
100
AcDbArc
 50
270.00002
 51
0.0
  0
LINE
  5
13DC
330
18
100
AcDbEntity
  8
DRAW2
100
AcDbLine
 10
-104.4282600000001
 20
-135.5358999999999
 30
0.0
 11
-104.4282600000001
 21
-140.94819
 31
0.0
  0
LINE
  5
13DD
330
18
100
AcDbEntity
  8
DRAW2
100
AcDbLine
 10
-90.57185000000004
 20
-135.5358999999999
 30
0.0
 11
-90.57185000000004
 21
-140.94819
 31
0.0
  0
LINE
  5
13DE
330
18
100
AcDbEntity
  8
DRAW2
100
AcDbLine
 10
-94.03595999999993
 20
-135.5358999999999
 30
0.0
 11
-94.03595999999993
 21
-140.94819
 31
0.0
  0
LINE
  5
13DF
330
18
100
AcDbEntity
  8
DRAW2
100
AcDbLine
 10
-100.9641599999999
 20
-135.5358999999999
 30
0.0
 11
-100.9641599999999
 21
-140.94819
 31
0.0
  0
LINE
  5
13E0
330
18
100
AcDbEntity
  8
DRAW2
100
AcDbLine
 10
-105.75006
 20
-143.0
 30
0.0
 11
-89.25006000000008
 21
-143.0
 31
0.0
  0
LINE
  5
13E1
330
18
100
AcDbEntity
  8
DRAW2
100
AcDbLine
 10
-103.50006
 20
-135.0
 30
0.0
 11
-91.50006000000008
 21
-135.0
 31
0.0
  0
LINE
  5
13E2
330
18
100
AcDbEntity
  8
DRAW2
100
AcDbLine
 10
-106.25006
 20
-142.0
 30
0.0
 11
-88.75006000000007
 21
-142.0
 31
0.0
  0
LINE
  5
13E3
330
18
100
AcDbEntity
  8
DRAW2
100
AcDbLine
 10
-104.4282600000001
 20
-135.5358999999999
 30
0.0
 11
-103.50006
 21
-135.0
 31
0.0
  0
LINE
  5
13E4
330
18
100
AcDbEntity
  8
DRAW2
100
AcDbLine
 10
-91.50006000000008
 20
-135.0
 30
0.0
 11
-90.57185000000004
 21
-135.5358999999999
 31
0.0
  0
LINE
  5
13E5
330
18
100
AcDbEntity
  8
DRAW2
100
AcDbLine
 10
-88.75006000000007
 20
-142.0
 30
0.0
 11
-88.75006000000007
 21
-142.5
 31
0.0
  0
LINE
  5
13E6
330
18
100
AcDbEntity
  8
DRAW2
100
AcDbLine
 10
-106.25006
 20
-142.0
 30
0.0
 11
-106.25006
 21
-142.5
 31
0.0
  0
LINE
  5
13E7
330
18
100
AcDbEntity
  8
DRAW2
100
AcDbLine
 10
-106.25006
 20
-142.0
 30
0.0
 11
-104.4282600000001
 21
-140.94819
 31
0.0
  0
LINE
  5
13E8
330
18
100
AcDbEntity
  8
DRAW2
100
AcDbLine
 10
-90.57185000000004
 20
-140.94819
 30
0.0
 11
-88.75006000000007
 21
-142.0
 31
0.0
  0
ARC
  5
13E9
330
18
100
AcDbEntity
  8
DRAW2
100
AcDbCircle
 10
-102.69621
 20
-143.47927
 30
0.0
 40
3.066979399999999
100
AcDbArc
 50
55.615638
 51
124.38438
  0
ARC
  5
13EA
330
18
100
AcDbEntity
  8
DRAW2
100
AcDbCircle
 10
-92.30390000000012
 20
-143.47927
 30
0.0
 40
3.066979399999999
100
AcDbArc
 50
55.615638
 51
124.38438
  0
ARC
  5
13EB
330
18
100
AcDbEntity
  8
DRAW2
100
AcDbCircle
 10
-97.50006000000007
 20
-151.87635
 30
0.0
 40
11.464065
100
AcDbArc
 50
72.411992
 51
107.58803
  0
ARC
  5
13EC
330
18
100
AcDbEntity
  8
DRAW2
100
AcDbCircle
 10
-102.69621
 20
-138.0669799999999
 30
0.0
 40
3.066979399999999
100
AcDbArc
 50
55.615638
 51
124.38438
  0
ARC
  5
13ED
330
18
100
AcDbEntity
  8
DRAW2
100
AcDbCircle
 10
-97.50006000000007
 20
-146.4640699999999
 30
0.0
 40
11.464065
100
AcDbArc
 50
72.411992
 51
107.58803
  0
ARC
  5
13EE
330
18
100
AcDbEntity
  8
DRAW2
100
AcDbCircle
 10
-92.30390000000012
 20
-138.0669799999999
 30
0.0
 40
3.066979399999999
100
AcDbArc
 50
55.615638
 51
124.38438
  0
ARC
  5
13EF
330
18
100
AcDbEntity
  8
DRAW2
100
AcDbCircle
 10
-105.75006
 20
-142.5
 30
0.0
 40
0.5
100
AcDbArc
 50
179.9999799999999
 51
270.0000299999999
  0
ARC
  5
13F0
330
18
100
AcDbEntity
  8
DRAW2
100
AcDbCircle
 10
-89.25006000000008
 20
-142.5
 30
0.0
 40
0.5
100
AcDbArc
 50
270.00002
 51
0.0
  0
TEXT
  5
1572
330
18
100
AcDbEntity
  8
0
100
AcDbText
 10
-745.2174493569433
 20
-950.8290765289217
 30
0.0
 40
4.8
  1

 51
10.0
  7
DIMFONT
100
AcDbText
  0
TEXT
  5
1585
330
18
100
AcDbEntity
  8
0
100
AcDbText
 10
-328.4067155613463
 20
-500.5864211759297
 30
0.0
 40
9.600000000000001
  1

 51
10.0
  7
DIMFONT
100
AcDbText
  0
CIRCLE
  5
1A6D
330
18
100
AcDbEntity
  8
DRAW2
100
AcDbCircle
 10
-25.0
 20
-45.0
 30
0.0
 40
6.500003299999999
  0
LINE
  5
1A6E
330
18
100
AcDbEntity
  8
DRAW2
100
AcDbLine
 10
-31.5
 20
-41.2472227
 30
0.0
 11
-24.99999936987353
 21
-37.4944458
 31
0.0
  0
LINE
  5
1A6F
330
18
100
AcDbEntity
  8
DRAW2
100
AcDbLine
 10
-31.50000290000003
 20
-48.7527816
 30
0.0
 11
-25.00000242263741
 21
-52.5055585
 31
0.0
  0
CIRCLE
  5
1A74
330
18
100
AcDbEntity
  8
DRAW2
100
AcDbCircle
 10
-25.0
 20
0.0
 30
0.0
 40
6.500003299999999
  0
LINE
  5
1A75
330
18
100
AcDbEntity
  8
DRAW2
100
AcDbLine
 10
-31.5
 20
3.752777299999998
 30
0.0
 11
-24.99999936987353
 21
7.505554199999998
 31
0.0
  0
LINE
  5
1A76
330
18
100
AcDbEntity
  8
DRAW2
100
AcDbLine
 10
-31.50000290000003
 20
-3.752781599999998
 30
0.0
 11
-25.00000242263741
 21
-7.505558499999999
 31
0.0
  0
LINE
  5
1A7E
330
18
100
AcDbEntity
  8
DRAW2
100
AcDbLine
 10
-31.50000290000003
 20
41.24721839999999
 30
0.0
 11
-25.00000242263741
 21
37.4944415
 31
0.0
  0
LINE
  5
1A7F
330
18
100
AcDbEntity
  8
DRAW2
100
AcDbLine
 10
-31.5
 20
48.7527773
 30
0.0
 11
-24.99999936987353
 21
52.50555419999999
 31
0.0
  0
CIRCLE
  5
1A80
330
18
100
AcDbEntity
  8
DRAW2
100
AcDbCircle
 10
-25.0
 20
45.0
 30
0.0
 40
6.500003299999999
  0
LINE
  5
1A81
330
18
100
AcDbEntity
  8
DRAW2
100
AcDbLine
 10
-36.00000000000005
 20
-55.00000000000001
 30
0.0
 11
36.0
 21
-55.00000000000001
 31
0.0
  0
LINE
  5
1A82
330
18
100
AcDbEntity
  8
DRAW2
100
AcDbLine
 10
-36.00000000000005
 20
55.00000000000002
 30
0.0
 11
36.00000000000051
 21
55.00000000000001
 31
0.0
  0
LINE
  5
1A84
330
18
100
AcDbEntity
  8
DRAW2
100
AcDbLine
 10
-31.49998760000005
 20
41.2472312
 30
0.0
 11
-31.49998760000005
 21
48.7527854
 31
0.0
  0
LINE
  5
1A85
330
18
100
AcDbEntity
  8
DRAW2
100
AcDbLine
 10
-35.00000000000011
 20
-55.0
 30
0.0
 11
-35.0
 21
55.00000000000001
 31
0.0
  0
LINE
  5
1A87
330
18
100
AcDbEntity
  8
DRAW2
100
AcDbLine
 10
-31.49998760000005
 20
-48.7527688
 30
0.0
 11
-31.49998760000005
 21
-41.24721459999999
 31
0.0
  0
LINE
  5
1A89
330
18
100
AcDbEntity
  8
DRAW2
100
AcDbLine
 10
-31.49998760000005
 20
-3.752768799999998
 30
0.0
 11
-31.49998760000005
 21
3.7527854
 31
0.0
  0
LINE
  5
1A8D
330
18
100
AcDbEntity
  8
DRAW2
100
AcDbLine
 10
18.49998570000002
 20
41.2472374
 30
0.0
 11
18.49998570000002
 21
48.75279160000001
 31
0.0
  0
LINE
  5
1A8F
330
18
100
AcDbEntity
  8
DRAW2
100
AcDbLine
 10
31.49998760000005
 20
41.2472312
 30
0.0
 11
31.49998760000005
 21
48.7527854
 31
0.0
  0
CIRCLE
  5
1A91
330
18
100
AcDbEntity
  8
DRAW2
100
AcDbCircle
 10
25.0
 20
45.0
 30
0.0
 40
6.500003299999999
  0
LINE
  5
1A95
330
18
100
AcDbEntity
  8
DRAW2
100
AcDbLine
 10
-18.49998570000002
 20
41.2472374
 30
0.0
 11
-18.49998570000002
 21
48.75279160000001
 31
0.0
  0
LINE
  5
1A96
330
18
100
AcDbEntity
  8
DRAW2
100
AcDbLine
 10
35.0
 20
-55.0
 30
0.0
 11
35.0
 21
55.00000000000001
 31
0.0
  0
CIRCLE
  5
1A97
330
18
100
AcDbEntity
  8
DRAW2
100
AcDbCircle
 10
0.0
 20
-18.00000000000002
 30
0.0
 40
7.447387096774178
  0
CIRCLE
  5
1A98
330
18
100
AcDbEntity
  8
DRAW3
100
AcDbCircle
 10
0.0
 20
-18.00000000000002
 30
0.0
 40
8.330999999999988
  0
LINE
  5
1A9D
330
18
100
AcDbEntity
  8
DRAW2
100
AcDbLine
 10
31.50000290000003
 20
-48.7527816
 30
0.0
 11
25.00000242263741
 21
-52.5055585
 31
0.0
  0
LINE
  5
1A9E
330
18
100
AcDbEntity
  8
DRAW2
100
AcDbLine
 10
31.5
 20
-41.2472227
 30
0.0
 11
24.99999936987353
 21
-37.4944458
 31
0.0
  0
CIRCLE
  5
1A9F
330
18
100
AcDbEntity
  8
DRAW2
100
AcDbCircle
 10
25.0
 20
-45.0
 30
0.0
 40
6.500003299999999
  0
LINE
  5
1AA3
330
18
100
AcDbEntity
  8
DRAW2
100
AcDbLine
 10
-25.00000210731559
 20
-37.49444909999999
 30
0.0
 11
-18.50000139999997
 21
-41.2472262
 31
0.0
  0
LINE
  5
1AA4
330
18
100
AcDbEntity
  8
DRAW2
100
AcDbLine
 10
-25.00000063012646
 20
-52.5055542
 30
0.0
 11
-18.5
 21
-48.7527773
 31
0.0
  0
LINE
  5
1AA6
330
18
100
AcDbEntity
  8
DRAW2
100
AcDbLine
 10
-18.49998570000002
 20
-48.7527626
 30
0.0
 11
-18.49998570000002
 21
-41.2472084
 31
0.0
  0
LINE
  5
1AAA
330
18
100
AcDbEntity
  8
DRAW2
100
AcDbLine
 10
18.49998570000002
 20
-48.7527626
 30
0.0
 11
18.49998570000002
 21
-41.2472084
 31
0.0
  0
LINE
  5
1AAC
330
18
100
AcDbEntity
  8
DRAW2
100
AcDbLine
 10
25.00000063012646
 20
-52.5055542
 30
0.0
 11
18.5
 21
-48.7527773
 31
0.0
  0
LINE
  5
1AAD
330
18
100
AcDbEntity
  8
DRAW2
100
AcDbLine
 10
25.00000210731559
 20
-37.49444909999999
 30
0.0
 11
18.50000139999997
 21
-41.2472262
 31
0.0
  0
LINE
  5
1AB0
330
18
100
AcDbEntity
  8
DRAW2
100
AcDbLine
 10
31.49998760000005
 20
-48.7527688
 30
0.0
 11
31.49998760000005
 21
-41.24721459999999
 31
0.0
  0
LINE
  5
1AB4
330
18
100
AcDbEntity
  8
DRAW2
100
AcDbLine
 10
31.50000290000003
 20
-3.752781599999998
 30
0.0
 11
25.00000242263741
 21
-7.505558499999999
 31
0.0
  0
LINE
  5
1AB5
330
18
100
AcDbEntity
  8
DRAW2
100
AcDbLine
 10
31.5
 20
3.752777299999998
 30
0.0
 11
24.99999936987353
 21
7.505554199999998
 31
0.0
  0
CIRCLE
  5
1AB6
330
18
100
AcDbEntity
  8
DRAW2
100
AcDbCircle
 10
25.0
 20
0.0
 30
0.0
 40
6.500003299999999
  0
LINE
  5
1AB7
330
18
100
AcDbEntity
  8
DRAW2
100
AcDbLine
 10
31.50000290000003
 20
41.24721839999999
 30
0.0
 11
25.00000242263741
 21
37.4944415
 31
0.0
  0
CIRCLE
  5
1AB9
330
18
100
AcDbEntity
  8
DRAW3
100
AcDbCircle
 10
0.0
 20
18.00000000000002
 30
0.0
 40
8.330999999999988
  0
CIRCLE
  5
1ABA
330
18
100
AcDbEntity
  8
DRAW2
100
AcDbCircle
 10
0.0
 20
18.00000000000002
 30
0.0
 40
7.447387096774178
  0
LINE
  5
1ABD
330
18
100
AcDbEntity
  8
DRAW2
100
AcDbLine
 10
-25.00000063012646
 20
-7.505554199999998
 30
0.0
 11
-18.5
 21
-3.752777299999998
 31
0.0
  0
LINE
  5
1ABF
330
18
100
AcDbEntity
  8
DRAW2
100
AcDbLine
 10
-25.00000210731559
 20
7.505550900000002
 30
0.0
 11
-18.50000139999997
 21
3.752773799999999
 31
0.0
  0
LINE
  5
1AC1
330
18
100
AcDbEntity
  8
DRAW2
100
AcDbLine
 10
-18.49998570000002
 20
-3.752762600000004
 30
0.0
 11
-18.49998570000002
 21
3.752791600000001
 31
0.0
  0
LINE
  5
1AC4
330
18
100
AcDbEntity
  8
DRAW2
100
AcDbLine
 10
25.00000063012646
 20
-7.505554199999998
 30
0.0
 11
18.5
 21
-3.752777299999998
 31
0.0
  0
LINE
  5
1AC8
330
18
100
AcDbEntity
  8
DRAW2
100
AcDbLine
 10
18.49998570000002
 20
-3.752762600000004
 30
0.0
 11
18.49998570000002
 21
3.752791600000001
 31
0.0
  0
LINE
  5
1ACA
330
18
100
AcDbEntity
  8
DRAW2
100
AcDbLine
 10
25.00000210731559
 20
7.505550900000002
 30
0.0
 11
18.50000139999997
 21
3.752773799999999
 31
0.0
  0
LINE
  5
1ACD
330
18
100
AcDbEntity
  8
DRAW2
100
AcDbLine
 10
-25.00000063012646
 20
37.4944458
 30
0.0
 11
-18.5
 21
41.24722269999999
 31
0.0
  0
LINE
  5
1ACE
330
18
100
AcDbEntity
  8
DRAW2
100
AcDbLine
 10
25.00000063012646
 20
37.4944458
 30
0.0
 11
18.5
 21
41.24722269999999
 31
0.0
  0
LINE
  5
1AD1
330
18
100
AcDbEntity
  8
DRAW2
100
AcDbLine
 10
31.49998760000005
 20
-3.752768799999998
 30
0.0
 11
31.49998760000005
 21
3.7527854
 31
0.0
  0
LINE
  5
1AD2
330
18
100
AcDbEntity
  8
DRAW2
100
AcDbLine
 10
31.5
 20
48.7527773
 30
0.0
 11
24.99999936987353
 21
52.50555419999999
 31
0.0
  0
LINE
  5
1AD6
330
18
100
AcDbEntity
  8
DRAW2
100
AcDbLine
 10
-25.00000210731559
 20
52.5055509
 30
0.0
 11
-18.50000139999997
 21
48.75277379999999
 31
0.0
  0
LINE
  5
1AD7
330
18
100
AcDbEntity
  8
DRAW2
100
AcDbLine
 10
25.00000210731559
 20
52.5055509
 30
0.0
 11
18.50000139999997
 21
48.75277379999999
 31
0.0
  0
ARC
  5
27F6
330
18
100
AcDbEntity
  8
DRAW2
100
AcDbCircle
 10
449.9999999999999
 20
0.0000000000001137
 30
0.0
 40
90.0
100
AcDbArc
 50
5.89914986839335
 51
354.1008501316067
  0
ARC
  5
2801
330
18
100
AcDbEntity
  8
DRAW2
100
AcDbCircle
 10
449.9999999999999
 20
0.0000000000001137
 30
0.0
 40
62.59197043658584
100
AcDbArc
 50
151.4867758920225
 51
208.5132241079774
  0
ARC
  5
2802
330
18
100
AcDbEntity
  8
DRAW2
100
AcDbCircle
 10
449.9999999999999
 20
0.0000000000001137
 30
0.0
 40
58.2054748052001
100
AcDbArc
 50
187.408879586528
 51
199.103609933764
  0
ARC
  5
2825
330
18
100
AcDbEntity
  8
DRAW2
100
AcDbCircle
 10
391.2226563000001
 20
-50.62916559999973
 30
0.0
 40
3.3226678
100
AcDbArc
 50
145.616854
 51
205.61448
  0
LINE
  5
2826
330
18
100
AcDbEntity
  8
DRAW2
100
AcDbLine
 10
387.8999938999999
 20
-51.50003049999975
 30
0.0
 11
387.8999938999999
 21
-38.49999999999988
 31
0.0
  0
LINE
  5
282A
330
18
100
AcDbEntity
  8
DRAW2
100
AcDbLine
 10
388.4805297999998
 20
-52.50555419999989
 30
0.0
 11
393.3999938999999
 21
-52.50555419999989
 31
0.0
  0
LINE
  5
282B
330
18
100
AcDbEntity
  8
DRAW2
100
AcDbLine
 10
388.4805502999999
 20
-52.50555899999984
 30
0.0
 11
387.9000106
 21
-51.50003479999975
 31
0.0
  0
LINE
  5
282E
330
18
100
AcDbEntity
  8
DRAW2
100
AcDbLine
 10
388.4805297999998
 20
-41.24722289999988
 30
0.0
 11
393.3999938999999
 21
-41.24722289999988
 31
0.0
  0
LINE
  5
282F
330
18
100
AcDbEntity
  8
DRAW2
100
AcDbLine
 10
388.480545
 20
-37.49444579999988
 30
0.0
 11
393.3999938999999
 21
-37.49444579999988
 31
0.0
  0
LINE
  5
2830
330
18
100
AcDbEntity
  8
DRAW2
100
AcDbLine
 10
388.4805297999998
 20
-48.75277709999989
 30
0.0
 11
393.3999938999999
 21
-48.75277709999989
 31
0.0
  0
LINE
  5
2831
330
18
100
AcDbEntity
  8
DRAW2
100
AcDbLine
 10
387.8999919999998
 20
-38.50001619999977
 30
0.0
 11
388.4805584
 21
-37.49444579999988
 31
0.0
  0
ARC
  5
2832
330
18
100
AcDbEntity
  8
DRAW2
100
AcDbCircle
 10
391.2225952
 20
-39.3708343999998
 30
0.0
 40
3.322595799999999
100
AcDbArc
 50
154.383207
 51
214.38391
  0
ARC
  5
2833
330
18
100
AcDbEntity
  8
DRAW2
100
AcDbCircle
 10
400.3198546999999
 20
-44.99999999999988
 30
0.0
 40
12.419868
100
AcDbArc
 50
162.4126549999999
 51
197.5873599999999
  0
LINE
  5
283A
330
18
100
AcDbEntity
  8
DRAW2
100
AcDbLine
 10
387.8999938999999
 20
38.49996950000024
 30
0.0
 11
387.8999938999999
 21
51.50000000000011
 31
0.0
  0
ARC
  5
283C
330
18
100
AcDbEntity
  8
DRAW2
100
AcDbCircle
 10
400.3198546999999
 20
45.00000000000011
 30
0.0
 40
12.419868
100
AcDbArc
 50
162.4126549999999
 51
197.5873599999999
  0
ARC
  5
283D
330
18
100
AcDbEntity
  8
DRAW2
100
AcDbCircle
 10
449.9999999999999
 20
0.0000000000001137
 30
0.0
 40
58.2054748052001
100
AcDbArc
 50
160.8963900662359
 51
172.5911204134719
  0
CIRCLE
  5
283E
330
18
100
AcDbEntity
  8
DRAW3
100
AcDbCircle
 10
369.9999999999999
 20
0.0000000000001137
 30
0.0
 40
3.375
  0
CIRCLE
  5
283F
330
18
100
AcDbEntity
  8
DRAW2
100
AcDbCircle
 10
369.9999999999999
 20
0.0000000000001137
 30
0.0
 40
4.0
  0
LINE
  5
2854
330
18
100
AcDbEntity
  8
DRAW2
100
AcDbLine
 10
388.4805297999998
 20
37.49444580000011
 30
0.0
 11
393.3999938999999
 21
37.49444580000011
 31
0.0
  0
LINE
  5
2855
330
18
100
AcDbEntity
  8
DRAW2
100
AcDbLine
 10
388.4805297999998
 20
41.2472229000001
 30
0.0
 11
393.3999938999999
 21
41.2472229000001
 31
0.0
  0
ARC
  5
2856
330
18
100
AcDbEntity
  8
DRAW2
100
AcDbCircle
 10
391.2226563000001
 20
39.37083440000026
 30
0.0
 40
3.3226678
100
AcDbArc
 50
145.616854
 51
205.61448
  0
LINE
  5
2857
330
18
100
AcDbEntity
  8
DRAW2
100
AcDbLine
 10
388.4805502999999
 20
37.49444100000016
 30
0.0
 11
387.9000106
 21
38.49996520000024
 31
0.0
  0
LINE
  5
285C
330
18
100
AcDbEntity
  8
DRAW2
100
AcDbLine
 10
388.4805297999998
 20
48.75277710000012
 30
0.0
 11
393.3999938999999
 21
48.75277710000012
 31
0.0
  0
LINE
  5
285D
330
18
100
AcDbEntity
  8
DRAW2
100
AcDbLine
 10
388.480545
 20
52.50555420000011
 30
0.0
 11
393.3999938999999
 21
52.50555420000011
 31
0.0
  0
ARC
  5
285E
330
18
100
AcDbEntity
  8
DRAW2
100
AcDbCircle
 10
391.2225952
 20
50.62916560000019
 30
0.0
 40
3.322595799999999
100
AcDbArc
 50
154.383207
 51
214.38391
  0
LINE
  5
285F
330
18
100
AcDbEntity
  8
DRAW2
100
AcDbLine
 10
387.8999919999998
 20
51.49998380000022
 30
0.0
 11
388.4805584
 21
52.50555420000011
 31
0.0
  0
LINE
  5
2865
330
18
100
AcDbEntity
  8
HIDDEN
100
AcDbLine
 10
448.9999999999999
 20
-26.26794919243105
 30
0.0
 11
468.2756250297888
 21
-14.74009112385601
 31
0.0
  0
LINE
  5
2866
330
18
100
AcDbEntity
  8
DRAW2
100
AcDbLine
 10
471.1805097766477
 20
-17.64497587071502
 30
0.0
 11
497.3012701892218
 21
-1.999999999999886
 31
0.0
  0
ARC
  5
2868
330
18
100
AcDbEntity
  8
DRAW2
100
AcDbCircle
 10
506.9999999999999
 20
-14.99999999999988
 30
0.0
 40
3.0
100
AcDbArc
 50
270.0
 51
0.0
  0
ARC
  5
2869
330
18
100
AcDbEntity
  8
DRAW2
100
AcDbCircle
 10
504.064775963653
 20
-20.99999999999988
 30
0.0
 40
3.0
100
AcDbArc
 50
90.0
 51
158.7726872381001
  0
ARC
  5
286A
330
18
100
AcDbEntity
  8
DRAW2
100
AcDbCircle
 10
429.9999999999999
 20
-17.99999999999988
 30
0.0
 40
5.0
100
AcDbArc
 50
270.0
 51
90.0
  0
LINE
  5
286B
330
18
100
AcDbEntity
  8
DRAW2
100
AcDbLine
 10
466.0986776009328
 20
-12.56314369500012
 30
0.0
 11
475.2584064818822
 21
-21.72287257594928
 31
0.0
  0
ARC
  5
286C
330
18
100
AcDbEntity
  8
DRAW2
100
AcDbCircle
 10
449.9999999999999
 20
0.0000000000001137
 30
0.0
 40
50.0
100
AcDbArc
 50
331.0557773830386
 51
345.1013841971394
  0
ARC
  5
286D
330
18
100
AcDbEntity
  8
DRAW2
100
AcDbCircle
 10
419.9999999999999
 20
-17.99999999999988
 30
0.0
 40
4.999999999999995
100
AcDbArc
 50
90.0
 51
270.0
  0
ARC
  5
286E
330
18
100
AcDbEntity
  8
DRAW2
100
AcDbCircle
 10
449.9999999999999
 20
0.0000000000001137
 30
0.0
 40
62.59197043658584
100
AcDbArc
 50
241.4867758920224
 51
347.7720082566722
  0
LINE
  5
286F
330
18
100
AcDbEntity
  8
DRAW2
100
AcDbLine
 10
409.9999999999999
 20
55.00000000000011
 30
0.0
 11
409.9999999999999
 21
-54.99999999999989
 31
0.0
  0
LINE
  5
2870
330
18
100
AcDbEntity
  8
DRAW2
100
AcDbLine
 10
408.9999999999999
 20
55.00000000000011
 30
0.0
 11
408.9999999999999
 21
-54.99999999999989
 31
0.0
  0
LINE
  5
288B
330
18
100
AcDbEntity
  8
HIDDEN
100
AcDbLine
 10
450.9999999999999
 20
-29.73205080756872
 30
0.0
 11
471.1805097766477
 21
-17.64497587071502
 31
0.0
  0
ARC
  5
288D
330
18
100
AcDbEntity
  8
DRAW2
100
AcDbCircle
 10
449.9999999999999
 20
0.0000000000001137
 30
0.0
 40
55.0
100
AcDbArc
 50
270.0
 51
338.7726872381
  0
ARC
  5
288E
330
18
100
AcDbEntity
  8
DRAW2
100
AcDbCircle
 10
449.9999999999999
 20
0.0000000000001137
 30
0.0
 40
58.2054748052001
100
AcDbArc
 50
250.896390066236
 51
341.9860067654161
  0
LINE
  5
2890
330
18
100
AcDbEntity
  8
DRAW2
100
AcDbLine
 10
447.9743375893453
 20
-32.4990314066498
 30
0.0
 11
409.9999999999999
 21
-50.20675583792479
 31
0.0
  0
LINE
  5
2891
330
18
100
AcDbEntity
  8
DRAW2
100
AcDbLine
 10
449.9999999999999
 20
-54.99999999999989
 30
0.0
 11
409.9999999999999
 21
-54.99999999999989
 31
0.0
  0
CIRCLE
  5
2892
330
18
100
AcDbEntity
  8
DRAW2
100
AcDbCircle
 10
409.9999999999999
 20
-69.28203230275494
 30
0.0
 40
4.0
  0
CIRCLE
  5
2894
330
18
100
AcDbEntity
  8
DRAW3
100
AcDbCircle
 10
409.9999999999999
 20
-69.28203230275494
 30
0.0
 40
3.375
  0
LINE
  5
2895
330
18
100
AcDbEntity
  8
DRAW2
100
AcDbLine
 10
409.9999999999999
 20
-54.99999999999989
 30
0.0
 11
408.9999999999999
 21
-54.99999999999989
 31
0.0
  0
LINE
  5
2896
330
18
100
AcDbEntity
  8
DRAW2
100
AcDbLine
 10
408.9999999999999
 20
-50.49999999999989
 30
0.0
 11
409.9999999999999
 21
-50.49999999999989
 31
0.0
  0
LINE
  5
2898
330
18
100
AcDbEntity
  8
DRAW2
100
AcDbLine
 10
445.255239828109
 20
-29.35345584013657
 30
0.0
 11
409.9999999999999
 21
-45.79324416207498
 31
0.0
  0
ARC
  5
2899
330
18
100
AcDbEntity
  8
DRAW2
100
AcDbCircle
 10
421.4999999999999
 20
-33.5160873946188
 30
0.0
 40
1.5
100
AcDbArc
 50
294.9999999999999
 51
0.0000000000005428
  0
LINE
  5
289A
330
18
100
AcDbEntity
  8
DRAW2
100
AcDbLine
 10
409.9999999999999
 20
-40.53369234184493
 30
0.0
 11
422.1339273926109
 21
-34.87554907517369
 31
0.0
  0
LINE
  5
289B
330
18
100
AcDbEntity
  8
DRAW2
100
AcDbLine
 10
408.9999999999999
 20
-40.99999999999988
 30
0.0
 11
409.9999999999999
 21
-40.99999999999988
 31
0.0
  0
LINE
  5
289C
330
18
100
AcDbEntity
  8
DRAW2
100
AcDbLine
 10
408.9999999999999
 20
-45.49999999999989
 30
0.0
 11
409.9999999999999
 21
-45.49999999999989
 31
0.0
  0
LINE
  5
289D
330
18
100
AcDbEntity
  8
DRAW2
100
AcDbLine
 10
429.9999999999999
 20
-22.99999999999988
 30
0.0
 11
409.9999999999999
 21
-22.99999999999988
 31
0.0
  0
LINE
  5
289E
330
18
100
AcDbEntity
  8
DRAW2
100
AcDbLine
 10
409.9999999999999
 20
-30.99999999999988
 30
0.0
 11
421.4999999999999
 21
-30.99999999999988
 31
0.0
  0
LINE
  5
289F
330
18
100
AcDbEntity
  8
DRAW2
100
AcDbLine
 10
408.9999999999999
 20
-22.99999999999988
 30
0.0
 11
409.9999999999999
 21
-22.99999999999988
 31
0.0
  0
LINE
  5
28A0
330
18
100
AcDbEntity
  8
DRAW2
100
AcDbLine
 10
408.9999999999999
 20
-30.99999999999988
 30
0.0
 11
409.9999999999999
 21
-30.99999999999988
 31
0.0
  0
ARC
  5
28A1
330
18
100
AcDbEntity
  8
DRAW2
100
AcDbCircle
 10
421.4999999999999
 20
-32.49999999999988
 30
0.0
 40
1.5
100
AcDbArc
 50
359.9999999999992
 51
90.0
  0
LINE
  5
28A2
330
18
100
AcDbEntity
  8
DRAW2
100
AcDbLine
 10
422.9999999999999
 20
-32.49999999999988
 30
0.0
 11
422.9999999999999
 21
-33.5160873946188
 31
0.0
  0
CIRCLE
  5
28A3
330
18
100
AcDbEntity
  8
DRAW2
100
AcDbCircle
 10
449.9999999999999
 20
-27.99999999999988
 30
0.0
 40
4.934023895357796
  0
CIRCLE
  5
28A4
330
18
100
AcDbEntity
  8
DRAW2
100
AcDbCircle
 10
449.9999999999999
 20
-27.99999999999988
 30
0.0
 40
4.5
  0
CIRCLE
  5
28A5
330
18
100
AcDbEntity
  8
DRAW2
100
AcDbCircle
 10
449.9999999999999
 20
-27.99999999999988
 30
0.0
 40
2.0
  0
CIRCLE
  5
28A8
330
18
100
AcDbEntity
  8
DRAW2
100
AcDbCircle
 10
489.9999999999999
 20
-69.28203230275506
 30
0.0
 40
4.0
  0
CIRCLE
  5
28A9
330
18
100
AcDbEntity
  8
DRAW3
100
AcDbCircle
 10
489.9999999999999
 20
-69.28203230275506
 30
0.0
 40
3.375
  0
ARC
  5
28AA
330
18
100
AcDbEntity
  8
DRAW2
100
AcDbCircle
 10
481.8198051533947
 20
-31.81980515339455
 30
0.0
 40
10.0
100
AcDbArc
 50
44.26541859994149
 51
109.9710005123848
  0
ARC
  5
28AB
330
18
100
AcDbEntity
  8
DRAW2
100
AcDbCircle
 10
477.3797268254417
 20
-19.60155223238973
 30
0.0
 40
3.0
100
AcDbArc
 50
225.0
 51
289.9710005123849
  0
ARC
  5
28AC
330
18
100
AcDbEntity
  8
DRAW2
100
AcDbCircle
 10
491.1292889520092
 20
-22.74602361517531
 30
0.0
 40
3.0
100
AcDbArc
 50
224.2654185999414
 51
331.0557773830386
  0
LINE
  5
28AD
330
18
100
AcDbEntity
  8
DRAW2
100
AcDbLine
 10
506.9999999999999
 20
-17.99999999999988
 30
0.0
 11
504.064775963653
 21
-17.99999999999988
 31
0.0
  0
ARC
  5
28C3
330
18
100
AcDbEntity
  8
DRAW2
100
AcDbCircle
 10
449.9999999999999
 20
0.0000000000001137
 30
0.0
 40
62.59197043658584
100
AcDbArc
 50
12.22799174332775
 51
118.5132241079775
  0
ARC
  5
28C5
330
18
100
AcDbEntity
  8
DRAW2
100
AcDbCircle
 10
449.9999999999999
 20
0.0000000000001137
 30
0.0
 40
55.0
100
AcDbArc
 50
21.22731276189996
 51
90.0
  0
LINE
  5
28C7
330
18
100
AcDbEntity
  8
DRAW2
100
AcDbLine
 10
447.9743375893453
 20
32.49903140665003
 30
0.0
 11
409.9999999999999
 21
50.20675583792502
 31
0.0
  0
ARC
  5
28C8
330
18
100
AcDbEntity
  8
DRAW2
100
AcDbCircle
 10
449.9999999999999
 20
0.0000000000001137
 30
0.0
 40
58.2054748052001
100
AcDbArc
 50
18.01399323458383
 51
109.103609933764
  0
LINE
  5
28C9
330
18
100
AcDbEntity
  8
HIDDEN
100
AcDbLine
 10
450.9999999999999
 20
29.73205080756895
 30
0.0
 11
476.6235315463076
 21
14.38488914639788
 31
0.0
  0
LINE
  5
28CA
330
18
100
AcDbEntity
  8
HIDDEN
100
AcDbLine
 10
448.9999999999999
 20
26.26794919243127
 30
0.0
 11
474.8248865336515
 21
10.82328132112172
 31
0.0
  0
CIRCLE
  5
28CB
330
18
100
AcDbEntity
  8
DRAW2
100
AcDbCircle
 10
449.9999999999999
 20
0.0000000000001137
 30
0.0
 40
9.5
  0
CIRCLE
  5
28CC
330
18
100
AcDbEntity
  8
DRAW2
100
AcDbCircle
 10
449.9999999999999
 20
0.0000000000001137
 30
0.0
 40
9.0
  0
CIRCLE
  5
28CE
330
18
100
AcDbEntity
  8
DRAW2
100
AcDbCircle
 10
449.9999999999999
 20
0.0000000000001137
 30
0.0
 40
13.0
  0
ARC
  5
28CF
330
18
100
AcDbEntity
  8
DRAW2
100
AcDbCircle
 10
429.9999999999999
 20
18.00000000000011
 30
0.0
 40
5.0
100
AcDbArc
 50
270.0
 51
90.0
  0
ARC
  5
28D0
330
18
100
AcDbEntity
  8
DRAW2
100
AcDbCircle
 10
419.9999999999999
 20
18.00000000000011
 30
0.0
 40
4.999999999999995
100
AcDbArc
 50
90.0
 51
270.0
  0
LINE
  5
28D1
330
18
100
AcDbEntity
  8
DRAW2
100
AcDbLine
 10
437.9999999999999
 20
5.000000000000113
 30
0.0
 11
409.9999999999999
 21
5.000000000000113
 31
0.0
  0
LINE
  5
28D2
330
18
100
AcDbEntity
  8
DRAW2
100
AcDbLine
 10
437.9999999999999
 20
-4.999999999999886
 30
0.0
 11
409.9999999999999
 21
-4.999999999999886
 31
0.0
  0
LINE
  5
28D3
330
18
100
AcDbEntity
  8
DRAW2
100
AcDbLine
 10
429.9999999999999
 20
-12.99999999999988
 30
0.0
 11
409.9999999999999
 21
-12.99999999999988
 31
0.0
  0
LINE
  5
28D4
330
18
100
AcDbEntity
  8
DRAW2
100
AcDbLine
 10
408.9999999999999
 20
-4.999999999999886
 30
0.0
 11
409.9999999999999
 21
-4.999999999999886
 31
0.0
  0
LINE
  5
28D5
330
18
100
AcDbEntity
  8
DRAW2
100
AcDbLine
 10
408.9999999999999
 20
-12.99999999999988
 30
0.0
 11
409.9999999999999
 21
-12.99999999999988
 31
0.0
  0
LINE
  5
28D6
330
18
100
AcDbEntity
  8
DRAW2
100
AcDbLine
 10
429.9999999999999
 20
13.00000000000011
 30
0.0
 11
409.9999999999999
 21
13.00000000000011
 31
0.0
  0
LINE
  5
28D7
330
18
100
AcDbEntity
  8
DRAW2
100
AcDbLine
 10
408.9999999999999
 20
13.00000000000011
 30
0.0
 11
409.9999999999999
 21
13.00000000000011
 31
0.0
  0
LINE
  5
28D8
330
18
100
AcDbEntity
  8
DRAW2
100
AcDbLine
 10
408.9999999999999
 20
5.000000000000113
 30
0.0
 11
409.9999999999999
 21
5.000000000000113
 31
0.0
  0
LINE
  5
28DA
330
18
100
AcDbEntity
  8
DRAW2
100
AcDbLine
 10
445.255239828109
 20
29.35345584013669
 30
0.0
 11
409.9999999999999
 21
45.79324416207509
 31
0.0
  0
LINE
  5
28DB
330
18
100
AcDbEntity
  8
DRAW2
100
AcDbLine
 10
429.9999999999999
 20
23.00000000000011
 30
0.0
 11
409.9999999999999
 21
23.00000000000011
 31
0.0
  0
LINE
  5
28DC
330
18
100
AcDbEntity
  8
DRAW2
100
AcDbLine
 10
408.9999999999999
 20
23.00000000000011
 30
0.0
 11
409.9999999999999
 21
23.00000000000011
 31
0.0
  0
LINE
  5
28DD
330
18
100
AcDbEntity
  8
DRAW2
100
AcDbLine
 10
409.9999999999999
 20
40.53369234184503
 30
0.0
 11
422.1339273926109
 21
34.87554907517381
 31
0.0
  0
LINE
  5
28DE
330
18
100
AcDbEntity
  8
DRAW2
100
AcDbLine
 10
409.9999999999999
 20
31.00000000000011
 30
0.0
 11
421.4999999999999
 21
31.00000000000011
 31
0.0
  0
LINE
  5
28DF
330
18
100
AcDbEntity
  8
DRAW2
100
AcDbLine
 10
408.9999999999999
 20
41.00000000000011
 30
0.0
 11
409.9999999999999
 21
41.00000000000011
 31
0.0
  0
LINE
  5
28E0
330
18
100
AcDbEntity
  8
DRAW2
100
AcDbLine
 10
408.9999999999999
 20
45.50000000000011
 30
0.0
 11
409.9999999999999
 21
45.50000000000011
 31
0.0
  0
LINE
  5
28E1
330
18
100
AcDbEntity
  8
DRAW2
100
AcDbLine
 10
408.9999999999999
 20
31.00000000000011
 30
0.0
 11
409.9999999999999
 21
31.00000000000011
 31
0.0
  0
LINE
  5
28E2
330
18
100
AcDbEntity
  8
DRAW2
100
AcDbLine
 10
422.9999999999999
 20
32.50000000000011
 30
0.0
 11
422.9999999999999
 21
33.51608739461892
 31
0.0
  0
ARC
  5
28E3
330
18
100
AcDbEntity
  8
DRAW2
100
AcDbCircle
 10
421.4999999999999
 20
32.5
 30
0.0
 40
1.5
100
AcDbArc
 50
270.0
 51
0.0000000000008142
  0
ARC
  5
28E4
330
18
100
AcDbEntity
  8
DRAW2
100
AcDbCircle
 10
421.4999999999999
 20
33.51608739461892
 30
0.0
 40
1.5
100
AcDbArc
 50
359.9999999999994
 51
65.00000000000008
  0
CIRCLE
  5
28E5
330
18
100
AcDbEntity
  8
DRAW2
100
AcDbCircle
 10
449.9999999999999
 20
28.00000000000011
 30
0.0
 40
4.934023895357796
  0
CIRCLE
  5
28E6
330
18
100
AcDbEntity
  8
DRAW2
100
AcDbCircle
 10
449.9999999999999
 20
28.00000000000011
 30
0.0
 40
4.0
  0
CIRCLE
  5
28E7
330
18
100
AcDbEntity
  8
DRAW3
100
AcDbCircle
 10
449.9999999999999
 20
28.00000000000011
 30
0.0
 40
3.375
  0
CIRCLE
  5
28E8
330
18
100
AcDbEntity
  8
DRAW2
100
AcDbCircle
 10
449.9999999999999
 20
28.00000000000011
 30
0.0
 40
2.0
  0
ARC
  5
28E9
330
18
100
AcDbEntity
  8
DRAW2
100
AcDbCircle
 10
449.9999999999999
 20
0.0000000000001137
 30
0.0
 40
50.0
100
AcDbArc
 50
14.89861580286062
 51
28.94422261696133
  0
LINE
  5
28EA
330
18
100
AcDbEntity
  8
DRAW2
100
AcDbLine
 10
476.6235315463076
 20
14.38488914639788
 30
0.0
 11
497.3012701892218
 21
2.000000000000113
 31
0.0
  0
LINE
  5
28EB
330
18
100
AcDbEntity
  8
DRAW2
100
AcDbLine
 10
509.9999999999999
 20
15.00000000000011
 30
0.0
 11
509.9999999999999
 21
13.22050000000013
 31
0.0
  0
SPLINE
  5
28EC
330
18
100
AcDbEntity
  8
DRAW3
100
AcDbSpline
210
0.0
220
0.0
230
1.0
 70
     8
 71
     3
 72
    10
 73
     6
 74
     4
 42
0.0000000001
 43
0.0000000001
 44
0.0000000001
 40
0.0
 40
0.0
 40
0.0
 40
0.0
 40
2.409050595179056
 40
4.860687178110823
 40
7.41531547052673
 40
7.41531547052673
 40
7.41531547052673
 40
7.41531547052673
 10
478.2508621672947
 20
15.20895792394537
 30
0.0
 10
477.4165489951975
 20
14.88972140802137
 30
0.0
 10
475.7331740813382
 20
14.24560507321221
 30
0.0
 10
476.1459461593978
 20
11.08688981447934
 30
0.0
 10
474.3091906228993
 20
10.58795670264016
 30
0.0
 10
473.3719194683311
 20
10.33335797978713
 30
0.0
 11
478.2508621672947
 21
15.20895792394537
 31
0.0
 11
476.2278866198548
 21
13.90086973708923
 31
0.0
 11
475.6328921389994
 21
11.52252924369452
 31
0.0
 11
473.3719194683311
 21
10.33335797978713
 31
0.0
  0
LINE
  5
28ED
330
18
100
AcDbEntity
  8
DRAW2
100
AcDbLine
 10
475.2584064818822
 20
21.72287257594951
 30
0.0
 11
466.0986776009328
 21
12.56314369500023
 31
0.0
  0
LINE
  5
28EE
330
18
100
AcDbEntity
  8
DRAW2
100
AcDbLine
 10
474.8248865336515
 20
10.82328132112172
 30
0.0
 11
495.3183608367545
 21
-1.432915960837476
 31
0.0
  0
LINE
  5
28EF
330
18
100
AcDbEntity
  8
DRAW2
100
AcDbLine
 10
468.2756250297888
 20
-14.74009112385601
 30
0.0
 11
492.9223952899894
 21
0.0000000000001137
 31
0.0
  0
ARC
  5
28F0
330
18
100
AcDbEntity
  8
DRAW2
100
AcDbCircle
 10
449.9999999999999
 20
0.0000000000001137
 30
0.0
 40
18.0
100
AcDbArc
 50
330.1831140436131
 51
29.81688595638678
  0
LINE
  5
28F1
330
18
100
AcDbEntity
  8
DRAW2
100
AcDbLine
 10
467.2916164657905
 20
-4.999999999999886
 30
0.0
 11
461.9999999999999
 21
-4.999999999999886
 31
0.0
  0
ARC
  5
28F2
330
18
100
AcDbEntity
  8
DRAW2
100
AcDbCircle
 10
468.2199979444924
 20
-10.44182335144046
 30
0.0
 40
3.0
100
AcDbArc
 50
150.1831140436131
 51
225.0
  0
ARC
  5
28F3
330
18
100
AcDbEntity
  8
DRAW2
100
AcDbCircle
 10
468.2199979444924
 20
10.44182335144057
 30
0.0
 40
3.0
100
AcDbArc
 50
135.0
 51
209.8168859563868
  0
LINE
  5
28F4
330
18
100
AcDbEntity
  8
DRAW2
100
AcDbLine
 10
467.2916164657905
 20
5.000000000000113
 30
0.0
 11
461.9999999999999
 21
5.000000000000113
 31
0.0
  0
LINE
  5
28F5
330
18
100
AcDbEntity
  8
DRAW2
100
AcDbLine
 10
497.3012701892218
 20
2.000000000000113
 30
0.0
 11
497.3012701892218
 21
-1.999999999999886
 31
0.0
  0
ARC
  5
28F6
330
18
100
AcDbEntity
  8
DRAW2
100
AcDbCircle
 10
497.3714287863915
 20
2.000000000000113
 30
0.0
 40
4.0
100
AcDbArc
 50
239.118311790021
 51
268.9950005873604
  0
LINE
  5
28F7
330
18
100
AcDbEntity
  8
DRAW2
100
AcDbLine
 10
497.3012701892218
 20
-1.999999999999886
 30
0.0
 11
513.3
 21
-1.999999999999886
 31
0.0
  0
LINE
  5
28F8
330
18
100
AcDbEntity
  8
DRAW2
100
AcDbLine
 10
509.9999999999999
 20
-13.60330609529808
 30
0.0
 11
509.6048453209824
 21
-13.20815141628054
 31
0.0
  0
LINE
  5
28F9
330
18
100
AcDbEntity
  8
DRAW2
100
AcDbLine
 10
509.9999999999999
 20
-13.2204999999999
 30
0.0
 11
509.9999999999999
 21
-14.99999999999988
 31
0.0
  0
LINE
  5
28FA
330
18
100
AcDbEntity
  8
DRAW2
100
AcDbLine
 10
497.3012701892218
 20
2.000000000000113
 30
0.0
 11
513.3
 21
2.000000000000113
 31
0.0
  0
LINE
  5
28FB
330
18
100
AcDbEntity
  8
DRAW2
100
AcDbLine
 10
509.9999999999999
 20
13.60330609529819
 30
0.0
 11
509.6048453209825
 21
13.20815141628082
 31
0.0
  0
ARC
  5
28FC
330
18
100
AcDbEntity
  8
DRAW2
100
AcDbCircle
 10
481.8198051533944
 20
31.81980515339466
 30
0.0
 40
10.0
100
AcDbArc
 50
250.0289994876151
 51
315.7345814000585
  0
ARC
  5
28FD
330
18
100
AcDbEntity
  8
DRAW2
100
AcDbCircle
 10
477.3797268254417
 20
19.60155223238984
 30
0.0
 40
3.0
100
AcDbArc
 50
70.02899948761508
 51
134.9999999999999
  0
ARC
  5
28FE
330
18
100
AcDbEntity
  8
DRAW2
100
AcDbCircle
 10
491.1292889520092
 20
22.74602361517543
 30
0.0
 40
3.0
100
AcDbArc
 50
28.94422261696135
 51
135.7345814000585
  0
LINE
  5
28FF
330
18
100
AcDbEntity
  8
DRAW2
100
AcDbLine
 10
506.9999999999999
 20
18.00000000000011
 30
0.0
 11
504.064775963653
 21
18.00000000000011
 31
0.0
  0
ARC
  5
2900
330
18
100
AcDbEntity
  8
DRAW2
100
AcDbCircle
 10
504.064775963653
 20
21.00000000000011
 30
0.0
 40
3.0
100
AcDbArc
 50
201.2273127618999
 51
270.0
  0
ARC
  5
2901
330
18
100
AcDbEntity
  8
DRAW2
100
AcDbCircle
 10
506.9999999999999
 20
15.00000000000011
 30
0.0
 40
3.0
100
AcDbArc
 50
0.0
 51
90.0
  0
LINE
  5
2902
330
18
100
AcDbEntity
  8
DRAW2
100
AcDbLine
 10
449.9999999999999
 20
55.00000000000011
 30
0.0
 11
409.9999999999999
 21
55.00000000000011
 31
0.0
  0
LINE
  5
2904
330
18
100
AcDbEntity
  8
DRAW2
100
AcDbLine
 10
409.9999999999999
 20
55.00000000000011
 30
0.0
 11
408.9999999999999
 21
55.00000000000011
 31
0.0
  0
LINE
  5
2905
330
18
100
AcDbEntity
  8
DRAW2
100
AcDbLine
 10
408.9999999999999
 20
50.50000000000011
 30
0.0
 11
409.9999999999999
 21
50.50000000000011
 31
0.0
  0
CIRCLE
  5
2906
330
18
100
AcDbEntity
  8
DRAW3
100
AcDbCircle
 10
410.0000000000001
 20
69.28203230275506
 30
0.0
 40
3.375
  0
CIRCLE
  5
2907
330
18
100
AcDbEntity
  8
DRAW2
100
AcDbCircle
 10
410.0000000000001
 20
69.28203230275506
 30
0.0
 40
4.0
  0
CIRCLE
  5
2912
330
18
100
AcDbEntity
  8
DRAW2
100
AcDbCircle
 10
489.9999999999999
 20
69.28203230275506
 30
0.0
 40
4.0
  0
CIRCLE
  5
2913
330
18
100
AcDbEntity
  8
DRAW3
100
AcDbCircle
 10
489.9999999999999
 20
69.28203230275506
 30
0.0
 40
3.375
  0
LINE
  5
291C
330
18
100
AcDbEntity
  8
DRAW2
100
AcDbLine
 10
574.0881797874021
 20
-35.09060812846508
 30
0.0
 11
574.0881797874021
 21
-58.49999999999988
 31
0.0
  0
LINE
  5
291D
330
18
100
AcDbEntity
  8
DRAW2
100
AcDbLine
 10
570.0881797874021
 20
-34.57862726256474
 30
0.0
 11
570.0881797874021
 21
-58.49999999999988
 31
0.0
  0
ARC
  5
291F
330
18
100
AcDbEntity
  8
DRAW2
100
AcDbCircle
 10
542.0881797874021
 20
-29.99999999999988
 30
0.0
 40
32.0
100
AcDbArc
 50
0.0
 51
84.2395584958311
  0
ARC
  5
2920
330
18
100
AcDbEntity
  8
DRAW2
100
AcDbCircle
 10
542.0881797874021
 20
-29.99999999999988
 30
0.0
 40
28.0
100
AcDbArc
 50
0.0
 51
83.41322457323791
  0
LINE
  5
2922
330
18
100
AcDbEntity
  8
DRAW2
100
AcDbLine
 10
574.0881797874021
 20
-29.99999999999988
 30
0.0
 11
574.0881797874021
 21
-33.59060812846496
 31
0.0
  0
LINE
  5
2923
330
18
100
AcDbEntity
  8
DRAW2
100
AcDbLine
 10
570.0881797874021
 20
-29.99999999999988
 30
0.0
 11
570.0881797874021
 21
-33.07862726256473
 31
0.0
  0
SPLINE
  5
2924
330
18
100
AcDbEntity
  8
DRAW3
100
AcDbSpline
210
0.0
220
0.0
230
1.0
 70
     8
 71
     3
 72
    10
 73
     6
 74
     0
 42
0.0000000001
 43
0.0000000001
 40
0.9796274835172424
 40
0.9796274835172424
 40
0.9796274835172424
 40
0.9796274835172424
 40
1.625136437721497
 40
3.715634203153421
 40
5.26786897584691
 40
5.26786897584691
 40
5.26786897584691
 40
5.26786897584691
 10
574.0881797874021
 20
-35.09060812846508
 30
0.0
 10
573.8838026741884
 20
-35.15332137232985
 30
0.0
 10
573.0244574929936
 20
-35.28556606593213
 30
0.0
 10
571.7537560743751
 20
-34.0208469524224
 30
0.0
 10
570.5896015627197
 20
-34.34978555078635
 30
0.0
 10
570.088179787381
 20
-34.57862726257451
 30
0.0
  0
SPLINE
  5
2925
330
18
100
AcDbEntity
  8
DRAW3
100
AcDbSpline
210
0.0
220
0.0
230
1.0
 70
     8
 71
     3
 72
    10
 73
     6
 74
     0
 42
0.0000000001
 43
0.0000000001
 40
0.9796274835172424
 40
0.9796274835172424
 40
0.9796274835172424
 40
0.9796274835172424
 40
1.625136437721497
 40
3.715634203153421
 40
5.26786897584691
 40
5.26786897584691
 40
5.26786897584691
 40
5.26786897584691
 10
574.0881797874021
 20
-33.59060812846507
 30
0.0
 10
573.8838026741884
 20
-33.65332137232985
 30
0.0
 10
573.0244574929936
 20
-33.78556606593213
 30
0.0
 10
571.7537560743751
 20
-32.5208469524224
 30
0.0
 10
570.5896015627195
 20
-32.84978555078635
 30
0.0
 10
570.088179787381
 20
-33.07862726257451
 30
0.0
  0
LINE
  5
2926
330
18
100
AcDbEntity
  8
DRAW2
100
AcDbLine
 10
570.5696180745849
 20
-58.49999999999988
 30
0.0
 11
567.8196180745847
 21
-68.49999999999988
 31
0.0
  0
LINE
  5
2927
330
18
100
AcDbEntity
  8
DRAW2
100
AcDbLine
 10
570.8917882628411
 20
-61.0998299541028
 30
0.0
 11
568.8567415002194
 21
-68.49999999999988
 31
0.0
  0
LINE
  5
292A
330
18
100
AcDbEntity
  8
DRAW2
100
AcDbLine
 10
567.5881797874019
 20
-76.6999999999997
 30
0.0
 11
569.0881797874022
 21
-76.6999999999997
 31
0.0
  0
CIRCLE
  5
292C
330
18
100
AcDbEntity
  8
DRAW2
100
AcDbCircle
 10
568.3381797874021
 20
-69.74999999999988
 30
0.0
 40
0.8
  0
LINE
  5
292D
330
18
100
AcDbEntity
  8
DRAW2
100
AcDbLine
 10
577.0881797874022
 20
-68.49999999999988
 30
0.0
 11
567.0881797874021
 21
-68.49999999999988
 31
0.0
  0
LINE
  5
292E
330
18
100
AcDbEntity
  8
DRAW2
100
AcDbLine
 10
577.0881797874022
 20
-70.99999999999988
 30
0.0
 11
567.0881797874021
 21
-70.99999999999988
 31
0.0
  0
LINE
  5
292F
330
18
100
AcDbEntity
  8
DRAW2
100
AcDbLine
 10
567.0881797874021
 20
-68.49999999999988
 30
0.0
 11
567.0881797874021
 21
-79.99999999999989
 31
0.0
  0
LINE
  5
2930
330
18
100
AcDbEntity
  8
DRAW2
100
AcDbLine
 10
567.5881797874021
 20
-73.74999999999989
 30
0.0
 11
567.5881797874021
 21
-79.1999999999997
 31
0.0
  0
LINE
  5
2932
330
18
100
AcDbEntity
  8
DRAW2
100
AcDbLine
 10
567.0881797874021
 20
-73.74999999999989
 30
0.0
 11
567.5881797874021
 21
-73.74999999999989
 31
0.0
  0
TEXT
  5
2933
330
18
100
AcDbEntity
  8
DRAW2
100
AcDbText
 10
568.0143702635927
 20
-70.14999999999989
 30
0.0
 40
0.8
  1
1
 51
10.0
  7
DIMFONT
 72
     4
 11
568.3381797874021
 21
-69.74999999999988
 31
0.0
100
AcDbText
  0
LINE
  5
2936
330
18
100
AcDbEntity
  8
DRAW2
100
AcDbLine
 10
577.0881797874022
 20
-68.49999999999988
 30
0.0
 11
577.0881797874022
 21
-79.99999999999989
 31
0.0
  0
LINE
  5
2937
330
18
100
AcDbEntity
  8
DRAW2
100
AcDbLine
 10
576.5881797874022
 20
-73.74999999999989
 30
0.0
 11
576.5881797874022
 21
-79.1999999999997
 31
0.0
  0
LINE
  5
2938
330
18
100
AcDbEntity
  8
DRAW2
100
AcDbLine
 10
574.0881797874021
 20
-73.74999999999989
 30
0.0
 11
574.0881797874021
 21
-79.1999999999997
 31
0.0
  0
LINE
  5
2939
330
18
100
AcDbEntity
  8
DRAW2
100
AcDbLine
 10
575.0881797874021
 20
-73.74999999999989
 30
0.0
 11
575.0881797874019
 21
-79.1999999999997
 31
0.0
  0
LINE
  5
293A
330
18
100
AcDbEntity
  8
DRAW2
100
AcDbLine
 10
569.0881797874022
 20
-73.74999999999989
 30
0.0
 11
569.0881797874022
 21
-79.1999999999997
 31
0.0
  0
LINE
  5
293B
330
18
100
AcDbEntity
  8
DRAW2
100
AcDbLine
 10
570.0881797874021
 20
-73.74999999999989
 30
0.0
 11
570.0881797874021
 21
-79.1999999999997
 31
0.0
  0
LINE
  5
293C
330
18
100
AcDbEntity
  8
DRAW2
100
AcDbLine
 10
571.5881797874021
 20
-73.74999999999989
 30
0.0
 11
571.5881797874019
 21
-79.1999999999997
 31
0.0
  0
LINE
  5
293D
330
18
100
AcDbEntity
  8
DRAW2
100
AcDbLine
 10
572.5881797874022
 20
-73.74999999999989
 30
0.0
 11
572.5881797874022
 21
-79.1999999999997
 31
0.0
  0
LINE
  5
293E
330
18
100
AcDbEntity
  8
DRAW2
100
AcDbLine
 10
571.0867755093988
 20
-58.49999999999988
 30
0.0
 11
570.3367755093989
 21
-68.49999999999988
 31
0.0
  0
LINE
  5
293F
330
18
100
AcDbEntity
  8
DRAW2
100
AcDbLine
 10
572.0895840654054
 20
-58.49999999999988
 30
0.0
 11
571.3395840654055
 21
-68.49999999999988
 31
0.0
  0
LINE
  5
2940
330
18
100
AcDbEntity
  8
DRAW2
100
AcDbLine
 10
572.0881797874021
 20
-58.51872370671049
 30
0.0
 11
572.8367755093988
 21
-68.49999999999988
 31
0.0
  0
LINE
  5
2941
330
18
100
AcDbEntity
  8
DRAW2
100
AcDbLine
 10
573.0895840654055
 20
-58.49999999999988
 30
0.0
 11
573.8395840654054
 21
-68.49999999999988
 31
0.0
  0
LINE
  5
2942
330
18
100
AcDbEntity
  8
DRAW2
100
AcDbLine
 10
573.2845713119631
 20
-61.09982995410269
 30
0.0
 11
575.3196180745849
 21
-68.49999999999988
 31
0.0
  0
LINE
  5
2943
330
18
100
AcDbEntity
  8
DRAW2
100
AcDbLine
 10
573.6067415002194
 20
-58.49999999999988
 30
0.0
 11
576.3567415002194
 21
-68.49999999999988
 31
0.0
  0
LINE
  5
2944
330
18
100
AcDbEntity
  8
DRAW2
100
AcDbLine
 10
574.0881797874019
 20
-58.49999999999988
 30
0.0
 11
570.0881797874021
 21
-58.49999999999988
 31
0.0
  0
LINE
  5
2947
330
18
100
AcDbEntity
  8
DRAW2
100
AcDbLine
 10
576.5881797874022
 20
-76.6999999999997
 30
0.0
 11
575.0881797874021
 21
-76.6999999999997
 31
0.0
  0
LINE
  5
2948
330
18
100
AcDbEntity
  8
DRAW2
100
AcDbLine
 10
577.0881797874022
 20
-73.74999999999989
 30
0.0
 11
576.5881797874022
 21
-73.74999999999989
 31
0.0
  0
LINE
  5
2949
330
18
100
AcDbEntity
  8
DRAW2
100
AcDbLine
 10
575.0881797874021
 20
-73.74999999999989
 30
0.0
 11
574.0881797874021
 21
-73.74999999999989
 31
0.0
  0
TEXT
  5
294A
330
18
100
AcDbEntity
  8
DRAW2
100
AcDbText
 10
575.4381797874022
 20
-70.14999999999989
 30
0.0
 40
0.8
  1
4
 51
10.0
  7
DIMFONT
 72
     4
 11
575.8381797874021
 21
-69.74999999999988
 31
0.0
100
AcDbText
  0
CIRCLE
  5
294B
330
18
100
AcDbEntity
  8
DRAW2
100
AcDbCircle
 10
575.8381797874021
 20
-69.74999999999988
 30
0.0
 40
0.8
  0
LINE
  5
294C
330
18
100
AcDbEntity
  8
DRAW2
100
AcDbLine
 10
570.0881797874021
 20
-76.6999999999997
 30
0.0
 11
571.5881797874019
 21
-76.6999999999997
 31
0.0
  0
LINE
  5
294E
330
18
100
AcDbEntity
  8
DRAW2
100
AcDbLine
 10
574.0881797874021
 20
-76.6999999999997
 30
0.0
 11
572.5881797874022
 21
-76.6999999999997
 31
0.0
  0
LINE
  5
2950
330
18
100
AcDbEntity
  8
DRAW2
100
AcDbLine
 10
572.5881797874022
 20
-73.74999999999989
 30
0.0
 11
571.5881797874021
 21
-73.74999999999989
 31
0.0
  0
LINE
  5
2951
330
18
100
AcDbEntity
  8
DRAW2
100
AcDbLine
 10
569.0881797874022
 20
-73.74999999999989
 30
0.0
 11
570.0881797874021
 21
-73.74999999999989
 31
0.0
  0
LINE
  5
2AE6
330
18
100
AcDbEntity
  8
DRAW2
100
AcDbLine
 10
567.5881797874021
 20
-79.1999999999997
 30
0.0
 11
569.0881797874022
 21
-79.1999999999997
 31
0.0
  0
LINE
  5
2AE7
330
18
100
AcDbEntity
  8
DRAW2
100
AcDbLine
 10
577.0881797874022
 20
-79.99999999999989
 30
0.0
 11
567.0881797874021
 21
-79.99999999999989
 31
0.0
  0
LINE
  5
2AE8
330
18
100
AcDbEntity
  8
DRAW2
100
AcDbLine
 10
567.0881797874021
 20
-77.99999999999989
 30
0.0
 11
567.5881797874021
 21
-77.99999999999989
 31
0.0
  0
LINE
  5
2AE9
330
18
100
AcDbEntity
  8
DRAW2
100
AcDbLine
 10
573.8381797874021
 20
-79.19999999999993
 30
0.0
 11
573.8381797874021
 21
-79.99999999999989
 31
0.0
  0
LINE
  5
2AEA
330
18
100
AcDbEntity
  8
DRAW2
100
AcDbLine
 10
575.3381797874022
 20
-79.19999999999993
 30
0.0
 11
575.3381797874019
 21
-79.99999999999989
 31
0.0
  0
LINE
  5
2AEB
330
18
100
AcDbEntity
  8
DRAW2
100
AcDbLine
 10
576.5881797874022
 20
-79.1999999999997
 30
0.0
 11
575.0881797874021
 21
-79.1999999999997
 31
0.0
  0
LINE
  5
2AEC
330
18
100
AcDbEntity
  8
DRAW2
100
AcDbLine
 10
570.0881797874021
 20
-79.1999999999997
 30
0.0
 11
571.5881797874019
 21
-79.1999999999997
 31
0.0
  0
LINE
  5
2AED
330
18
100
AcDbEntity
  8
DRAW2
100
AcDbLine
 10
570.3381797874022
 20
-79.19999999999993
 30
0.0
 11
570.3381797874022
 21
-79.99999999999989
 31
0.0
  0
LINE
  5
2AEE
330
18
100
AcDbEntity
  8
DRAW2
100
AcDbLine
 10
574.0881797874019
 20
-79.1999999999997
 30
0.0
 11
572.5881797874022
 21
-79.1999999999997
 31
0.0
  0
LINE
  5
2AEF
330
18
100
AcDbEntity
  8
DRAW2
100
AcDbLine
 10
568.8381797874021
 20
-79.19999999999993
 30
0.0
 11
568.8381797874021
 21
-79.99999999999989
 31
0.0
  0
LINE
  5
2AF0
330
18
100
AcDbEntity
  8
DRAW2
100
AcDbLine
 10
577.0881797874022
 20
-77.99999999999989
 30
0.0
 11
576.5881797874022
 21
-77.99999999999989
 31
0.0
  0
LINE
  5
2AF1
330
18
100
AcDbEntity
  8
DRAW2
100
AcDbLine
 10
575.0881797874019
 20
-77.99999999999989
 30
0.0
 11
574.0881797874021
 21
-77.99999999999989
 31
0.0
  0
LINE
  5
2AF2
330
18
100
AcDbEntity
  8
DRAW2
100
AcDbLine
 10
572.5881797874022
 20
-77.99999999999989
 30
0.0
 11
571.5881797874019
 21
-77.99999999999989
 31
0.0
  0
LINE
  5
2AF3
330
18
100
AcDbEntity
  8
DRAW2
100
AcDbLine
 10
569.0881797874022
 20
-77.99999999999989
 30
0.0
 11
570.0881797874021
 21
-77.99999999999989
 31
0.0
  0
LINE
  5
2AF4
330
18
100
AcDbEntity
  8
DRAW2
100
AcDbLine
 10
394.9999999999999
 20
-54.49999999999988
 30
0.0
 11
394.9999999999999
 21
54.50000000000011
 31
0.0
  0
LINE
  5
2AF5
330
18
100
AcDbEntity
  8
DRAW2
100
AcDbLine
 10
408.9999999999999
 20
-54.49999999999988
 30
0.0
 11
408.9999999999999
 21
54.50000000000011
 31
0.0
  0
LINE
  5
2AF6
330
18
100
AcDbEntity
  8
DRAW2
100
AcDbLine
 10
395.4999999999999
 20
-54.99999999999989
 30
0.0
 11
408.4999999999999
 21
-54.99999999999989
 31
0.0
  0
LINE
  5
2AF7
330
18
100
AcDbEntity
  8
DRAW2
100
AcDbLine
 10
395.4999999999999
 20
-54.99999999999989
 30
0.0
 11
394.9999999999999
 21
-54.49999999999988
 31
0.0
  0
LINE
  5
2AF8
330
18
100
AcDbEntity
  8
DRAW2
100
AcDbLine
 10
408.9999999999999
 20
-54.49999999999988
 30
0.0
 11
408.4999999999999
 21
-54.99999999999989
 31
0.0
  0
LINE
  5
2AF9
330
18
100
AcDbEntity
  8
DRAW2
100
AcDbLine
 10
395.8836129032257
 20
-10.55261290322567
 30
0.0
 11
403.7999999999999
 21
-10.79999999999989
 31
0.0
  0
LINE
  5
2AFA
330
18
100
AcDbEntity
  8
DRAW3
100
AcDbLine
 10
394.9999999999999
 20
-9.668999999999869
 30
0.0
 11
404.6999999999999
 21
-9.972124999999891
 31
0.0
  0
LINE
  5
2AFC
330
18
100
AcDbEntity
  8
DRAW2
100
AcDbLine
 10
395.8836129032257
 20
-25.44738709677415
 30
0.0
 11
403.7999999999997
 21
-25.19999999999993
 31
0.0
  0
LINE
  5
2AFD
330
18
100
AcDbEntity
  8
DRAW3
100
AcDbLine
 10
394.9999999999999
 20
-26.3309999999999
 30
0.0
 11
404.6999999999999
 21
-26.02787499999988
 31
0.0
  0
LINE
  5
2AFE
330
18
100
AcDbEntity
  8
DRAW2
100
AcDbLine
 10
395.8836129032257
 20
-10.55261290322567
 30
0.0
 11
395.8836129032257
 21
-25.44738709677415
 31
0.0
  0
LINE
  5
2AFF
330
18
100
AcDbEntity
  8
DRAW2
100
AcDbLine
 10
394.9999999999999
 20
-26.3309999999999
 30
0.0
 11
395.8836129032257
 21
-25.44738709677415
 31
0.0
  0
LINE
  5
2B00
330
18
100
AcDbEntity
  8
DRAW2
100
AcDbLine
 10
394.9999999999999
 20
-9.668999999999869
 30
0.0
 11
395.8836129032257
 21
-10.55261290322567
 31
0.0
  0
LINE
  5
2B01
330
18
100
AcDbEntity
  8
DRAW2
100
AcDbLine
 10
404.6999999999999
 20
-26.02787499999988
 30
0.0
 11
404.6999999999999
 21
-9.972124999999891
 31
0.0
  0
LINE
  5
2B02
330
18
100
AcDbEntity
  8
DRAW3
100
AcDbLine
 10
404.6999999999999
 20
-26.02787499999988
 30
0.0
 11
406.133921562316
 21
-25.19999999999993
 31
0.0
  0
LINE
  5
2B03
330
18
100
AcDbEntity
  8
DRAW2
100
AcDbLine
 10
403.7999999999997
 20
-25.19999999999993
 30
0.0
 11
408.9999999999999
 21
-25.19999999999993
 31
0.0
  0
LINE
  5
2B05
330
18
100
AcDbEntity
  8
DRAW3
100
AcDbLine
 10
404.6999999999999
 20
-9.972124999999891
 30
0.0
 11
406.133921562316
 21
-10.79999999999989
 31
0.0
  0
LINE
  5
2B06
330
18
100
AcDbEntity
  8
DRAW2
100
AcDbLine
 10
403.7999999999999
 20
-10.79999999999989
 30
0.0
 11
408.9999999999999
 21
-10.79999999999989
 31
0.0
  0
LINE
  5
2B07
330
18
100
AcDbEntity
  8
DRAW2
100
AcDbLine
 10
395.8836129032257
 20
25.44738709677432
 30
0.0
 11
403.7999999999997
 21
25.2000000000001
 31
0.0
  0
LINE
  5
2B08
330
18
100
AcDbEntity
  8
DRAW3
100
AcDbLine
 10
394.9999999999999
 20
26.33100000000013
 30
0.0
 11
404.6999999999999
 21
26.0278750000001
 31
0.0
  0
LINE
  5
2B0A
330
18
100
AcDbEntity
  8
DRAW3
100
AcDbLine
 10
394.9999999999999
 20
9.669000000000096
 30
0.0
 11
404.6999999999999
 21
9.972125000000119
 31
0.0
  0
LINE
  5
2B0B
330
18
100
AcDbEntity
  8
DRAW2
100
AcDbLine
 10
395.8836129032257
 20
10.5526129032259
 30
0.0
 11
403.7999999999999
 21
10.80000000000012
 31
0.0
  0
LINE
  5
2B0C
330
18
100
AcDbEntity
  8
DRAW2
100
AcDbLine
 10
395.8836129032257
 20
10.5526129032259
 30
0.0
 11
395.8836129032257
 21
25.44738709677432
 31
0.0
  0
LINE
  5
2B0D
330
18
100
AcDbEntity
  8
DRAW2
100
AcDbLine
 10
394.9999999999999
 20
9.669000000000096
 30
0.0
 11
395.8836129032257
 21
10.5526129032259
 31
0.0
  0
LINE
  5
2B0E
330
18
100
AcDbEntity
  8
DRAW2
100
AcDbLine
 10
394.9999999999999
 20
26.33100000000013
 30
0.0
 11
395.8836129032257
 21
25.44738709677432
 31
0.0
  0
LINE
  5
2B0F
330
18
100
AcDbEntity
  8
DRAW2
100
AcDbLine
 10
404.6999999999999
 20
26.0278750000001
 30
0.0
 11
404.6999999999999
 21
9.972125000000119
 31
0.0
  0
LINE
  5
2B10
330
18
100
AcDbEntity
  8
DRAW2
100
AcDbLine
 10
403.7999999999999
 20
10.80000000000012
 30
0.0
 11
408.9999999999999
 21
10.80000000000012
 31
0.0
  0
LINE
  5
2B11
330
18
100
AcDbEntity
  8
DRAW3
100
AcDbLine
 10
404.6999999999999
 20
9.972125000000119
 30
0.0
 11
406.133921562316
 21
10.80000000000012
 31
0.0
  0
LINE
  5
2B12
330
18
100
AcDbEntity
  8
DRAW3
100
AcDbLine
 10
404.6999999999999
 20
26.0278750000001
 30
0.0
 11
406.133921562316
 21
25.2000000000001
 31
0.0
  0
LINE
  5
2B13
330
18
100
AcDbEntity
  8
DRAW2
100
AcDbLine
 10
403.7999999999997
 20
25.2000000000001
 30
0.0
 11
408.9999999999999
 21
25.2000000000001
 31
0.0
  0
LINE
  5
2B14
330
18
100
AcDbEntity
  8
DRAW2
100
AcDbLine
 10
395.4999999999999
 20
55.00000000000011
 30
0.0
 11
408.4999999999999
 21
55.00000000000011
 31
0.0
  0
LINE
  5
2B15
330
18
100
AcDbEntity
  8
DRAW2
100
AcDbLine
 10
395.4999999999999
 20
55.00000000000011
 30
0.0
 11
394.9999999999999
 21
54.50000000000011
 31
0.0
  0
LINE
  5
2B16
330
18
100
AcDbEntity
  8
DRAW2
100
AcDbLine
 10
408.4999999999999
 20
55.00000000000011
 30
0.0
 11
408.9999999999999
 21
54.50000000000011
 31
0.0
  0
LINE
  5
2B4E
330
18
100
AcDbEntity
  8
DRAW2
100
AcDbLine
 10
537.9514942239679
 20
5.991173358452613
 30
0.0
 11
529.2999999999999
 21
5.991173358452613
 31
0.0
  0
LINE
  5
2B4F
330
18
100
AcDbEntity
  8
DRAW2
100
AcDbLine
 10
537.9514942239679
 20
4.4721359549996
 30
0.0
 11
529.2999999999999
 21
4.472135954999657
 31
0.0
  0
LINE
  5
2B50
330
18
100
AcDbEntity
  8
DRAW2
100
AcDbLine
 10
538.2226497308104
 20
10.4633093134521
 30
0.0
 11
529.2999999999999
 21
10.4633093134521
 31
0.0
  0
LINE
  5
2B51
330
18
100
AcDbEntity
  8
DRAW2
100
AcDbLine
 10
529.2999999999999
 20
10.50000000000011
 30
0.0
 11
538.2226497308104
 21
10.50000000000011
 31
0.0
  0
LINE
  5
2B52
330
18
100
AcDbEntity
  8
DRAW2
100
AcDbLine
 10
537.9514942239679
 20
-4.472135954999373
 30
0.0
 11
529.2999999999999
 21
-4.472135954999373
 31
0.0
  0
LINE
  5
2B53
330
18
100
AcDbEntity
  8
DRAW2
100
AcDbLine
 10
537.9514942239679
 20
-5.991173358452385
 30
0.0
 11
529.2999999999999
 21
-5.991173358452385
 31
0.0
  0
LINE
  5
2B54
330
18
100
AcDbEntity
  8
DRAW2
100
AcDbLine
 10
529.2999999999999
 20
-10.49999999999988
 30
0.0
 11
538.2226497308104
 21
-10.49999999999988
 31
0.0
  0
LINE
  5
2B55
330
18
100
AcDbEntity
  8
DRAW2
100
AcDbLine
 10
538.2226497308104
 20
-10.46330931345181
 30
0.0
 11
529.2999999999999
 21
-10.46330931345181
 31
0.0
  0
LINE
  5
2B56
330
18
100
AcDbEntity
  8
DRAW2
100
AcDbLine
 10
529.2999999999999
 20
-10.49999999999988
 30
0.0
 11
529.2999999999999
 21
10.50000000000011
 31
0.0
  0
LINE
  5
2B57
330
18
100
AcDbEntity
  8
DRAW2
100
AcDbLine
 10
526.7999999999999
 20
-10.49999999999988
 30
0.0
 11
526.7999999999999
 21
10.50000000000011
 31
0.0
  0
LINE
  5
2B58
330
18
100
AcDbEntity
  8
DRAW2
100
AcDbLine
 10
513.9699999999997
 20
7.60000000000025
 30
0.0
 11
513.9699999999997
 21
-7.599999999999681
 31
0.0
  0
LINE
  5
2B59
330
18
100
AcDbEntity
  8
DRAW2
100
AcDbLine
 10
513.3
 20
-6.929999999999893
 30
0.0
 11
513.3
 21
6.930000000000063
 31
0.0
  0
LINE
  5
2B5A
330
18
100
AcDbEntity
  8
DRAW2
100
AcDbLine
 10
521.4999999999999
 20
-10.49999999999988
 30
0.0
 11
521.4999999999999
 21
10.50000000000011
 31
0.0
  0
LINE
  5
2B5B
330
18
100
AcDbEntity
  8
DRAW2
100
AcDbLine
 10
520.0
 20
-10.49999999999988
 30
0.0
 11
520.0
 21
10.50000000000011
 31
0.0
  0
LINE
  5
2B5C
330
18
100
AcDbEntity
  8
DRAW2
100
AcDbLine
 10
521.7999999999999
 20
-10.49999999999988
 30
0.0
 11
521.7999999999999
 21
10.50000000000011
 31
0.0
  0
ARC
  5
2B5D
330
18
100
AcDbEntity
  8
DRAW2
100
AcDbCircle
 10
521.4999999999999
 20
-9.199999999999874
 30
0.0
 40
0.3
100
AcDbArc
 50
270.0000000000108
 51
0.0
  0
LINE
  5
2B5F
330
18
100
AcDbEntity
  8
DRAW2
100
AcDbLine
 10
520.0
 20
-10.49999999999988
 30
0.0
 11
521.4999999999999
 21
-10.49999999999988
 31
0.0
  0
LINE
  5
2B60
330
18
100
AcDbEntity
  8
DRAW2
100
AcDbLine
 10
513.3
 20
-6.929999999999893
 30
0.0
 11
513.9699999999997
 21
-7.599999999999681
 31
0.0
  0
LINE
  5
2B61
330
18
100
AcDbEntity
  8
DRAW2
100
AcDbLine
 10
513.9699999999997
 20
-7.599999999999681
 30
0.0
 11
520.0
 21
-7.599999999999909
 31
0.0
  0
LINE
  5
2B62
330
18
100
AcDbEntity
  8
DRAW3
100
AcDbLine
 10
513.3
 20
-6.929999999999893
 30
0.0
 11
520.0
 21
-6.929999999999893
 31
0.0
  0
LINE
  5
2B63
330
18
100
AcDbEntity
  8
DRAW3
100
AcDbLine
 10
526.7999999999999
 20
-6.929999999999893
 30
0.0
 11
529.2999999999999
 21
-6.929999999999893
 31
0.0
  0
LINE
  5
2B64
330
18
100
AcDbEntity
  8
DRAW2
100
AcDbLine
 10
526.7999999999999
 20
-7.599999999999852
 30
0.0
 11
529.2999999999999
 21
-7.599999999999852
 31
0.0
  0
LINE
  5
2B67
330
18
100
AcDbEntity
  8
DRAW2
100
AcDbLine
 10
526.7999999999999
 20
-10.46330931345181
 30
0.0
 11
521.7999999999999
 21
-10.46330931345187
 31
0.0
  0
LINE
  5
2B68
330
18
100
AcDbEntity
  8
DRAW2
100
AcDbLine
 10
521.7999999999999
 20
-10.49999999999988
 30
0.0
 11
526.7999999999999
 21
-10.49999999999988
 31
0.0
  0
LINE
  5
2B69
330
18
100
AcDbEntity
  8
DRAW2
100
AcDbLine
 10
526.7999999999999
 20
-5.991173358452385
 30
0.0
 11
521.7999999999999
 21
-5.991173358452385
 31
0.0
  0
LINE
  5
2B6A
330
18
100
AcDbEntity
  8
DRAW2
100
AcDbLine
 10
526.7999999999999
 20
-4.472135954999373
 30
0.0
 11
521.7999999999999
 21
-4.472135954999373
 31
0.0
  0
ARC
  5
2B6B
330
18
100
AcDbEntity
  8
DRAW2
100
AcDbCircle
 10
521.4999999999999
 20
9.200000000000102
 30
0.0
 40
0.3
100
AcDbArc
 50
0.0
 51
89.99999999997829
  0
LINE
  5
2B6C
330
18
100
AcDbEntity
  8
DRAW2
100
AcDbLine
 10
520.0
 20
10.50000000000011
 30
0.0
 11
521.4999999999999
 21
10.50000000000011
 31
0.0
  0
LINE
  5
2B6D
330
18
100
AcDbEntity
  8
DRAW2
100
AcDbLine
 10
513.3
 20
6.930000000000063
 30
0.0
 11
513.97
 21
7.600000000000193
 31
0.0
  0
LINE
  5
2B6E
330
18
100
AcDbEntity
  8
DRAW2
100
AcDbLine
 10
513.97
 20
7.600000000000193
 30
0.0
 11
520.0
 21
7.600000000000079
 31
0.0
  0
LINE
  5
2B6F
330
18
100
AcDbEntity
  8
DRAW3
100
AcDbLine
 10
513.3
 20
6.930000000000063
 30
0.0
 11
520.0
 21
6.930000000000063
 31
0.0
  0
LINE
  5
2B70
330
18
100
AcDbEntity
  8
DRAW3
100
AcDbLine
 10
526.7999999999999
 20
6.930000000000063
 30
0.0
 11
529.2999999999999
 21
6.930000000000063
 31
0.0
  0
LINE
  5
2B71
330
18
100
AcDbEntity
  8
DRAW2
100
AcDbLine
 10
526.7999999999999
 20
7.600000000000136
 30
0.0
 11
529.2999999999999
 21
7.600000000000136
 31
0.0
  0
LINE
  5
2B72
330
18
100
AcDbEntity
  8
DRAW2
100
AcDbLine
 10
526.7999999999999
 20
4.4721359549996
 30
0.0
 11
521.7999999999999
 21
4.4721359549996
 31
0.0
  0
LINE
  5
2B73
330
18
100
AcDbEntity
  8
DRAW2
100
AcDbLine
 10
526.7999999999999
 20
5.991173358452613
 30
0.0
 11
521.7999999999999
 21
5.991173358452613
 31
0.0
  0
LINE
  5
2B74
330
18
100
AcDbEntity
  8
DRAW2
100
AcDbLine
 10
521.7999999999999
 20
10.50000000000011
 30
0.0
 11
526.7999999999999
 21
10.50000000000011
 31
0.0
  0
LINE
  5
2B75
330
18
100
AcDbEntity
  8
DRAW2
100
AcDbLine
 10
526.7999999999999
 20
10.4633093134521
 30
0.0
 11
521.7999999999999
 21
10.4633093134521
 31
0.0
  0
LINE
  5
2B76
330
18
100
AcDbEntity
  8
DRAW2
100
AcDbLine
 10
538.8000000000001
 20
-9.499999999999602
 30
0.0
 11
538.7999999999999
 21
9.5
 31
0.0
  0
ARC
  5
2B77
330
18
100
AcDbEntity
  8
DRAW2
100
AcDbCircle
 10
526.5903235091363
 20
0.0000000000001137
 30
0.0
 40
12.20967649086359
100
AcDbArc
 50
338.5137454626316
 51
21.48625453736834
  0
LINE
  5
2B78
330
18
100
AcDbEntity
  8
DRAW2
100
AcDbLine
 10
545.2999999999999
 20
-5.249999999999886
 30
0.0
 11
545.3000000000002
 21
5.250000000000113
 31
0.0
  0
LINE
  5
2B79
330
18
100
AcDbEntity
  8
DRAW2
100
AcDbLine
 10
538.8000000000001
 20
-9.249999999999886
 30
0.0
 11
541.2999999999999
 21
-9.249999999999886
 31
0.0
  0
LINE
  5
2B7A
330
18
100
AcDbEntity
  8
DRAW2
100
AcDbLine
 10
538.2226497308104
 20
-10.49999999999988
 30
0.0
 11
538.7999999999999
 21
-9.499999999999886
 31
0.0
  0
LINE
  5
2B7B
330
18
100
AcDbEntity
  8
DRAW2
100
AcDbLine
 10
538.2226497308104
 20
-10.49999999999988
 30
0.0
 11
538.2226497308104
 21
-10.46330931345181
 31
0.0
  0
LINE
  5
2B7C
330
18
100
AcDbEntity
  8
DRAW2
100
AcDbLine
 10
537.9514942239679
 20
-4.472135954999373
 30
0.0
 11
537.9514942239679
 21
-5.991173358452385
 31
0.0
  0
ARC
  5
2B7D
330
18
100
AcDbEntity
  8
DRAW2
100
AcDbCircle
 10
534.9755534288676
 20
-8.415899596247243
 30
0.0
 40
3.838687398603061
100
AcDbArc
 50
327.7671104449829
 51
39.17233412440571
  0
ARC
  5
2B7E
330
18
100
AcDbEntity
  8
DRAW2
100
AcDbCircle
 10
541.2999999999999
 20
-5.249999999999886
 30
0.0
 40
4.0
100
AcDbArc
 50
270.0
 51
359.9999999999997
  0
LINE
  5
2B7F
330
18
100
AcDbEntity
  8
DRAW2
100
AcDbLine
 10
538.8000000000001
 20
9.25000000000017
 30
0.0
 11
541.3000000000002
 21
9.25000000000017
 31
0.0
  0
LINE
  5
2B80
330
18
100
AcDbEntity
  8
DRAW2
100
AcDbLine
 10
538.2226497308104
 20
10.50000000000011
 30
0.0
 11
538.2226497308104
 21
10.4633093134521
 31
0.0
  0
LINE
  5
2B81
330
18
100
AcDbEntity
  8
DRAW2
100
AcDbLine
 10
538.2226497308104
 20
10.50000000000011
 30
0.0
 11
538.7999999999999
 21
9.500000000000113
 31
0.0
  0
LINE
  5
2B82
330
18
100
AcDbEntity
  8
DRAW2
100
AcDbLine
 10
537.9514942239679
 20
5.991173358452613
 30
0.0
 11
537.9514942239679
 21
4.4721359549996
 31
0.0
  0
ARC
  5
2B83
330
18
100
AcDbEntity
  8
DRAW2
100
AcDbCircle
 10
534.9755534288676
 20
8.415899596247527
 30
0.0
 40
3.838687398603061
100
AcDbArc
 50
320.8276658755942
 51
32.23288955501711
  0
ARC
  5
2B84
330
18
100
AcDbEntity
  8
DRAW2
100
AcDbCircle
 10
541.3000000000002
 20
5.25000000000017
 30
0.0
 40
4.0
100
AcDbArc
 50
359.9999999999996
 51
90.00000000000005
  0
LINE
  5
2B85
330
18
100
AcDbEntity
  8
DRAW2
100
AcDbLine
 10
494.9999999999999
 20
-6.929999999999836
 30
0.0
 11
513.3
 21
-6.929999999999836
 31
0.0
  0
LINE
  5
2B86
330
18
100
AcDbEntity
  8
DRAW2
100
AcDbLine
 10
494.9999999999999
 20
6.93000000000012
 30
0.0
 11
513.3
 21
6.93000000000012
 31
0.0
  0
LINE
  5
2B87
330
18
100
AcDbEntity
  8
DRAW2
100
AcDbLine
 10
511.9999999999999
 20
13.28300000000012
 30
0.0
 11
496.1994838709676
 21
12.78923387096784
 31
0.0
  0
LINE
  5
2B88
330
18
100
AcDbEntity
  8
DRAW3
100
AcDbLine
 10
511.9999999999999
 20
12.12100000000009
 30
0.0
 11
494.9999999999999
 21
11.58975000000009
 31
0.0
  0
LINE
  5
2B89
330
18
100
AcDbEntity
  8
DRAW2
100
AcDbLine
 10
511.9999999999999
 20
-13.2829999999999
 30
0.0
 11
496.1994838709676
 21
-12.78923387096767
 31
0.0
  0
LINE
  5
2B8A
330
18
100
AcDbEntity
  8
DRAW3
100
AcDbLine
 10
511.9999999999999
 20
-12.12099999999986
 30
0.0
 11
494.9999999999999
 21
-11.58974999999986
 31
0.0
  0
LINE
  5
2B8B
330
18
100
AcDbEntity
  8
DRAW2
100
AcDbLine
 10
496.1994838709676
 20
-12.78923387096767
 30
0.0
 11
494.9999999999999
 21
-11.58974999999986
 31
0.0
  0
LINE
  5
2B8C
330
18
100
AcDbEntity
  8
DRAW2
100
AcDbLine
 10
494.9999999999999
 20
-11.58974999999986
 30
0.0
 11
495.0
 21
-3.378341059513672
 31
0.0
  0
LINE
  5
2B8D
330
18
100
AcDbEntity
  8
DRAW2
100
AcDbLine
 10
495.0
 20
3.378341059513843
 30
0.0
 11
494.9999999999999
 21
11.58975000000009
 31
0.0
  0
LINE
  5
2B8E
330
18
100
AcDbEntity
  8
DRAW2
100
AcDbLine
 10
496.1994838709676
 20
12.78923387096784
 30
0.0
 11
494.9999999999999
 21
11.58975000000009
 31
0.0
  0
LINE
  5
2B8F
330
18
100
AcDbEntity
  8
DRAW2
100
AcDbLine
 10
511.9999999999999
 20
-13.2829999999999
 30
0.0
 11
511.9999999999999
 21
-11.99999999999988
 31
0.0
  0
LINE
  5
2B90
330
18
100
AcDbEntity
  8
DRAW2
100
AcDbLine
 10
509.9999999999999
 20
7.600000000000136
 30
0.0
 11
509.9999999999999
 21
2.000000000000113
 31
0.0
  0
LINE
  5
2B91
330
18
100
AcDbEntity
  8
DRAW3
100
AcDbLine
 10
509.9999999999999
 20
-7.599999999999852
 30
0.0
 11
513.9699999999997
 21
-7.599999999999852
 31
0.0
  0
LINE
  5
2B92
330
18
100
AcDbEntity
  8
DRAW2
100
AcDbLine
 10
511.9999999999999
 20
-11.99999999999988
 30
0.0
 11
520.0
 21
-11.99999999999988
 31
0.0
  0
LINE
  5
2B93
330
18
100
AcDbEntity
  8
DRAW2
100
AcDbLine
 10
509.9999999999999
 20
-1.999999999999886
 30
0.0
 11
509.9999999999999
 21
-7.599999999999852
 31
0.0
  0
LINE
  5
2B95
330
18
100
AcDbEntity
  8
DRAW3
100
AcDbLine
 10
509.9999999999999
 20
-7.599999999999852
 30
0.0
 11
508.8395259589288
 21
-6.929999999999836
 31
0.0
  0
LINE
  5
2B96
330
18
100
AcDbEntity
  8
DRAW2
100
AcDbLine
 10
520.0
 20
-11.99999999999988
 30
0.0
 11
520.0
 21
-7.599999999999795
 31
0.0
  0
LINE
  5
2B99
330
18
100
AcDbEntity
  8
DRAW3
100
AcDbLine
 10
509.9999999999999
 20
7.600000000000136
 30
0.0
 11
513.9699999999997
 21
7.600000000000136
 31
0.0
  0
LINE
  5
2B9A
330
18
100
AcDbEntity
  8
DRAW2
100
AcDbLine
 10
511.9999999999999
 20
12.00000000000011
 30
0.0
 11
520.0
 21
12.00000000000011
 31
0.0
  0
LINE
  5
2B9B
330
18
100
AcDbEntity
  8
DRAW2
100
AcDbLine
 10
511.9999999999999
 20
12.00000000000011
 30
0.0
 11
511.9999999999999
 21
13.28300000000012
 31
0.0
  0
LINE
  5
2B9C
330
18
100
AcDbEntity
  8
DRAW3
100
AcDbLine
 10
509.9999999999999
 20
7.600000000000136
 30
0.0
 11
508.8395259589288
 21
6.930000000000177
 31
0.0
  0
LINE
  5
2B9D
330
18
100
AcDbEntity
  8
DRAW2
100
AcDbLine
 10
520.0
 20
7.600000000000022
 30
0.0
 11
520.0
 21
12.00000000000011
 31
0.0
  0
LINE
  5
2BE4
330
18
100
AcDbEntity
  8
DRAW2
100
AcDbLine
 10
93.50003500000008
 20
-135.00004
 30
0.0
 11
93.50003500000008
 21
-133.92504
 31
0.0
  0
LINE
  5
2BE5
330
18
100
AcDbEntity
  8
DRAW3
100
AcDbLine
 10
94.12503500000008
 20
-135.00004
 30
0.0
 11
94.12503500000008
 21
-133.30004
 31
0.0
  0
LINE
  5
2BE6
330
18
100
AcDbEntity
  8
DRAW2
100
AcDbLine
 10
101.500035
 20
-135.00004
 30
0.0
 11
101.500035
 21
-133.92504
 31
0.0
  0
LINE
  5
2BE7
330
18
100
AcDbEntity
  8
DRAW3
100
AcDbLine
 10
100.875035
 20
-135.00004
 30
0.0
 11
100.875035
 21
-133.30004
 31
0.0
  0
LINE
  5
2BE8
330
18
100
AcDbEntity
  8
DRAW2
100
AcDbLine
 10
100.875035
 20
-133.30004
 30
0.0
 11
94.12503500000008
 21
-133.30004
 31
0.0
  0
LINE
  5
2BE9
330
18
100
AcDbEntity
  8
DRAW2
100
AcDbLine
 10
101.500035
 20
-133.92504
 30
0.0
 11
93.50003500000008
 21
-133.92504
 31
0.0
  0
LINE
  5
2BEA
330
18
100
AcDbEntity
  8
DRAW2
100
AcDbLine
 10
94.12503500000008
 20
-133.30004
 30
0.0
 11
93.50003500000008
 21
-133.92504
 31
0.0
  0
LINE
  5
2BEB
330
18
100
AcDbEntity
  8
DRAW2
100
AcDbLine
 10
101.500035
 20
-133.92504
 30
0.0
 11
100.875035
 21
-133.30004
 31
0.0
  0
LINE
  5
2BEC
330
18
100
AcDbEntity
  8
DRAW2
100
AcDbLine
 10
-101.50006
 20
-135.00004
 30
0.0
 11
-101.50006
 21
-133.92504
 31
0.0
  0
LINE
  5
2BED
330
18
100
AcDbEntity
  8
DRAW3
100
AcDbLine
 10
-100.87506
 20
-135.00004
 30
0.0
 11
-100.87506
 21
-133.30004
 31
0.0
  0
LINE
  5
2BEE
330
18
100
AcDbEntity
  8
DRAW2
100
AcDbLine
 10
-93.50006000000007
 20
-135.00004
 30
0.0
 11
-93.50006000000007
 21
-133.92504
 31
0.0
  0
LINE
  5
2BEF
330
18
100
AcDbEntity
  8
DRAW3
100
AcDbLine
 10
-94.12506000000007
 20
-135.00004
 30
0.0
 11
-94.12506000000007
 21
-133.30004
 31
0.0
  0
LINE
  5
2BF0
330
18
100
AcDbEntity
  8
DRAW2
100
AcDbLine
 10
-94.12506000000007
 20
-133.30004
 30
0.0
 11
-100.87506
 21
-133.30004
 31
0.0
  0
LINE
  5
2BF1
330
18
100
AcDbEntity
  8
DRAW2
100
AcDbLine
 10
-93.50006000000007
 20
-133.92504
 30
0.0
 11
-101.50006
 21
-133.92504
 31
0.0
  0
LINE
  5
2BF2
330
18
100
AcDbEntity
  8
DRAW2
100
AcDbLine
 10
-100.87506
 20
-133.30004
 30
0.0
 11
-101.50006
 21
-133.92504
 31
0.0
  0
LINE
  5
2BF3
330
18
100
AcDbEntity
  8
DRAW2
100
AcDbLine
 10
-93.50006000000007
 20
-133.92504
 30
0.0
 11
-94.12506000000007
 21
-133.30004
 31
0.0
  0
ARC
  5
5398
330
18
100
AcDbEntity
  8
DRAW2
100
AcDbCircle
 10
39.00000000000045
 20
55.8191675551966
 30
0.0
 40
3.00000000000003
100
AcDbArc
 50
102.9999999999972
 51
180.0
  0
LINE
  5
5399
330
18
100
AcDbEntity
  8
DRAW2
100
AcDbLine
 10
36.00000000000045
 20
55.8191675551966
 30
0.0
 11
36.0
 21
-55.81916655519671
 31
0.0
  0
LINE
  5
539A
330
18
100
AcDbEntity
  8
DRAW2
100
AcDbLine
 10
38.32514683696899
 20
58.74227774955238
 30
0.0
 11
45.49902108687729
 21
60.39849712099112
 31
0.0
  0
LINE
  5
539B
330
18
100
AcDbEntity
  8
DRAW2
100
AcDbLine
 10
41.8348067104821
 20
61.18146380118173
 30
0.0
 11
41.207269918174
 21
60.67392280033868
 31
0.0
  0
LINE
  5
539C
330
18
100
AcDbEntity
  8
DRAW2
100
AcDbLine
 10
41.79080404713795
 20
60.45576980046075
 30
0.0
 11
41.15470653772399
 21
59.98979558876794
 31
0.0
  0
LINE
  5
539D
330
18
100
AcDbEntity
  8
DRAW2
100
AcDbLine
 10
40.52959211543248
 20
59.69832515052599
 30
0.0
 11
40.43510944023774
 21
59.22940050891679
 31
0.0
  0
LINE
  5
539E
330
18
100
AcDbEntity
  8
DRAW2
100
AcDbLine
 10
41.15470653772399
 20
59.98979558876794
 30
0.0
 11
40.71732532605574
 21
59.5456925564174
 31
0.0
  0
LINE
  5
539F
330
18
100
AcDbEntity
  8
DRAW2
100
AcDbLine
 10
40.71732532605574
 20
59.5456925564174
 30
0.0
 11
40.53476607799575
 21
59.25240790180009
 31
0.0
  0
LINE
  5
53A0
330
18
100
AcDbEntity
  8
DRAW2
100
AcDbLine
 10
40.7696153633301
 20
60.16499226621431
 30
0.0
 11
40.52959211543248
 21
59.69832515052599
 31
0.0
  0
LINE
  5
53A1
330
18
100
AcDbEntity
  8
DRAW2
100
AcDbLine
 10
41.207269918174
 20
60.67392280033868
 30
0.0
 11
40.7696153633301
 21
60.16499226621431
 31
0.0
  0
LINE
  5
53A2
330
18
100
AcDbEntity
  8
DRAW2
100
AcDbLine
 10
45.94456652551935
 20
62.306810670412
 30
0.0
 11
44.71272478252695
 21
61.86920081905168
 31
0.0
  0
LINE
  5
53A3
330
18
100
AcDbEntity
  8
DRAW2
100
AcDbLine
 10
46.6285940855746
 20
63.2986356847648
 30
0.0
 11
45.49081685394094
 21
62.92561491659921
 31
0.0
  0
LINE
  5
53A4
330
18
100
AcDbEntity
  8
DRAW2
100
AcDbLine
 10
45.49081685394094
 20
62.92561491659921
 30
0.0
 11
44.4251025691633
 21
62.52297809056085
 31
0.0
  0
LINE
  5
53A5
330
18
100
AcDbEntity
  8
DRAW2
100
AcDbLine
 10
43.45089864358351
 20
62.09654411009592
 30
0.0
 11
42.58396771177695
 21
61.65000473789018
 31
0.0
  0
LINE
  5
53A6
330
18
100
AcDbEntity
  8
DRAW2
100
AcDbLine
 10
43.5919888913636
 20
61.40718659094614
 30
0.0
 11
42.60995487123773
 21
60.93214502266687
 31
0.0
  0
LINE
  5
53A7
330
18
100
AcDbEntity
  8
DRAW2
100
AcDbLine
 10
44.4251025691633
 20
62.52297809056085
 30
0.0
 11
43.45089864358351
 21
62.09654411009592
 31
0.0
  0
LINE
  5
53A8
330
18
100
AcDbEntity
  8
DRAW2
100
AcDbLine
 10
44.71272478252695
 20
61.86920081905168
 30
0.0
 11
43.5919888913636
 21
61.40718659094614
 31
0.0
  0
ARC
  5
53A9
330
18
100
AcDbEntity
  8
DRAW2
100
AcDbCircle
 10
51.06501307128019
 20
39.20806337968315
 30
0.0
 40
22.27922415009085
100
AcDbArc
 50
103.9344492128821
 51
113.5949363190668
  0
LINE
  5
53AA
330
18
100
AcDbEntity
  8
DRAW2
100
AcDbLine
 10
42.58396771177695
 20
61.65000473789018
 30
0.0
 11
41.8348067104821
 21
61.18146380118173
 31
0.0
  0
LINE
  5
53AB
330
18
100
AcDbEntity
  8
DRAW2
100
AcDbLine
 10
42.60995487123773
 20
60.93214502266687
 30
0.0
 11
41.79080404713795
 21
60.45576980046075
 31
0.0
  0
LINE
  5
53AC
330
18
100
AcDbEntity
  8
DRAW2
100
AcDbLine
 10
47.81574165821121
 20
63.63536467484277
 30
0.0
 11
46.6285940855746
 21
63.2986356847648
 31
0.0
  0
LINE
  5
53AD
330
18
100
AcDbEntity
  8
DRAW2
100
AcDbLine
 10
47.25718280673072
 20
62.70923515490335
 30
0.0
 11
45.94456652551935
 21
62.306810670412
 31
0.0
  0
ARC
  5
53AE
330
18
100
AcDbEntity
  8
DRAW2
100
AcDbCircle
 10
41.00000000000045
 20
79.88589841669579
 30
0.0
 40
19.99999999999996
100
AcDbArc
 50
282.9999999999973
 51
306.8698976458374
  0
ARC
  5
53AF
330
18
100
AcDbEntity
  8
DRAW2
100
AcDbCircle
 10
41.00000000000045
 20
79.88589841669579
 30
0.0
 40
19.99999999999996
100
AcDbArc
 50
282.9999999999973
 51
306.8698976458374
  0
ARC
  5
53B0
330
18
100
AcDbEntity
  8
DRAW2
100
AcDbCircle
 10
40.64991791672855
 20
79.48342732399158
 30
0.0
 40
19.3233336495233
100
AcDbArc
 50
285.1497062354845
 51
295.1881783162701
  0
LINE
  5
53B1
330
18
100
AcDbEntity
  8
DRAW2
100
AcDbLine
 10
48.61825207620904
 20
63.06657990149301
 30
0.0
 11
47.25718280673072
 21
62.70923515490335
 31
0.0
  0
LINE
  5
53B2
330
18
100
AcDbEntity
  8
DRAW2
100
AcDbLine
 10
54.50000061094761
 20
61.78203119724492
 30
0.0
 11
54.50000061094761
 21
76.782032802755
 31
0.0
  0
LINE
  5
53B5
330
18
100
AcDbEntity
  8
DRAW2
100
AcDbLine
 10
55.0
 20
61.28202963931641
 30
0.0
 11
54.50000061094761
 21
61.78203119724492
 31
0.0
  0
LINE
  5
53B6
330
18
100
AcDbEntity
  8
DRAW2
100
AcDbLine
 10
53.32563413679645
 20
64.4687195651893
 30
0.0
 11
52.25009067356632
 21
63.9433865778808
 31
0.0
  0
LINE
  5
53B7
330
18
100
AcDbEntity
  8
DRAW2
100
AcDbLine
 10
54.20797659456775
 20
65.18535365990442
 30
0.0
 11
48.45098251928539
 21
63.79548578328786
 31
0.0
  0
LINE
  5
53B8
330
18
100
AcDbEntity
  8
DRAW2
100
AcDbLine
 10
50.60344251245306
 20
62.8803526394729
 30
0.0
 11
52.25009067356632
 21
63.9433865778808
 31
0.0
  0
LINE
  5
53B9
330
18
100
AcDbEntity
  8
DRAW2
100
AcDbLine
 10
48.87378557026432
 20
61.99745511344713
 30
0.0
 11
50.60344251245306
 21
62.8803526394729
 31
0.0
  0
LINE
  5
53BA
330
18
100
AcDbEntity
  8
DRAW2
100
AcDbLine
 10
52.25008975411992
 20
63.94338807420808
 30
0.0
 11
48.61825207375023
 21
63.06657936841543
 31
0.0
  0
ARC
  5
53BB
330
18
100
AcDbEntity
  8
DRAW2
100
AcDbCircle
 10
50.0
 20
67.8858984166958
 30
0.0
 40
5.0
100
AcDbArc
 50
306.8698976458374
 51
328.6159981101675
  0
LINE
  5
53BC
330
18
100
AcDbEntity
  8
DRAW2
100
AcDbLine
 10
53.7515465766196
 20
64.69237854412836
 30
0.0
 11
53.32563413679645
 21
64.4687195651893
 31
0.0
  0
LINE
  5
53C0
330
18
100
AcDbEntity
  8
DRAW2
100
AcDbLine
 10
48.45098281651781
 20
63.79548510245126
 30
0.0
 11
47.81574165821121
 21
63.63536467484277
 31
0.0
  0
LINE
  5
53C1
330
18
100
AcDbEntity
  8
DRAW2
100
AcDbLine
 10
54.99999938905239
 20
77.2820343606835
 30
0.0
 11
54.5
 21
76.782032802755
 31
0.0
  0
ARC
  5
53C5
330
18
100
AcDbEntity
  8
DRAW2
100
AcDbCircle
 10
65.00000000000046
 20
73.53923098454117
 30
0.0
 40
0.1999999999999886
100
AcDbArc
 50
180.0
 51
239.9999999999963
  0
LINE
  5
53C6
330
18
100
AcDbEntity
  8
DRAW2
100
AcDbLine
 10
65.04551634989685
 20
73.28201199999989
 30
0.0
 11
64.90000000000055
 21
73.36602590378436
 31
0.0
  0
LINE
  5
53C7
330
18
100
AcDbEntity
  8
DRAW2
100
AcDbLine
 10
64.80000000000018
 20
-88.99999949999994
 30
0.0
 11
64.80000000000018
 21
89.00000049999993
 31
0.0
  0
LINE
  5
53C8
330
18
100
AcDbEntity
  8
DRAW2
100
AcDbLine
 10
55.0
 20
88.00000049999994
 30
0.0
 11
55.0
 21
-87.99999949999994
 31
0.0
  0
ARC
  5
53C9
330
18
100
AcDbEntity
  8
DRAW2
100
AcDbCircle
 10
57.0
 20
88.00000049999994
 30
0.0
 40
2.0
100
AcDbArc
 50
90.0
 51
180.0
  0
ARC
  5
53CA
330
18
100
AcDbEntity
  8
DRAW2
100
AcDbCircle
 10
63.80000000000018
 20
89.00000049999993
 30
0.0
 40
1.0
100
AcDbArc
 50
0.0
 51
90.0
  0
LINE
  5
53CB
330
18
100
AcDbEntity
  8
DRAW2
100
AcDbLine
 10
57.0
 20
90.00000049999995
 30
0.0
 11
63.80000000000018
 21
90.00000049999995
 31
0.0
  0
LINE
  5
53CC
330
18
100
AcDbEntity
  8
DRAW2
100
AcDbLine
 10
54.50000061094761
 20
-7.500000802755039
 30
0.0
 11
54.50000061094761
 21
7.500000802755039
 31
0.0
  0
LINE
  5
53CF
330
18
100
AcDbEntity
  8
DRAW2
100
AcDbLine
 10
55.0
 20
-8.000002360683538
 30
0.0
 11
54.50000061094761
 21
-7.500000802755039
 31
0.0
  0
LINE
  5
53D6
330
18
100
AcDbEntity
  8
DRAW2
100
AcDbLine
 10
55.0
 20
8.000002360683538
 30
0.0
 11
54.50000061094761
 21
7.500000802755039
 31
0.0
  0
LINE
  5
53D7
330
18
100
AcDbEntity
  8
DRAW2
100
AcDbLine
 10
66.0
 20
3.999979999999936
 30
0.0
 11
66.0
 21
65.28204200000004
 31
0.0
  0
ARC
  5
53D8
330
18
100
AcDbEntity
  8
DRAW2
100
AcDbCircle
 10
39.00000000000045
 20
-55.81916655519671
 30
0.0
 40
3.00000000000003
100
AcDbArc
 50
180.0
 51
257.0000000000026
  0
LINE
  5
53D9
330
18
100
AcDbEntity
  8
DRAW2
100
AcDbLine
 10
41.15470653772399
 20
-59.98979458876807
 30
0.0
 11
41.79080404713795
 21
-60.45576880046088
 31
0.0
  0
LINE
  5
53DA
330
18
100
AcDbEntity
  8
DRAW2
100
AcDbLine
 10
45.49902108687729
 20
-60.39849612099101
 30
0.0
 11
38.32514683696899
 21
-58.74227674955239
 31
0.0
  0
LINE
  5
53DB
330
18
100
AcDbEntity
  8
DRAW2
100
AcDbLine
 10
41.19680604338691
 20
-60.66389704414564
 30
0.0
 11
41.80197200179145
 21
-61.15828404494482
 31
0.0
  0
LINE
  5
53DC
330
18
100
AcDbEntity
  8
DRAW2
100
AcDbLine
 10
40.80634160339878
 20
-60.21789038845259
 30
0.0
 11
41.19680604338691
 21
-60.66389704414564
 31
0.0
  0
LINE
  5
53DD
330
18
100
AcDbEntity
  8
DRAW2
100
AcDbLine
 10
40.5631723478441
 20
-59.78527615138251
 30
0.0
 11
40.80634160339878
 21
-60.21789038845259
 31
0.0
  0
LINE
  5
53DE
330
18
100
AcDbEntity
  8
DRAW2
100
AcDbLine
 10
40.44010691717312
 20
-59.31750634976584
 30
0.0
 11
40.5631723478441
 21
-59.78527615138251
 31
0.0
  0
LINE
  5
53DF
330
18
100
AcDbEntity
  8
DRAW2
100
AcDbLine
 10
40.44491067901299
 20
-59.23166448541838
 30
0.0
 11
40.44010691717312
 21
-59.31750634976584
 31
0.0
  0
LINE
  5
53E0
330
18
100
AcDbEntity
  8
DRAW2
100
AcDbLine
 10
40.71732532605574
 20
-59.54569155641753
 30
0.0
 11
41.15470653772399
 21
-59.98979458876807
 31
0.0
  0
LINE
  5
53E1
330
18
100
AcDbEntity
  8
DRAW2
100
AcDbLine
 10
40.53476607799575
 20
-59.25240690180022
 30
0.0
 11
40.71732532605574
 21
-59.54569155641753
 31
0.0
  0
LINE
  5
53E2
330
18
100
AcDbEntity
  8
DRAW2
100
AcDbLine
 10
45.56735946238086
 20
-62.95241365500647
 30
0.0
 11
46.71502082049892
 21
-63.32487562962729
 31
0.0
  0
LINE
  5
53E3
330
18
100
AcDbEntity
  8
DRAW2
100
AcDbLine
 10
44.71272478252695
 20
-61.8691998190518
 30
0.0
 11
45.94456652551935
 21
-62.30680967041212
 31
0.0
  0
ARC
  5
53E4
330
18
100
AcDbEntity
  8
DRAW2
100
AcDbCircle
 10
50.30899996406197
 20
-41.4539055022359
 30
0.0
 40
19.91834971652185
100
AcDbArc
 50
245.8303142378906
 51
256.6205572903171
  0
LINE
  5
53E5
330
18
100
AcDbEntity
  8
DRAW2
100
AcDbLine
 10
41.79080404713795
 20
-60.45576880046088
 30
0.0
 11
42.60995487123773
 21
-60.93214402266699
 31
0.0
  0
LINE
  5
53E6
330
18
100
AcDbEntity
  8
DRAW2
100
AcDbLine
 10
42.59005530178592
 20
-61.65343473025519
 30
0.0
 11
43.48931150883482
 21
-62.11466664739806
 31
0.0
  0
LINE
  5
53E7
330
18
100
AcDbEntity
  8
DRAW2
100
AcDbLine
 10
41.80197200179145
 20
-61.15828404494482
 30
0.0
 11
42.59005530178592
 21
-61.65343473025519
 31
0.0
  0
LINE
  5
53E8
330
18
100
AcDbEntity
  8
DRAW2
100
AcDbLine
 10
44.48615355789707
 20
-62.54766086407858
 30
0.0
 11
45.56735946238086
 21
-62.95241365500647
 31
0.0
  0
LINE
  5
53E9
330
18
100
AcDbEntity
  8
DRAW2
100
AcDbLine
 10
43.48931150883482
 20
-62.11466664739806
 30
0.0
 11
44.48615355789707
 21
-62.54766086407858
 31
0.0
  0
LINE
  5
53EA
330
18
100
AcDbEntity
  8
DRAW2
100
AcDbLine
 10
43.5919888913636
 20
-61.40718559094626
 30
0.0
 11
44.71272478252695
 21
-61.8691998190518
 31
0.0
  0
LINE
  5
53EB
330
18
100
AcDbEntity
  8
DRAW2
100
AcDbLine
 10
42.60995487123773
 20
-60.93214402266699
 30
0.0
 11
43.5919888913636
 21
-61.40718559094626
 31
0.0
  0
LINE
  5
53EC
330
18
100
AcDbEntity
  8
DRAW2
100
AcDbLine
 10
45.94456652551935
 20
-62.30680967041212
 30
0.0
 11
47.25718280673072
 21
-62.70923415490347
 31
0.0
  0
ARC
  5
53ED
330
18
100
AcDbEntity
  8
DRAW2
100
AcDbCircle
 10
41.00000000000045
 20
-79.8858974166958
 30
0.0
 40
20.00000000000004
100
AcDbArc
 50
53.1301023541625
 51
77.00000000000271
  0
ARC
  5
53EE
330
18
100
AcDbEntity
  8
DRAW2
100
AcDbCircle
 10
41.00000000000045
 20
-79.8858974166958
 30
0.0
 40
20.00000000000004
100
AcDbArc
 50
53.1301023541625
 51
77.00000000000271
  0
ARC
  5
53EF
330
18
100
AcDbEntity
  8
DRAW2
100
AcDbCircle
 10
40.60586015121589
 20
-79.60337241961872
 30
0.0
 40
19.45062852811019
100
AcDbArc
 50
64.84475359325107
 51
74.81736185498381
  0
LINE
  5
53F0
330
18
100
AcDbEntity
  8
DRAW2
100
AcDbLine
 10
54.50000061094761
 20
-76.782032802755
 30
0.0
 11
54.50000061094761
 21
-61.78203119724492
 31
0.0
  0
LINE
  5
53F4
330
18
100
AcDbEntity
  8
DRAW2
100
AcDbLine
 10
54.5
 20
-76.7820318027558
 30
0.0
 11
54.99999938905239
 21
-77.2820333606835
 31
0.0
  0
LINE
  5
53F5
330
18
100
AcDbEntity
  8
DRAW2
100
AcDbLine
 10
55.0
 20
-61.28202963931641
 30
0.0
 11
54.50000061094761
 21
-61.78203119724492
 31
0.0
  0
ARC
  5
53F8
330
18
100
AcDbEntity
  8
DRAW2
100
AcDbCircle
 10
50.0
 20
-67.88589741669579
 30
0.0
 40
5.000000000000079
100
AcDbArc
 50
31.38385423706092
 51
53.1301023541625
  0
LINE
  5
53FB
330
18
100
AcDbEntity
  8
DRAW2
100
AcDbLine
 10
52.25008975416404
 20
-63.94338707424049
 30
0.0
 11
53.91223462721757
 21
-64.77231102451067
 31
0.0
  0
LINE
  5
53FC
330
18
100
AcDbEntity
  8
DRAW2
100
AcDbLine
 10
48.45098251929266
 20
-63.79548478331139
 30
0.0
 11
54.20797659456775
 21
-65.18535265990454
 31
0.0
  0
LINE
  5
53FD
330
18
100
AcDbEntity
  8
DRAW2
100
AcDbLine
 10
52.25009067356632
 20
-63.94338557788092
 30
0.0
 11
50.62186314165638
 21
-62.89096871682364
 31
0.0
  0
LINE
  5
53FF
330
18
100
AcDbEntity
  8
DRAW2
100
AcDbLine
 10
50.62186314165638
 20
-62.89096871682364
 30
0.0
 11
48.87378557026432
 21
-61.99745411344725
 31
0.0
  0
LINE
  5
5400
330
18
100
AcDbEntity
  8
DRAW2
100
AcDbLine
 10
48.61825207375023
 20
-63.06657836841555
 30
0.0
 11
52.25008975416404
 21
-63.94338707424049
 31
0.0
  0
LINE
  5
5401
330
18
100
AcDbEntity
  8
DRAW2
100
AcDbLine
 10
46.71502082049892
 20
-63.32487562962729
 30
0.0
 11
47.90796028822706
 21
-63.65945140191275
 31
0.0
  0
LINE
  5
5402
330
18
100
AcDbEntity
  8
DRAW2
100
AcDbLine
 10
47.90796028822706
 20
-63.65945140191275
 30
0.0
 11
48.45098281651781
 21
-63.79548410245138
 31
0.0
  0
LINE
  5
5403
330
18
100
AcDbEntity
  8
DRAW2
100
AcDbLine
 10
47.25718280673072
 20
-62.70923415490347
 30
0.0
 11
48.61825207620904
 21
-63.06657890149313
 31
0.0
  0
ARC
  5
5404
330
18
100
AcDbEntity
  8
DRAW2
100
AcDbCircle
 10
57.0
 20
-87.99999949999994
 30
0.0
 40
2.0
100
AcDbArc
 50
180.0
 51
270.0
  0
LINE
  5
5405
330
18
100
AcDbEntity
  8
DRAW2
100
AcDbLine
 10
63.80000000000018
 20
-89.99999949999994
 30
0.0
 11
57.0
 21
-89.99999949999994
 31
0.0
  0
ARC
  5
5406
330
18
100
AcDbEntity
  8
DRAW2
100
AcDbCircle
 10
63.80000000000018
 20
-88.99999949999994
 30
0.0
 40
1.0
100
AcDbArc
 50
270.0
 51
0.0
  0
LINE
  5
5407
330
18
100
AcDbEntity
  8
DRAW2
100
AcDbLine
 10
-64.80000000000018
 20
-88.99999949999994
 30
0.0
 11
-64.80000000000018
 21
89.00000049999993
 31
0.0
  0
LINE
  5
5408
330
18
100
AcDbEntity
  8
DRAW2
100
AcDbLine
 10
-55.0
 20
88.00000049999994
 30
0.0
 11
-55.0
 21
-87.99999949999994
 31
0.0
  0
ARC
  5
5409
330
18
100
AcDbEntity
  8
DRAW2
100
AcDbCircle
 10
-57.0
 20
88.00000049999994
 30
0.0
 40
2.0
100
AcDbArc
 50
0.0
 51
90.0
  0
ARC
  5
540A
330
18
100
AcDbEntity
  8
DRAW2
100
AcDbCircle
 10
-63.80000000000018
 20
89.00000049999993
 30
0.0
 40
1.0
100
AcDbArc
 50
90.0
 51
180.0
  0
LINE
  5
540B
330
18
100
AcDbEntity
  8
DRAW2
100
AcDbLine
 10
-57.0
 20
90.00000049999995
 30
0.0
 11
-63.80000000000018
 21
90.00000049999995
 31
0.0
  0
LINE
  5
540C
330
18
100
AcDbEntity
  8
DRAW2
100
AcDbLine
 10
-54.50000061094761
 20
61.78203119724492
 30
0.0
 11
-54.50000061094761
 21
76.782032802755
 31
0.0
  0
LINE
  5
540F
330
18
100
AcDbEntity
  8
DRAW2
100
AcDbLine
 10
-48.45098281651735
 20
63.79548510245126
 30
0.0
 11
-47.81574165821075
 21
63.63536467484277
 31
0.0
  0
LINE
  5
5410
330
18
100
AcDbEntity
  8
DRAW2
100
AcDbLine
 10
-48.61825207620859
 20
63.06657990149301
 30
0.0
 11
-47.25718280673027
 21
62.70923515490335
 31
0.0
  0
LINE
  5
5411
330
18
100
AcDbEntity
  8
DRAW2
100
AcDbLine
 10
-47.81574165821075
 20
63.63536467484277
 30
0.0
 11
-46.62859408557415
 21
63.2986356847648
 31
0.0
  0
LINE
  5
5412
330
18
100
AcDbEntity
  8
DRAW2
100
AcDbLine
 10
-53.325634136796
 20
64.4687195651893
 30
0.0
 11
-52.25009067356586
 21
63.9433865778808
 31
0.0
  0
LINE
  5
5415
330
18
100
AcDbEntity
  8
DRAW2
100
AcDbLine
 10
-55.0
 20
61.28202963931641
 30
0.0
 11
-54.50000061094761
 21
61.78203119724492
 31
0.0
  0
ARC
  5
5416
330
18
100
AcDbEntity
  8
DRAW2
100
AcDbCircle
 10
-50.0
 20
67.8858984166958
 30
0.0
 40
5.0
100
AcDbArc
 50
211.3840018898324
 51
233.1301023541624
  0
LINE
  5
5417
330
18
100
AcDbEntity
  8
DRAW2
100
AcDbLine
 10
-53.75154657661915
 20
64.69237854412836
 30
0.0
 11
-53.325634136796
 21
64.4687195651893
 31
0.0
  0
LINE
  5
5418
330
18
100
AcDbEntity
  8
DRAW2
100
AcDbLine
 10
-50.6034425124526
 20
62.8803526394729
 30
0.0
 11
-52.25009067356586
 21
63.9433865778808
 31
0.0
  0
LINE
  5
541A
330
18
100
AcDbEntity
  8
DRAW2
100
AcDbLine
 10
-54.2079765945673
 20
65.18535365990442
 30
0.0
 11
-48.45098251928494
 21
63.79548578328786
 31
0.0
  0
LINE
  5
541B
330
18
100
AcDbEntity
  8
DRAW2
100
AcDbLine
 10
-48.87378557026386
 20
61.99745511344713
 30
0.0
 11
-50.6034425124526
 21
62.8803526394729
 31
0.0
  0
LINE
  5
541C
330
18
100
AcDbEntity
  8
DRAW2
100
AcDbLine
 10
-52.25008975411947
 20
63.94338807420808
 30
0.0
 11
-48.61825207375023
 21
63.06657936841543
 31
0.0
  0
LINE
  5
541F
330
18
100
AcDbEntity
  8
DRAW2
100
AcDbLine
 10
-55.0
 20
77.2820343606835
 30
0.0
 11
-54.50000061094761
 21
76.782032802755
 31
0.0
  0
LINE
  5
5421
330
18
100
AcDbEntity
  8
DRAW2
100
AcDbLine
 10
-38.32514683696809
 20
58.74227774955238
 30
0.0
 11
-45.49902108687729
 21
60.39849712099112
 31
0.0
  0
LINE
  5
5422
330
18
100
AcDbEntity
  8
DRAW2
100
AcDbLine
 10
-41.7908040471375
 20
60.45576980046075
 30
0.0
 11
-41.15470653772354
 21
59.98979558876794
 31
0.0
  0
LINE
  5
5423
330
18
100
AcDbEntity
  8
DRAW2
100
AcDbLine
 10
-41.83480671048164
 20
61.18146380118173
 30
0.0
 11
-41.20726991817355
 21
60.67392280033868
 31
0.0
  0
ARC
  5
5424
330
18
100
AcDbEntity
  8
DRAW2
100
AcDbCircle
 10
-40.64991791672809
 20
79.48342732399158
 30
0.0
 40
19.3233336495233
100
AcDbArc
 50
244.8118216837298
 51
254.8502937645154
  0
LINE
  5
5425
330
18
100
AcDbEntity
  8
DRAW2
100
AcDbLine
 10
-47.25718280673027
 20
62.70923515490335
 30
0.0
 11
-45.94456652551889
 21
62.306810670412
 31
0.0
  0
LINE
  5
5426
330
18
100
AcDbEntity
  8
DRAW2
100
AcDbLine
 10
-45.94456652551889
 20
62.306810670412
 30
0.0
 11
-44.71272478252649
 21
61.86920081905168
 31
0.0
  0
LINE
  5
5427
330
18
100
AcDbEntity
  8
DRAW2
100
AcDbLine
 10
-45.49081685394049
 20
62.92561491659921
 30
0.0
 11
-44.42510256916285
 21
62.52297809056085
 31
0.0
  0
ARC
  5
5428
330
18
100
AcDbEntity
  8
DRAW2
100
AcDbCircle
 10
-51.06501307127974
 20
39.20806337968315
 30
0.0
 40
22.27922415009085
100
AcDbArc
 50
66.40506368093318
 51
76.06555078711787
  0
LINE
  5
5429
330
18
100
AcDbEntity
  8
DRAW2
100
AcDbLine
 10
-44.71272478252649
 20
61.86920081905168
 30
0.0
 11
-43.59198889136314
 21
61.40718659094614
 31
0.0
  0
LINE
  5
542A
330
18
100
AcDbEntity
  8
DRAW2
100
AcDbLine
 10
-44.42510256916285
 20
62.52297809056085
 30
0.0
 11
-43.45089864358306
 21
62.09654411009592
 31
0.0
  0
LINE
  5
542B
330
18
100
AcDbEntity
  8
DRAW2
100
AcDbLine
 10
-46.62859408557415
 20
63.2986356847648
 30
0.0
 11
-45.49081685394049
 21
62.92561491659921
 31
0.0
  0
LINE
  5
542C
330
18
100
AcDbEntity
  8
DRAW2
100
AcDbLine
 10
-43.59198889136314
 20
61.40718659094614
 30
0.0
 11
-42.60995487123728
 21
60.93214502266687
 31
0.0
  0
LINE
  5
542D
330
18
100
AcDbEntity
  8
DRAW2
100
AcDbLine
 10
-42.60995487123728
 20
60.93214502266687
 30
0.0
 11
-41.7908040471375
 21
60.45576980046075
 31
0.0
  0
LINE
  5
542E
330
18
100
AcDbEntity
  8
DRAW2
100
AcDbLine
 10
-43.45089864358306
 20
62.09654411009592
 30
0.0
 11
-42.5839677117765
 21
61.65000473789018
 31
0.0
  0
LINE
  5
542F
330
18
100
AcDbEntity
  8
DRAW2
100
AcDbLine
 10
-42.5839677117765
 20
61.65000473789018
 30
0.0
 11
-41.83480671048164
 21
61.18146380118173
 31
0.0
  0
ARC
  5
5430
330
18
100
AcDbEntity
  8
DRAW2
100
AcDbCircle
 10
-41.0
 20
79.88589841669579
 30
0.0
 40
19.99999999999996
100
AcDbArc
 50
233.1301023541624
 51
257.0000000000026
  0
ARC
  5
5431
330
18
100
AcDbEntity
  8
DRAW2
100
AcDbCircle
 10
-41.0
 20
79.88589841669579
 30
0.0
 40
19.99999999999996
100
AcDbArc
 50
233.1301023541624
 51
257.0000000000026
  0
ARC
  5
5432
330
18
100
AcDbEntity
  8
DRAW2
100
AcDbCircle
 10
-39.0
 20
55.8191675551966
 30
0.0
 40
3.00000000000003
100
AcDbArc
 50
0.0
 51
77.00000000000271
  0
LINE
  5
5433
330
18
100
AcDbEntity
  8
DRAW2
100
AcDbLine
 10
-36.0
 20
55.8191675551966
 30
0.0
 11
-36.0
 21
-55.81916655519671
 31
0.0
  0
LINE
  5
5434
330
18
100
AcDbEntity
  8
DRAW2
100
AcDbLine
 10
-54.50000061094761
 20
-7.500000802755039
 30
0.0
 11
-54.50000061094761
 21
7.500000802755039
 31
0.0
  0
LINE
  5
5438
330
18
100
AcDbEntity
  8
DRAW2
100
AcDbLine
 10
-55.0
 20
-8.000002360683538
 30
0.0
 11
-54.50000061094761
 21
-7.500000802755039
 31
0.0
  0
LINE
  5
543E
330
18
100
AcDbEntity
  8
DRAW2
100
AcDbLine
 10
-55.0
 20
8.000002360683538
 30
0.0
 11
-54.50000061094761
 21
7.500000802755039
 31
0.0
  0
LINE
  5
543F
330
18
100
AcDbEntity
  8
DRAW2
100
AcDbLine
 10
-41.15470653772354
 20
-59.98979458876807
 30
0.0
 11
-41.7908040471375
 21
-60.45576880046088
 31
0.0
  0
LINE
  5
5440
330
18
100
AcDbEntity
  8
DRAW2
100
AcDbLine
 10
-45.49902108687729
 20
-60.39849612099101
 30
0.0
 11
-38.32514683696809
 21
-58.74227674955239
 31
0.0
  0
LINE
  5
5441
330
18
100
AcDbEntity
  8
DRAW2
100
AcDbLine
 10
-41.19680604338646
 20
-60.66389704414564
 30
0.0
 11
-41.801972001791
 21
-61.15828404494482
 31
0.0
  0
LINE
  5
5442
330
18
100
AcDbEntity
  8
DRAW2
100
AcDbLine
 10
-41.7908040471375
 20
-60.45576880046088
 30
0.0
 11
-42.60995487123728
 21
-60.93214402266699
 31
0.0
  0
ARC
  5
5443
330
18
100
AcDbEntity
  8
DRAW2
100
AcDbCircle
 10
-50.30899996406152
 20
-41.4539055022359
 30
0.0
 40
19.91834971652185
100
AcDbArc
 50
283.3794427096829
 51
294.1696857621094
  0
LINE
  5
5444
330
18
100
AcDbEntity
  8
DRAW2
100
AcDbLine
 10
-41.801972001791
 20
-61.15828404494482
 30
0.0
 11
-42.59005530178547
 21
-61.65343473025519
 31
0.0
  0
LINE
  5
5445
330
18
100
AcDbEntity
  8
DRAW2
100
AcDbLine
 10
-42.59005530178547
 20
-61.65343473025519
 30
0.0
 11
-43.48931150883436
 21
-62.11466664739806
 31
0.0
  0
LINE
  5
5446
330
18
100
AcDbEntity
  8
DRAW2
100
AcDbLine
 10
-43.59198889136314
 20
-61.40718559094626
 30
0.0
 11
-44.71272478252649
 21
-61.8691998190518
 31
0.0
  0
LINE
  5
5447
330
18
100
AcDbEntity
  8
DRAW2
100
AcDbLine
 10
-43.48931150883436
 20
-62.11466664739806
 30
0.0
 11
-44.48615355789661
 21
-62.54766086407858
 31
0.0
  0
LINE
  5
5448
330
18
100
AcDbEntity
  8
DRAW2
100
AcDbLine
 10
-47.25718280673027
 20
-62.70923415490347
 30
0.0
 11
-48.61825207620859
 21
-63.06657890149313
 31
0.0
  0
LINE
  5
5449
330
18
100
AcDbEntity
  8
DRAW2
100
AcDbLine
 10
-47.9079602882266
 20
-63.65945140191275
 30
0.0
 11
-48.45098281651735
 21
-63.79548410245138
 31
0.0
  0
LINE
  5
544A
330
18
100
AcDbEntity
  8
DRAW2
100
AcDbLine
 10
-45.94456652551889
 20
-62.30680967041212
 30
0.0
 11
-47.25718280673027
 21
-62.70923415490347
 31
0.0
  0
LINE
  5
544B
330
18
100
AcDbEntity
  8
DRAW2
100
AcDbLine
 10
-45.56735946238041
 20
-62.95241365500647
 30
0.0
 11
-46.71502082049847
 21
-63.32487562962729
 31
0.0
  0
LINE
  5
544C
330
18
100
AcDbEntity
  8
DRAW2
100
AcDbLine
 10
-46.71502082049847
 20
-63.32487562962729
 30
0.0
 11
-47.9079602882266
 21
-63.65945140191275
 31
0.0
  0
LINE
  5
544D
330
18
100
AcDbEntity
  8
DRAW2
100
AcDbLine
 10
-44.71272478252649
 20
-61.8691998190518
 30
0.0
 11
-45.94456652551889
 21
-62.30680967041212
 31
0.0
  0
LINE
  5
544E
330
18
100
AcDbEntity
  8
DRAW2
100
AcDbLine
 10
-44.48615355789661
 20
-62.54766086407858
 30
0.0
 11
-45.56735946238041
 21
-62.95241365500647
 31
0.0
  0
LINE
  5
544F
330
18
100
AcDbEntity
  8
DRAW2
100
AcDbLine
 10
-42.60995487123728
 20
-60.93214402266699
 30
0.0
 11
-43.59198889136314
 21
-61.40718559094626
 31
0.0
  0
ARC
  5
5450
330
18
100
AcDbEntity
  8
DRAW2
100
AcDbCircle
 10
-40.60586015121498
 20
-79.60337241961872
 30
0.0
 40
19.45062852811019
100
AcDbArc
 50
105.1826381450161
 51
115.1552464067489
  0
LINE
  5
5451
330
18
100
AcDbEntity
  8
DRAW2
100
AcDbLine
 10
-48.45098251929221
 20
-63.79548478331139
 30
0.0
 11
-54.2079765945673
 21
-65.18535265990454
 31
0.0
  0
ARC
  5
5452
330
18
100
AcDbEntity
  8
DRAW2
100
AcDbCircle
 10
-41.0
 20
-79.8858974166958
 30
0.0
 40
20.00000000000004
100
AcDbArc
 50
102.9999999999972
 51
126.8698976458374
  0
ARC
  5
5453
330
18
100
AcDbEntity
  8
DRAW2
100
AcDbCircle
 10
-41.0
 20
-79.8858974166958
 30
0.0
 40
20.00000000000004
100
AcDbArc
 50
102.9999999999972
 51
126.8698976458374
  0
LINE
  5
5454
330
18
100
AcDbEntity
  8
DRAW2
100
AcDbLine
 10
-48.61825207375023
 20
-63.06657836841555
 30
0.0
 11
-52.25008975416312
 21
-63.94338707424049
 31
0.0
  0
LINE
  5
5455
330
18
100
AcDbEntity
  8
DRAW2
100
AcDbLine
 10
-50.62186314165592
 20
-62.89096871682364
 30
0.0
 11
-48.87378557026386
 21
-61.99745411344725
 31
0.0
  0
LINE
  5
5456
330
18
100
AcDbEntity
  8
DRAW2
100
AcDbLine
 10
-40.5347660779953
 20
-59.25240690180022
 30
0.0
 11
-40.71732532605529
 21
-59.54569155641753
 31
0.0
  0
LINE
  5
5457
330
18
100
AcDbEntity
  8
DRAW2
100
AcDbLine
 10
-40.71732532605529
 20
-59.54569155641753
 30
0.0
 11
-41.15470653772354
 21
-59.98979458876807
 31
0.0
  0
LINE
  5
5458
330
18
100
AcDbEntity
  8
DRAW2
100
AcDbLine
 10
-40.56317234784365
 20
-59.78527615138251
 30
0.0
 11
-40.80634160339832
 21
-60.21789038845259
 31
0.0
  0
LINE
  5
5459
330
18
100
AcDbEntity
  8
DRAW2
100
AcDbLine
 10
-40.80634160339832
 20
-60.21789038845259
 30
0.0
 11
-41.19680604338646
 21
-60.66389704414564
 31
0.0
  0
ARC
  5
545A
330
18
100
AcDbEntity
  8
DRAW2
100
AcDbCircle
 10
-39.0
 20
-55.81916655519671
 30
0.0
 40
3.00000000000003
100
AcDbArc
 50
282.9999999999973
 51
0.0
  0
LINE
  5
545B
330
18
100
AcDbEntity
  8
DRAW2
100
AcDbLine
 10
-54.50000061094761
 20
-76.782032802755
 30
0.0
 11
-54.50000061094761
 21
-61.78203119724492
 31
0.0
  0
LINE
  5
545F
330
18
100
AcDbEntity
  8
DRAW2
100
AcDbLine
 10
-55.0
 20
-77.2820343606835
 30
0.0
 11
-54.50000061094761
 21
-76.782032802755
 31
0.0
  0
LINE
  5
5460
330
18
100
AcDbEntity
  8
DRAW2
100
AcDbLine
 10
-52.25008975416312
 20
-63.94338707424049
 30
0.0
 11
-53.9122346272178
 21
-64.77231102451092
 31
0.0
  0
LINE
  5
5464
330
18
100
AcDbEntity
  8
DRAW2
100
AcDbLine
 10
-55.0
 20
-61.28202963931641
 30
0.0
 11
-54.50000061094761
 21
-61.78203119724492
 31
0.0
  0
ARC
  5
5465
330
18
100
AcDbEntity
  8
DRAW2
100
AcDbCircle
 10
-50.0
 20
-67.88589741669579
 30
0.0
 40
5.000000000000079
100
AcDbArc
 50
126.8698976458374
 51
148.616145762939
  0
LINE
  5
5466
330
18
100
AcDbEntity
  8
DRAW2
100
AcDbLine
 10
-52.25009067356586
 20
-63.94338557788092
 30
0.0
 11
-50.62186314165592
 21
-62.89096871682364
 31
0.0
  0
ARC
  5
5469
330
18
100
AcDbEntity
  8
DRAW2
100
AcDbCircle
 10
-57.0
 20
-87.99999949999994
 30
0.0
 40
2.0
100
AcDbArc
 50
270.0
 51
0.0
  0
ARC
  5
546A
330
18
100
AcDbEntity
  8
DRAW2
100
AcDbCircle
 10
-63.80000000000018
 20
-88.99999949999994
 30
0.0
 40
1.0
100
AcDbArc
 50
180.0
 51
270.0
  0
LINE
  5
546B
330
18
100
AcDbEntity
  8
DRAW2
100
AcDbLine
 10
-63.80000000000018
 20
-89.99999949999994
 30
0.0
 11
-57.0
 21
-89.99999949999994
 31
0.0
  0
LINE
  5
546C
330
18
100
AcDbEntity
  8
DRAW2
100
AcDbLine
 10
-66.0
 20
-65.28205200000002
 30
0.0
 11
-66.0
 21
-3.999989999999911
 31
0.0
  0
LINE
  5
546D
330
18
100
AcDbEntity
  8
DRAW2
100
AcDbLine
 10
-66.0
 20
3.999979999999936
 30
0.0
 11
-66.0
 21
65.28204199999994
 31
0.0
  0
LINE
  5
546E
330
18
100
AcDbEntity
  8
DRAW2
100
AcDbLine
 10
66.00000000000045
 20
-65.28205200000002
 30
0.0
 11
66.0
 21
-3.999989999999911
 31
0.0
  0
LINE
  5
6A39
330
18
100
AcDbEntity
  8
DRAW2
100
AcDbLine
 10
488.0000000000001
 20
-143.0
 30
0.0
 11
412.0000000000002
 21
-143.0000000000002
 31
0.0
  0
LINE
  5
6A3D
330
18
100
AcDbEntity
  8
DRAW2
100
AcDbLine
 10
410.9999999999999
 20
-90.0
 30
0.0
 11
488.9999999999999
 21
-90.0
 31
0.0
  0
LINE
  5
6A3E
330
18
100
AcDbEntity
  8
DRAW2
100
AcDbLine
 10
411.0
 20
-142.0000000000001
 30
0.0
 11
411.0
 21
-99.50000000000001
 31
0.0
  0
ARC
  5
6A3F
330
18
100
AcDbEntity
  8
DRAW2
100
AcDbCircle
 10
412.0
 20
-142.0
 30
0.0
 40
1.0
100
AcDbArc
 50
180.0
 51
270.0
  0
LINE
  5
6A40
330
18
100
AcDbEntity
  8
DRAW2
100
AcDbLine
 10
411.5
 20
-99.0
 30
0.0
 11
411.0
 21
-99.50000000000001
 31
0.0
  0
LINE
  5
6A41
330
18
100
AcDbEntity
  8
DRAW2
100
AcDbLine
 10
410.9999999999999
 20
-90.0
 30
0.0
 11
410.9999999999999
 21
-99.0
 31
0.0
  0
LINE
  5
6A42
330
18
100
AcDbEntity
  8
DRAW2
100
AcDbLine
 10
489.0
 20
-141.9999999999998
 30
0.0
 11
488.9999999999999
 21
-99.50000000000001
 31
0.0
  0
LINE
  5
6A43
330
18
100
AcDbEntity
  8
DRAW2
100
AcDbLine
 10
470.0
 20
-135.0
 30
0.0
 11
470.0000000000001
 21
-107.0
 31
0.0
  0
LINE
  5
6A44
330
18
100
AcDbEntity
  8
DRAW2
100
AcDbLine
 10
465.0
 20
-129.0
 30
0.0
 11
465.0
 21
-113.0
 31
0.0
  0
LINE
  5
6A45
330
18
100
AcDbEntity
  8
DRAW2
100
AcDbLine
 10
426.9009032258063
 20
-132.9990967741936
 30
0.0
 11
426.9009032258064
 21
-109.0009032258064
 31
0.0
  0
LINE
  5
6A46
330
18
100
AcDbEntity
  8
DRAW2
100
AcDbLine
 10
425.0
 20
-135.0
 30
0.0
 11
425.0
 21
-107.0
 31
0.0
  0
CIRCLE
  5
6A47
330
18
100
AcDbEntity
  8
DRAW2
100
AcDbCircle
 10
450.0
 20
-121.0
 30
0.0
 40
14.0
  0
LINE
  5
6A48
330
18
100
AcDbEntity
  8
DRAW2
100
AcDbLine
 10
428.0
 20
-138.0
 30
0.0
 11
467.0
 21
-138.0
 31
0.0
  0
LINE
  5
6A49
330
18
100
AcDbEntity
  8
DRAW2
100
AcDbLine
 10
430.072000000003
 20
-132.8999999999999
 30
0.0
 11
442.625042373003
 21
-132.9
 31
0.0
  0
LINE
  5
6A4A
330
18
100
AcDbEntity
  8
DRAW3
100
AcDbLine
 10
425.7014193548386
 20
-134.1985806451614
 30
0.0
 11
439.1
 21
-133.779875
 31
0.0
  0
LINE
  5
6A4B
330
18
100
AcDbEntity
  8
DRAW2
100
AcDbLine
 10
426.9009032258064
 20
-132.9990967741936
 30
0.0
 11
424.9999999999999
 21
-134.9
 31
0.0
  0
LINE
  5
6A4C
330
18
100
AcDbEntity
  8
DRAW2
100
AcDbLine
 10
426.9009032258064
 20
-132.9990967741936
 30
0.0
 11
430.072000000003
 21
-132.8999999999999
 31
0.0
  0
ARC
  5
6A4D
330
18
100
AcDbEntity
  8
DRAW2
100
AcDbCircle
 10
428.0
 20
-135.0
 30
0.0
 40
3.0
100
AcDbArc
 50
180.0
 51
270.0
  0
LINE
  5
6A4E
330
18
100
AcDbEntity
  8
DRAW2
100
AcDbLine
 10
439.1
 20
-133.779875
 30
0.0
 11
439.1
 21
-129.7857839718491
 31
0.0
  0
LINE
  5
6A4F
330
18
100
AcDbEntity
  8
DRAW3
100
AcDbLine
 10
439.1
 20
-133.779875
 30
0.0
 11
440.6239882043096
 21
-132.9
 31
0.0
  0
ARC
  5
6A50
330
18
100
AcDbEntity
  8
DRAW2
100
AcDbCircle
 10
467.0
 20
-135.0
 30
0.0
 40
3.0
100
AcDbArc
 50
270.0
 51
0.0
  0
ARC
  5
6A51
330
18
100
AcDbEntity
  8
DRAW2
100
AcDbCircle
 10
462.0
 20
-129.0
 30
0.0
 40
3.0
100
AcDbArc
 50
270.0
 51
0.0
  0
LINE
  5
6A52
330
18
100
AcDbEntity
  8
DRAW2
100
AcDbLine
 10
458.6602540378443
 20
-132.0
 30
0.0
 11
462.0
 21
-132.0
 31
0.0
  0
ARC
  5
6A53
330
18
100
AcDbEntity
  8
DRAW2
100
AcDbCircle
 10
488.0000000000001
 20
-141.9999999999997
 30
0.0
 40
1.0
100
AcDbArc
 50
270.0
 51
0.0000000000065138
  0
LINE
  5
6A54
330
18
100
AcDbEntity
  8
DRAW2
100
AcDbLine
 10
428.0
 20
-104.0
 30
0.0
 11
467.0
 21
-104.0
 31
0.0
  0
LINE
  5
6A55
330
18
100
AcDbEntity
  8
DRAW2
100
AcDbLine
 10
430.0719999999995
 20
-109.0999999999999
 30
0.0
 11
442.6250423730031
 21
-109.1
 31
0.0
  0
LINE
  5
6A56
330
18
100
AcDbEntity
  8
DRAW3
100
AcDbLine
 10
425.7014193548386
 20
-107.8014193548385
 30
0.0
 11
439.1
 21
-108.220125
 31
0.0
  0
LINE
  5
6A5A
330
18
100
AcDbEntity
  8
DRAW2
100
AcDbLine
 10
425.0
 20
-107.0999999999999
 30
0.0
 11
426.9009032258064
 21
-109.0009032258064
 31
0.0
  0
LINE
  5
6A5B
330
18
100
AcDbEntity
  8
DRAW2
100
AcDbLine
 10
426.9009032258064
 20
-109.0009032258064
 30
0.0
 11
430.0719999999995
 21
-109.0999999999999
 31
0.0
  0
ARC
  5
6A5C
330
18
100
AcDbEntity
  8
DRAW2
100
AcDbCircle
 10
428.0
 20
-107.0
 30
0.0
 40
3.0
100
AcDbArc
 50
90.0
 51
180.0
  0
LINE
  5
6A5D
330
18
100
AcDbEntity
  8
DRAW2
100
AcDbLine
 10
439.1
 20
-112.2142160281509
 30
0.0
 11
439.1
 21
-108.220125
 31
0.0
  0
LINE
  5
6A5E
330
18
100
AcDbEntity
  8
DRAW3
100
AcDbLine
 10
439.1
 20
-108.220125
 30
0.0
 11
440.6239882043096
 21
-109.1
 31
0.0
  0
ARC
  5
6A5F
330
18
100
AcDbEntity
  8
DRAW2
100
AcDbCircle
 10
467.0
 20
-107.0
 30
0.0
 40
3.0
100
AcDbArc
 50
0.0
 51
90.0
  0
LINE
  5
6A60
330
18
100
AcDbEntity
  8
DRAW2
100
AcDbLine
 10
458.6602540378445
 20
-110.0
 30
0.0
 11
462.0
 21
-110.0
 31
0.0
  0
ARC
  5
6A61
330
18
100
AcDbEntity
  8
DRAW2
100
AcDbCircle
 10
462.0
 20
-113.0
 30
0.0
 40
3.0
100
AcDbArc
 50
0.0
 51
90.0
  0
LINE
  5
6A65
330
18
100
AcDbEntity
  8
DRAW2
100
AcDbLine
 10
488.9999999999999
 20
-99.50000000000001
 30
0.0
 11
488.4999999999999
 21
-99.0
 31
0.0
  0
LINE
  5
6A66
330
18
100
AcDbEntity
  8
DRAW2
100
AcDbLine
 10
488.9999999999999
 20
-90.0
 30
0.0
 11
488.9999999999999
 21
-99.0
 31
0.0
  0
ARC
  5
6A67
330
18
100
AcDbEntity
  8
DRAW2
100
AcDbCircle
 10
421.9999999999999
 20
-87.0
 30
0.0
 40
3.0
100
AcDbArc
 50
270.0
 51
0.0
  0
LINE
  5
6A68
330
18
100
AcDbEntity
  8
DRAW2
100
AcDbLine
 10
424.9999999999999
 20
-87.0
 30
0.0
 11
424.9999999999999
 21
-86.4580699999999
 31
0.0
  0
ARC
  5
6A69
330
18
100
AcDbEntity
  8
DRAW2
100
AcDbCircle
 10
477.9999999999999
 20
-87.0
 30
0.0
 40
3.0
100
AcDbArc
 50
180.0
 51
270.0
  0
LINE
  5
6A6A
330
18
100
AcDbEntity
  8
DRAW2
100
AcDbLine
 10
474.9999999999999
 20
-87.0
 30
0.0
 11
474.9999999999999
 21
-86.4580699999999
 31
0.0
  0
LINE
  5
6A6B
330
18
100
AcDbEntity
  8
DRAW2
100
AcDbLine
 10
370.0
 20
-161.0
 30
0.0
 11
530.0
 21
-161.0
 31
0.0
  0
LINE
  5
6A6C
330
18
100
AcDbEntity
  8
DRAW2
100
AcDbLine
 10
360.0
 20
-143.0
 30
0.0
 11
540.0
 21
-143.0
 31
0.0
  0
LINE
  5
6A70
330
18
100
AcDbEntity
  8
DRAW2
100
AcDbLine
 10
394.138795
 20
-165.2999999999999
 30
0.0
 11
365.8612049999999
 21
-165.2999999999999
 31
0.0
  0
LINE
  5
6A72
330
18
100
AcDbEntity
  8
DRAW2
100
AcDbLine
 10
376.6250149999999
 20
-133.2999999999999
 30
0.0
 11
383.374985
 21
-133.2999999999999
 31
0.0
  0
LINE
  5
6A74
330
18
100
AcDbEntity
  8
DRAW2
100
AcDbLine
 10
384.000005
 20
-133.9250199999999
 30
0.0
 11
376.0000049999999
 21
-133.9250199999999
 31
0.0
  0
ARC
  5
6A78
330
18
100
AcDbEntity
  8
DRAW2
100
AcDbCircle
 10
365.8612049999999
 20
-164.29997
 30
0.0
 40
1.0
100
AcDbArc
 50
188.5308899999953
 51
270.0000399999975
  0
LINE
  5
6A79
330
18
100
AcDbEntity
  8
DRAW2
100
AcDbLine
 10
370.0
 20
-161.0
 30
0.0
 11
360.0
 21
-151.0
 31
0.0
  0
LINE
  5
6A7A
330
18
100
AcDbEntity
  8
DRAW2
100
AcDbLine
 10
364.8720949999999
 20
-164.4483299999999
 30
0.0
 11
363.3586423529421
 21
-154.3586423529421
 31
0.0
  0
LINE
  5
6A7B
330
18
100
AcDbEntity
  8
DRAW2
100
AcDbLine
 10
360.0
 20
-143.0
 30
0.0
 11
360.0
 21
-151.0
 31
0.0
  0
LINE
  5
6A7F
330
18
100
AcDbEntity
  8
DRAW2
100
AcDbLine
 10
376.625065
 20
-133.29993
 30
0.0
 11
376.000065
 21
-133.92493
 31
0.0
  0
LINE
  5
6A80
330
18
100
AcDbEntity
  8
DRAW3
100
AcDbLine
 10
376.625005
 20
-133.2999999999999
 30
0.0
 11
376.625005
 21
-134.9999999999998
 31
0.0
  0
LINE
  5
6A81
330
18
100
AcDbEntity
  8
DRAW2
100
AcDbLine
 10
376.0000049999999
 20
-133.9250199999999
 30
0.0
 11
376.0000049999999
 21
-134.9999999999998
 31
0.0
  0
ARC
  5
6A89
330
18
100
AcDbEntity
  8
DRAW2
100
AcDbCircle
 10
394.1387749999999
 20
-164.29997
 30
0.0
 40
1.0
100
AcDbArc
 50
270.0000399999975
 51
351.4691800000016
  0
LINE
  5
6A8A
330
18
100
AcDbEntity
  8
DRAW2
100
AcDbLine
 10
395.1276249999998
 20
-164.4483
 30
0.0
 11
395.6448679999882
 21
-161.0
 31
0.0
  0
LINE
  5
6A8C
330
18
100
AcDbEntity
  8
DRAW2
100
AcDbLine
 10
384.000005
 20
-133.9250199999999
 30
0.0
 11
384.000005
 21
-134.9999999999998
 31
0.0
  0
LINE
  5
6A8E
330
18
100
AcDbEntity
  8
DRAW3
100
AcDbLine
 10
383.374985
 20
-133.2999999999999
 30
0.0
 11
383.374985
 21
-134.9999999999998
 31
0.0
  0
LINE
  5
6A90
330
18
100
AcDbEntity
  8
DRAW2
100
AcDbLine
 10
383.375035
 20
-133.29994
 30
0.0
 11
384.000035
 21
-133.9249399999999
 31
0.0
  0
LINE
  5
6A92
330
18
100
AcDbEntity
  8
DRAW2
100
AcDbLine
 10
515.999995
 20
-133.9250199999999
 30
0.0
 11
523.999995
 21
-133.9250199999999
 31
0.0
  0
LINE
  5
6A94
330
18
100
AcDbEntity
  8
DRAW2
100
AcDbLine
 10
523.374985
 20
-133.2999999999999
 30
0.0
 11
516.6250149999999
 21
-133.2999999999999
 31
0.0
  0
LINE
  5
6A98
330
18
100
AcDbEntity
  8
DRAW2
100
AcDbLine
 10
505.8612049999999
 20
-165.2999999999999
 30
0.0
 11
534.138795
 21
-165.2999999999999
 31
0.0
  0
ARC
  5
6A9F
330
18
100
AcDbEntity
  8
DRAW2
100
AcDbCircle
 10
505.8612250000001
 20
-164.29997
 30
0.0
 40
1.0
100
AcDbArc
 50
188.5308199999983
 51
269.9999599999959
  0
LINE
  5
6AA0
330
18
100
AcDbEntity
  8
DRAW2
100
AcDbLine
 10
504.8723750000001
 20
-164.4483
 30
0.0
 11
504.3551320000117
 21
-161.0
 31
0.0
  0
LINE
  5
6AA1
330
18
100
AcDbEntity
  8
DRAW2
100
AcDbLine
 10
516.624965
 20
-133.29994
 30
0.0
 11
515.9999649999999
 21
-133.9249399999999
 31
0.0
  0
LINE
  5
6AA2
330
18
100
AcDbEntity
  8
DRAW3
100
AcDbLine
 10
516.6250149999999
 20
-133.2999999999999
 30
0.0
 11
516.6250149999999
 21
-134.9999999999998
 31
0.0
  0
LINE
  5
6AA3
330
18
100
AcDbEntity
  8
DRAW2
100
AcDbLine
 10
515.999995
 20
-133.9250199999999
 30
0.0
 11
515.999995
 21
-134.9999999999998
 31
0.0
  0
LINE
  5
6AA9
330
18
100
AcDbEntity
  8
DRAW2
100
AcDbLine
 10
535.127905
 20
-164.4483299999999
 30
0.0
 11
536.6413576470578
 21
-154.3586423529421
 31
0.0
  0
LINE
  5
6AAA
330
18
100
AcDbEntity
  8
DRAW2
100
AcDbLine
 10
530.0
 20
-161.0
 30
0.0
 11
540.0
 21
-151.0
 31
0.0
  0
ARC
  5
6AAE
330
18
100
AcDbEntity
  8
DRAW2
100
AcDbCircle
 10
534.138795
 20
-164.29997
 30
0.0
 40
1.0
100
AcDbArc
 50
269.9999599999959
 51
351.4691100000046
  0
LINE
  5
6AAF
330
18
100
AcDbEntity
  8
DRAW2
100
AcDbLine
 10
540.0
 20
-143.0
 30
0.0
 11
540.0
 21
-151.0
 31
0.0
  0
LINE
  5
6AB0
330
18
100
AcDbEntity
  8
DRAW2
100
AcDbLine
 10
523.3749349999999
 20
-133.29993
 30
0.0
 11
523.9999349999999
 21
-133.92493
 31
0.0
  0
LINE
  5
6AB1
330
18
100
AcDbEntity
  8
DRAW3
100
AcDbLine
 10
523.3749949999999
 20
-133.2999999999999
 30
0.0
 11
523.3749949999999
 21
-134.9999999999998
 31
0.0
  0
LINE
  5
6AB2
330
18
100
AcDbEntity
  8
DRAW2
100
AcDbLine
 10
523.999995
 20
-133.9250199999999
 30
0.0
 11
523.999995
 21
-134.9999999999998
 31
0.0
  0
ARC
  5
6B12
330
18
100
AcDbEntity
  8
DRAW2
100
AcDbCircle
 10
416.75
 20
140.7125361000005
 30
0.0
 40
9.3874664
100
AcDbArc
 50
69.74455100000426
 51
110.2554700000031
  0
LINE
  5
6B14
330
18
100
AcDbEntity
  8
DRAW2
100
AcDbLine
 10
413.5
 20
150.1000061000002
 30
0.0
 11
426.5
 21
150.1000061000002
 31
0.0
  0
LINE
  5
6B1A
330
18
100
AcDbEntity
  8
DRAW2
100
AcDbLine
 10
413.5
 20
150.1000061000002
 30
0.0
 11
413.5
 21
144.6000061000002
 31
0.0
  0
LINE
  5
6B1B
330
18
100
AcDbEntity
  8
DRAW2
100
AcDbLine
 10
411.0
 20
142.0000000000002
 30
0.0
 11
411.0
 21
99.50000000000024
 31
0.0
  0
ARC
  5
6B1F
330
18
100
AcDbEntity
  8
DRAW2
100
AcDbCircle
 10
412.0
 20
142.0000000000002
 30
0.0
 40
1.0
100
AcDbArc
 50
90.0
 51
180.0
  0
LINE
  5
6B27
330
18
100
AcDbEntity
  8
DRAW2
100
AcDbLine
 10
426.5
 20
150.1000061000002
 30
0.0
 11
426.5
 21
144.6000061000002
 31
0.0
  0
LINE
  5
6B28
330
18
100
AcDbEntity
  8
DRAW2
100
AcDbLine
 10
420.0000000000001
 20
149.5194661000002
 30
0.0
 11
420.0000000000001
 21
144.6000061000002
 31
0.0
  0
LINE
  5
6B29
330
18
100
AcDbEntity
  8
DRAW2
100
AcDbLine
 10
430.0
 20
135.0000000000002
 30
0.0
 11
430.0
 21
107.0000000000002
 31
0.0
  0
LINE
  5
6B2A
330
18
100
AcDbEntity
  8
DRAW2
100
AcDbLine
 10
435.0
 20
129.0000000000002
 30
0.0
 11
435.0
 21
113.0000000000002
 31
0.0
  0
ARC
  5
6B2B
330
18
100
AcDbEntity
  8
DRAW2
100
AcDbCircle
 10
433.0
 20
107.0000000000002
 30
0.0
 40
3.0
100
AcDbArc
 50
180.0
 51
270.0
  0
ARC
  5
6B2C
330
18
100
AcDbEntity
  8
DRAW2
100
AcDbCircle
 10
438.0
 20
113.0000000000002
 30
0.0
 40
3.0
100
AcDbArc
 50
180.0
 51
270.0
  0
LINE
  5
6B2D
330
18
100
AcDbEntity
  8
DRAW2
100
AcDbLine
 10
441.3397459621556
 20
110.0000000000002
 30
0.0
 11
438.0
 21
110.0000000000002
 31
0.0
  0
ARC
  5
6B32
330
18
100
AcDbEntity
  8
DRAW2
100
AcDbCircle
 10
433.0
 20
135.0000000000002
 30
0.0
 40
3.0
100
AcDbArc
 50
90.0
 51
180.0
  0
LINE
  5
6B33
330
18
100
AcDbEntity
  8
DRAW2
100
AcDbLine
 10
441.3397459621556
 20
132.0000000000002
 30
0.0
 11
438.0
 21
132.0000000000002
 31
0.0
  0
ARC
  5
6B34
330
18
100
AcDbEntity
  8
DRAW2
100
AcDbCircle
 10
438.0
 20
129.0000000000002
 30
0.0
 40
3.0
100
AcDbArc
 50
90.0
 51
180.0
  0
ARC
  5
6B35
330
18
100
AcDbEntity
  8
DRAW2
100
AcDbCircle
 10
423.25
 20
140.7125361000005
 30
0.0
 40
9.3874664
100
AcDbArc
 50
69.74455100000426
 51
110.2554700000031
  0
LINE
  5
6B37
330
18
100
AcDbEntity
  8
DRAW2
100
AcDbLine
 10
489.0
 20
99.50000000000024
 30
0.0
 11
411.0
 21
99.50000000000024
 31
0.0
  0
LINE
  5
6B3A
330
18
100
AcDbEntity
  8
DRAW2
100
AcDbLine
 10
488.0
 20
143.0000000000002
 30
0.0
 11
412.0
 21
143.0000000000002
 31
0.0
  0
CIRCLE
  5
6B41
330
18
100
AcDbEntity
  8
DRAW2
100
AcDbCircle
 10
450.0
 20
121.0000000000002
 30
0.0
 40
14.0
  0
LINE
  5
6B42
330
18
100
AcDbEntity
  8
DRAW2
100
AcDbLine
 10
472.0
 20
138.0000000000002
 30
0.0
 11
433.0
 21
138.0000000000002
 31
0.0
  0
LINE
  5
6B43
330
18
100
AcDbEntity
  8
DRAW2
100
AcDbLine
 10
472.0
 20
104.0000000000002
 30
0.0
 11
433.0
 21
104.0000000000002
 31
0.0
  0
LINE
  5
6B44
330
18
100
AcDbEntity
  8
DRAW2
100
AcDbLine
 10
475.0
 20
135.0000000000002
 30
0.0
 11
475.0
 21
107.0000000000002
 31
0.0
  0
LINE
  5
6B45
330
18
100
AcDbEntity
  8
DRAW2
100
AcDbLine
 10
473.0990967741937
 20
132.9990967741938
 30
0.0
 11
473.0990967741937
 21
109.0009032258067
 31
0.0
  0
LINE
  5
6B46
330
18
100
AcDbEntity
  8
DRAW2
100
AcDbLine
 10
469.9280000000005
 20
109.1000000000002
 30
0.0
 11
457.3749576269969
 21
109.1000000000002
 31
0.0
  0
LINE
  5
6B47
330
18
100
AcDbEntity
  8
DRAW3
100
AcDbLine
 10
474.2985806451613
 20
107.8014193548389
 30
0.0
 11
460.9
 21
108.2201250000002
 31
0.0
  0
LINE
  5
6B48
330
18
100
AcDbEntity
  8
DRAW2
100
AcDbLine
 10
460.9
 20
112.2142160281512
 30
0.0
 11
460.9
 21
108.2201250000002
 31
0.0
  0
LINE
  5
6B49
330
18
100
AcDbEntity
  8
DRAW3
100
AcDbLine
 10
460.9
 20
108.2201250000002
 30
0.0
 11
459.3760117956904
 21
109.1000000000002
 31
0.0
  0
ARC
  5
6B4A
330
18
100
AcDbEntity
  8
DRAW2
100
AcDbCircle
 10
472.0
 20
107.0000000000002
 30
0.0
 40
3.0
100
AcDbArc
 50
270.0
 51
0.0
  0
LINE
  5
6B4B
330
18
100
AcDbEntity
  8
DRAW2
100
AcDbLine
 10
475.0
 20
107.1000000000002
 30
0.0
 11
473.0990967741937
 21
109.0009032258067
 31
0.0
  0
LINE
  5
6B4C
330
18
100
AcDbEntity
  8
DRAW2
100
AcDbLine
 10
473.0990967741937
 20
109.0009032258067
 30
0.0
 11
469.9280000000005
 21
109.1000000000002
 31
0.0
  0
LINE
  5
6B4D
330
18
100
AcDbEntity
  8
DRAW2
100
AcDbLine
 10
469.9279999999969
 20
132.9000000000002
 30
0.0
 11
457.374957626997
 21
132.9000000000003
 31
0.0
  0
LINE
  5
6B4E
330
18
100
AcDbEntity
  8
DRAW3
100
AcDbLine
 10
474.2985806451613
 20
134.1985806451616
 30
0.0
 11
460.9
 21
133.7798750000002
 31
0.0
  0
LINE
  5
6B4F
330
18
100
AcDbEntity
  8
DRAW3
100
AcDbLine
 10
460.9
 20
133.7798750000002
 30
0.0
 11
459.3760117956904
 21
132.9000000000003
 31
0.0
  0
LINE
  5
6B50
330
18
100
AcDbEntity
  8
DRAW2
100
AcDbLine
 10
460.9
 20
133.7798750000002
 30
0.0
 11
460.9
 21
129.7857839718493
 31
0.0
  0
LINE
  5
6B52
330
18
100
AcDbEntity
  8
DRAW2
100
AcDbLine
 10
473.0990967741935
 20
132.9990967741938
 30
0.0
 11
475.0
 21
134.9000000000003
 31
0.0
  0
ARC
  5
6B53
330
18
100
AcDbEntity
  8
DRAW2
100
AcDbCircle
 10
472.0
 20
135.0000000000002
 30
0.0
 40
3.0
100
AcDbArc
 50
0.0
 51
90.0
  0
LINE
  5
6B57
330
18
100
AcDbEntity
  8
DRAW2
100
AcDbLine
 10
473.0990967741935
 20
132.9990967741938
 30
0.0
 11
469.9279999999969
 21
132.9000000000002
 31
0.0
  0
ARC
  5
6B5B
330
18
100
AcDbEntity
  8
DRAW2
100
AcDbCircle
 10
488.0000000000001
 20
142.0000000000002
 30
0.0
 40
1.0
100
AcDbArc
 50
359.9999999999934
 51
90.0
  0
LINE
  5
6B68
330
18
100
AcDbEntity
  8
DRAW2
100
AcDbLine
 10
489.0
 20
142.0000000000002
 30
0.0
 11
489.0
 21
99.50000000000024
 31
0.0
  0
LINE
  5
6D43
330
18
100
AcDbEntity
  8
DRAW2
100
AcDbLine
 10
69.50003500000008
 20
-104.0
 30
0.0
 11
-69.49996499999997
 21
-104.0
 31
0.0
  0
ARC
  5
6D44
330
18
100
AcDbEntity
  8
DRAW2
100
AcDbCircle
 10
-69.49996499999997
 20
-101.0
 30
0.0
 40
3.0
100
AcDbArc
 50
180.0
 51
270.0
  0
LINE
  5
6D45
330
18
100
AcDbEntity
  8
DRAW2
100
AcDbLine
 10
-72.49996499999998
 20
-101.0
 30
0.0
 11
-72.49996499999998
 21
-99.50000000000001
 31
0.0
  0
LINE
  5
6D46
330
18
100
AcDbEntity
  8
DRAW2
100
AcDbLine
 10
-72.99996499999998
 20
-99.0
 30
0.0
 11
-72.49996499999998
 21
-99.50000000000001
 31
0.0
  0
LINE
  5
6D47
330
18
100
AcDbEntity
  8
DRAW2
100
AcDbLine
 10
-121.9999649999999
 20
-99.0
 30
0.0
 11
-122.4999649999999
 21
-99.50000000000001
 31
0.0
  0
LINE
  5
6D48
330
18
100
AcDbEntity
  8
DRAW2
100
AcDbLine
 10
-122.4999649999999
 20
-142.0
 30
0.0
 11
-122.4999649999999
 21
-99.50000000000001
 31
0.0
  0
LINE
  5
6D49
330
18
100
AcDbEntity
  8
DRAW2
100
AcDbLine
 10
-111.4387550000001
 20
-165.2999999999999
 30
0.0
 11
-83.16116500000021
 21
-165.2999999999999
 31
0.0
  0
LINE
  5
6D4A
330
18
100
AcDbEntity
  8
DRAW2
100
AcDbLine
 10
-121.4999649999999
 20
-143.0
 30
0.0
 11
-73.49996499999997
 21
-143.0
 31
0.0
  0
LINE
  5
6D4B
330
18
100
AcDbEntity
  8
DRAW2
100
AcDbLine
 10
-120.0000350000002
 20
-145.2999899999999
 30
0.0
 11
-74.59995500000013
 21
-145.2999899999999
 31
0.0
  0
LINE
  5
6D4C
330
18
100
AcDbEntity
  8
DRAW2
100
AcDbLine
 10
-112.4278350000001
 20
-164.4484
 30
0.0
 11
-115.3000850000003
 21
-145.30011
 31
0.0
  0
LINE
  5
6D4D
330
18
100
AcDbEntity
  8
DRAW2
100
AcDbLine
 10
-119.9999750000001
 20
-161.0000199999999
 30
0.0
 11
-119.9999750000001
 21
-145.2999899999999
 31
0.0
  0
LINE
  5
6D4E
330
18
100
AcDbEntity
  8
DRAW2
100
AcDbLine
 10
-122.2999650000001
 20
-161.0000199999999
 30
0.0
 11
-122.2999650000001
 21
-145.2999899999999
 31
0.0
  0
ARC
  5
6D4F
330
18
100
AcDbEntity
  8
DRAW2
100
AcDbCircle
 10
-111.4387550000001
 20
-164.29997
 30
0.0
 40
1.0
100
AcDbArc
 50
188.5308700000001
 51
270.0000200000019
  0
LINE
  5
6D50
330
18
100
AcDbEntity
  8
DRAW2
100
AcDbLine
 10
-122.3000250000002
 20
-161.0
 30
0.0
 11
-120.0000350000002
 21
-161.0
 31
0.0
  0
ARC
  5
6D51
330
18
100
AcDbEntity
  8
DRAW2
100
AcDbCircle
 10
-119.9999750000001
 20
-145.2999899999999
 30
0.0
 40
2.299999999999999
100
AcDbArc
 50
89.9999820000008
 51
179.9999599999959
  0
ARC
  5
6D52
330
18
100
AcDbEntity
  8
DRAW2
100
AcDbCircle
 10
-121.4999649999999
 20
-142.0
 30
0.0
 40
1.0
100
AcDbArc
 50
180.0
 51
270.0
  0
LINE
  5
6D53
330
18
100
AcDbEntity
  8
DRAW2
100
AcDbLine
 10
-74.59989500000029
 20
-161.0000199999999
 30
0.0
 11
-74.59989500000029
 21
-145.2999899999999
 31
0.0
  0
LINE
  5
6D54
330
18
100
AcDbEntity
  8
DRAW2
100
AcDbLine
 10
-72.29996500000016
 20
-161.0000199999999
 30
0.0
 11
-72.29996500000016
 21
-145.2999899999999
 31
0.0
  0
LINE
  5
6D55
330
18
100
AcDbEntity
  8
DRAW2
100
AcDbLine
 10
-82.17239500000028
 20
-164.4483499999999
 30
0.0
 11
-79.30014500000016
 21
-145.2999999999999
 31
0.0
  0
LINE
  5
6D56
330
18
100
AcDbEntity
  8
DRAW2
100
AcDbLine
 10
-74.59995500000013
 20
-161.0
 30
0.0
 11
-72.29996500000016
 21
-161.0
 31
0.0
  0
ARC
  5
6D57
330
18
100
AcDbEntity
  8
DRAW2
100
AcDbCircle
 10
-83.16116500000021
 20
-164.29997
 30
0.0
 40
1.0
100
AcDbArc
 50
270.0000200000019
 51
351.469159999996
  0
ARC
  5
6D58
330
18
100
AcDbEntity
  8
DRAW2
100
AcDbCircle
 10
-69.49996499999997
 20
-141.0
 30
0.0
 40
3.0
100
AcDbArc
 50
90.0
 51
180.0
  0
LINE
  5
6D59
330
18
100
AcDbEntity
  8
DRAW2
100
AcDbLine
 10
-72.49996499999998
 20
-141.0
 30
0.0
 11
-72.49996499999998
 21
-142.0
 31
0.0
  0
ARC
  5
6D5A
330
18
100
AcDbEntity
  8
DRAW2
100
AcDbCircle
 10
-74.59989500000029
 20
-145.2999899999999
 30
0.0
 40
2.299999999999999
100
AcDbArc
 50
0.0
 51
89.9999820000008
  0
ARC
  5
6D5B
330
18
100
AcDbEntity
  8
DRAW2
100
AcDbCircle
 10
-73.49996499999997
 20
-142.0
 30
0.0
 40
1.0
100
AcDbArc
 50
270.0
 51
0.0
  0
LINE
  5
6D5C
330
18
100
AcDbEntity
  8
DRAW2
100
AcDbLine
 10
69.50003500000008
 20
-138.0
 30
0.0
 11
-69.49996499999997
 21
-138.0
 31
0.0
  0
LINE
  5
6D5D
330
18
100
AcDbEntity
  8
DRAW2
100
AcDbLine
 10
112.427665
 20
-164.4484099999999
 30
0.0
 11
115.2999450000001
 21
-145.3000499999999
 31
0.0
  0
LINE
  5
6D5E
330
18
100
AcDbEntity
  8
DRAW2
100
AcDbLine
 10
119.9999550000001
 20
-161.0000499999999
 30
0.0
 11
119.9999550000001
 21
-145.30002
 31
0.0
  0
LINE
  5
6D5F
330
18
100
AcDbEntity
  8
DRAW2
100
AcDbLine
 10
122.2999150000001
 20
-161.0000499999999
 30
0.0
 11
122.2999150000001
 21
-145.30002
 31
0.0
  0
LINE
  5
6D60
330
18
100
AcDbEntity
  8
DRAW2
100
AcDbLine
 10
72.29991500000022
 20
-161.0000499999999
 30
0.0
 11
72.29991500000022
 21
-145.30002
 31
0.0
  0
LINE
  5
6D61
330
18
100
AcDbEntity
  8
DRAW2
100
AcDbLine
 10
82.1720450000002
 20
-164.4483
 30
0.0
 11
79.29979500000007
 21
-145.29997
 31
0.0
  0
LINE
  5
6D62
330
18
100
AcDbEntity
  8
DRAW2
100
AcDbLine
 10
74.59990500000021
 20
-161.0000499999999
 30
0.0
 11
74.59990500000021
 21
-145.30002
 31
0.0
  0
ARC
  5
6D63
330
18
100
AcDbEntity
  8
DRAW2
100
AcDbCircle
 10
83.1611850000001
 20
-164.2999999999999
 30
0.0
 40
1.0
100
AcDbArc
 50
188.5308700000001
 51
270.0000200000019
  0
LINE
  5
6D64
330
18
100
AcDbEntity
  8
DRAW2
100
AcDbLine
 10
72.29991500000022
 20
-161.0000299999999
 30
0.0
 11
74.59990500000021
 21
-161.0000299999999
 31
0.0
  0
LINE
  5
6D65
330
18
100
AcDbEntity
  8
DRAW2
100
AcDbLine
 10
111.4387450000001
 20
-165.3000299999999
 30
0.0
 11
83.1611850000001
 21
-165.3000299999999
 31
0.0
  0
LINE
  5
6D66
330
18
100
AcDbEntity
  8
DRAW2
100
AcDbLine
 10
119.9999250000002
 20
-161.0000299999999
 30
0.0
 11
122.2999150000001
 21
-161.0000299999999
 31
0.0
  0
ARC
  5
6D67
330
18
100
AcDbEntity
  8
DRAW2
100
AcDbCircle
 10
111.4387450000001
 20
-164.2999999999999
 30
0.0
 40
1.0
100
AcDbArc
 50
270.0000200000019
 51
351.469159999996
  0
LINE
  5
6D68
330
18
100
AcDbEntity
  8
DRAW2
100
AcDbLine
 10
74.59990500000021
 20
-145.30002
 30
0.0
 11
119.9999250000002
 21
-145.30002
 31
0.0
  0
LINE
  5
6D69
330
18
100
AcDbEntity
  8
DRAW2
100
AcDbLine
 10
121.500035
 20
-143.0
 30
0.0
 11
73.50003500000008
 21
-143.0
 31
0.0
  0
LINE
  5
6D6A
330
18
100
AcDbEntity
  8
DRAW2
100
AcDbLine
 10
72.50003500000008
 20
-141.0
 30
0.0
 11
72.50003500000008
 21
-142.0
 31
0.0
  0
ARC
  5
6D6B
330
18
100
AcDbEntity
  8
DRAW2
100
AcDbCircle
 10
69.50003500000008
 20
-141.0
 30
0.0
 40
3.0
100
AcDbArc
 50
0.0
 51
90.0
  0
ARC
  5
6D6C
330
18
100
AcDbEntity
  8
DRAW2
100
AcDbCircle
 10
73.50003500000008
 20
-142.0
 30
0.0
 40
1.0
100
AcDbArc
 50
180.0
 51
270.0
  0
ARC
  5
6D6D
330
18
100
AcDbEntity
  8
DRAW2
100
AcDbCircle
 10
74.59990500000021
 20
-145.30002
 30
0.0
 40
2.299999999999999
100
AcDbArc
 50
89.9999820000008
 51
179.9999599999959
  0
ARC
  5
6D6E
330
18
100
AcDbEntity
  8
DRAW2
100
AcDbCircle
 10
119.9999550000001
 20
-145.30002
 30
0.0
 40
2.299999999999999
100
AcDbArc
 50
0.0
 51
89.9999820000008
  0
ARC
  5
6D6F
330
18
100
AcDbEntity
  8
DRAW2
100
AcDbCircle
 10
121.5000349999999
 20
-142.0
 30
0.0
 40
1.0
100
AcDbArc
 50
270.0
 51
0.0
  0
ARC
  5
6D70
330
18
100
AcDbEntity
  8
DRAW2
100
AcDbCircle
 10
69.50003500000008
 20
-101.0
 30
0.0
 40
3.0
100
AcDbArc
 50
270.0
 51
0.0
  0
LINE
  5
6D71
330
18
100
AcDbEntity
  8
DRAW2
100
AcDbLine
 10
72.50003500000008
 20
-101.0
 30
0.0
 11
72.50003500000008
 21
-99.50000000000001
 31
0.0
  0
LINE
  5
6D72
330
18
100
AcDbEntity
  8
DRAW2
100
AcDbLine
 10
73.00003500000008
 20
-99.0
 30
0.0
 11
72.50003500000008
 21
-99.50000000000001
 31
0.0
  0
LINE
  5
6D73
330
18
100
AcDbEntity
  8
DRAW2
100
AcDbLine
 10
122.500035
 20
-142.0
 30
0.0
 11
122.500035
 21
-99.50000000000001
 31
0.0
  0
LINE
  5
6D74
330
18
100
AcDbEntity
  8
DRAW2
100
AcDbLine
 10
122.000035
 20
-99.0
 30
0.0
 11
122.500035
 21
-99.50000000000001
 31
0.0
  0
LINE
  5
6E28
330
18
100
AcDbEntity
  8
DRAW2
100
AcDbLine
 10
-121.4999649999999
 20
142.9999699999998
 30
0.0
 11
-73.49996499999997
 21
142.9999699999998
 31
0.0
  0
LINE
  5
6E2A
330
18
100
AcDbEntity
  8
DRAW2
100
AcDbLine
 10
-122.4999649999999
 20
141.9999699999998
 30
0.0
 11
-122.4999649999999
 21
99.49997000000008
 31
0.0
  0
ARC
  5
6E2B
330
18
100
AcDbEntity
  8
DRAW2
100
AcDbCircle
 10
-121.4999649999999
 20
141.9999699999998
 30
0.0
 40
1.0
100
AcDbArc
 50
90.0
 51
180.0
  0
ARC
  5
6E3C
330
18
100
AcDbEntity
  8
DRAW2
100
AcDbCircle
 10
-69.49996499999997
 20
140.9999699999998
 30
0.0
 40
3.0
100
AcDbArc
 50
180.0
 51
270.0
  0
ARC
  5
6E3D
330
18
100
AcDbEntity
  8
DRAW2
100
AcDbCircle
 10
-73.49996499999997
 20
141.9999699999998
 30
0.0
 40
1.0
100
AcDbArc
 50
0.0
 51
90.0
  0
LINE
  5
6E3E
330
18
100
AcDbEntity
  8
DRAW2
100
AcDbLine
 10
-72.49996499999998
 20
140.9999699999998
 30
0.0
 11
-72.49996499999998
 21
141.9999699999998
 31
0.0
  0
LINE
  5
6E3F
330
18
100
AcDbEntity
  8
DRAW2
100
AcDbLine
 10
-121.9999649999999
 20
98.99997000000007
 30
0.0
 11
-122.4999649999999
 21
99.49997000000008
 31
0.0
  0
ARC
  5
6E40
330
18
100
AcDbEntity
  8
DRAW2
100
AcDbCircle
 10
-69.49996499999997
 20
100.99997
 30
0.0
 40
3.0
100
AcDbArc
 50
90.0
 51
180.0
  0
LINE
  5
6E41
330
18
100
AcDbEntity
  8
DRAW2
100
AcDbLine
 10
-72.49996499999998
 20
100.99997
 30
0.0
 11
-72.49996499999998
 21
99.49997000000008
 31
0.0
  0
LINE
  5
6E42
330
18
100
AcDbEntity
  8
DRAW2
100
AcDbLine
 10
-72.99996499999998
 20
98.99997000000007
 30
0.0
 11
-72.49996499999998
 21
99.49997000000008
 31
0.0
  0
LINE
  5
6E43
330
18
100
AcDbEntity
  8
DRAW2
100
AcDbLine
 10
69.50003499999997
 20
103.99997
 30
0.0
 11
-69.49996499999997
 21
103.99997
 31
0.0
  0
LINE
  5
6E44
330
18
100
AcDbEntity
  8
DRAW2
100
AcDbLine
 10
69.50003499999997
 20
137.9999699999998
 30
0.0
 11
-69.49996499999997
 21
137.9999699999998
 31
0.0
  0
LINE
  5
6E49
330
18
100
AcDbEntity
  8
DRAW2
100
AcDbLine
 10
121.5000349999999
 20
142.9999699999998
 30
0.0
 11
73.50003499999997
 21
142.9999699999998
 31
0.0
  0
ARC
  5
6E4A
330
18
100
AcDbEntity
  8
DRAW2
100
AcDbCircle
 10
69.50003499999997
 20
140.9999699999998
 30
0.0
 40
3.0
100
AcDbArc
 50
270.0
 51
0.0
  0
LINE
  5
6E4B
330
18
100
AcDbEntity
  8
DRAW2
100
AcDbLine
 10
72.50003499999997
 20
140.9999699999998
 30
0.0
 11
72.50003499999997
 21
141.9999699999998
 31
0.0
  0
ARC
  5
6E4C
330
18
100
AcDbEntity
  8
DRAW2
100
AcDbCircle
 10
73.50003499999997
 20
141.9999699999998
 30
0.0
 40
1.0
100
AcDbArc
 50
90.0
 51
180.0
  0
ARC
  5
6E54
330
18
100
AcDbEntity
  8
DRAW2
100
AcDbCircle
 10
121.5000349999998
 20
141.9999699999998
 30
0.0
 40
1.0
100
AcDbArc
 50
0.0
 51
90.0
  0
LINE
  5
6E5B
330
18
100
AcDbEntity
  8
DRAW2
100
AcDbLine
 10
122.5000349999999
 20
141.9999699999998
 30
0.0
 11
122.5000349999999
 21
99.49997000000008
 31
0.0
  0
LINE
  5
6E5C
330
18
100
AcDbEntity
  8
DRAW2
100
AcDbLine
 10
72.50003499999997
 20
100.99997
 30
0.0
 11
72.50003499999997
 21
99.49997000000008
 31
0.0
  0
LINE
  5
6E5D
330
18
100
AcDbEntity
  8
DRAW2
100
AcDbLine
 10
73.00003499999997
 20
98.99997000000007
 30
0.0
 11
72.50003499999997
 21
99.49997000000008
 31
0.0
  0
ARC
  5
6E5E
330
18
100
AcDbEntity
  8
DRAW2
100
AcDbCircle
 10
69.50003499999997
 20
100.99997
 30
0.0
 40
3.0
100
AcDbArc
 50
0.0
 51
90.0
  0
LINE
  5
6E5F
330
18
100
AcDbEntity
  8
DRAW2
100
AcDbLine
 10
122.0000349999999
 20
98.99997000000007
 30
0.0
 11
122.5000349999999
 21
99.49997000000008
 31
0.0
  0
LINE
  5
6E60
330
18
100
AcDbEntity
  8
DRAW2
100
AcDbLine
 10
-121.9999649999999
 20
98.99997000000007
 30
0.0
 11
-72.99996499999998
 21
98.99997000000007
 31
0.0
  0
LINE
  5
6E61
330
18
100
AcDbEntity
  8
DRAW2
100
AcDbLine
 10
73.00003499999997
 20
98.99997000000007
 30
0.0
 11
122.0000349999999
 21
98.99997000000007
 31
0.0
  0
CIRCLE
  5
6E62
330
18
100
AcDbEntity
  8
DRAW2
100
AcDbCircle
 10
0.0000000000001137
 20
121.0
 30
0.0
 40
17.0
  0
LINE
  5
6E6A
330
18
100
AcDbEntity
  8
DRAW2
100
AcDbLine
 10
73.00003500000008
 20
-99.0
 30
0.0
 11
122.000035
 21
-99.0
 31
0.0
  0
LINE
  5
6E6B
330
18
100
AcDbEntity
  8
DRAW2
100
AcDbLine
 10
-121.9999649999999
 20
-99.0
 30
0.0
 11
-72.99996499999998
 21
-99.0
 31
0.0
  0
LINE
  5
6E9B
330
18
100
AcDbEntity
  8
DRAW2
100
AcDbLine
 10
-40.7696153633301
 20
60.16499226621416
 30
0.0
 11
-40.52959211543248
 21
59.69832515052583
 31
0.0
  0
LINE
  5
6E9C
330
18
100
AcDbEntity
  8
DRAW2
100
AcDbLine
 10
-40.71732532605574
 20
59.54569255641725
 30
0.0
 11
-40.53476607799575
 21
59.25240790179994
 31
0.0
  0
LINE
  5
6E9D
330
18
100
AcDbEntity
  8
DRAW2
100
AcDbLine
 10
-40.52959211543248
 20
59.69832515052583
 30
0.0
 11
-40.43510944023774
 21
59.22940050891665
 31
0.0
  0
LINE
  5
6E9E
330
18
100
AcDbEntity
  8
DRAW2
100
AcDbLine
 10
-41.15470653772399
 20
59.98979558876779
 30
0.0
 11
-40.71732532605574
 21
59.54569255641725
 31
0.0
  0
LINE
  5
6E9F
330
18
100
AcDbEntity
  8
DRAW2
100
AcDbLine
 10
-41.79080404713795
 20
60.4557698004606
 30
0.0
 11
-41.15470653772399
 21
59.98979558876779
 31
0.0
  0
LINE
  5
6EA0
330
18
100
AcDbEntity
  8
DRAW2
100
AcDbLine
 10
-41.207269918174
 20
60.67392280033868
 30
0.0
 11
-40.7696153633301
 21
60.16499226621431
 31
0.0
  0
LINE
  5
6EA1
330
18
100
AcDbEntity
  8
DRAW2
100
AcDbLine
 10
-40.44010691717312
 20
-59.31750634976584
 30
0.0
 11
-40.5631723478441
 21
-59.78527615138251
 31
0.0
  0
LINE
  5
6EA2
330
18
100
AcDbEntity
  8
DRAW2
100
AcDbLine
 10
-40.44487750412031
 20
-59.23169702726477
 30
0.0
 11
-40.44007367321234
 21
-59.31753888774711
 31
0.0
  0
LINE
  5
6EBF
330
18
100
AcDbEntity
  8
DRAW2
100
AcDbLine
 10
488.9999999999999
 20
90.00000000000023
 30
0.0
 11
410.9999999999999
 21
90.00000000000023
 31
0.0
  0
LINE
  5
6EC0
330
18
100
AcDbEntity
  8
DRAW2
100
AcDbLine
 10
410.9999999999999
 20
90.00000000000023
 30
0.0
 11
410.9999999999999
 21
99.00000000000023
 31
0.0
  0
ARC
  5
6EC6
330
18
100
AcDbEntity
  8
DRAW2
100
AcDbCircle
 10
421.9999999999999
 20
87.00000000000022
 30
0.0
 40
3.0
100
AcDbArc
 50
0.0
 51
90.0
  0
LINE
  5
6EC7
330
18
100
AcDbEntity
  8
DRAW2
100
AcDbLine
 10
424.9999999999999
 20
87.00000000000022
 30
0.0
 11
424.9999999999999
 21
86.45807000000013
 31
0.0
  0
LINE
  5
6ECF
330
18
100
AcDbEntity
  8
DRAW2
100
AcDbLine
 10
474.9999999999996
 20
87.00000000000034
 30
0.0
 11
474.9999999999996
 21
86.45807000000024
 31
0.0
  0
ARC
  5
6ED4
330
18
100
AcDbEntity
  8
DRAW2
100
AcDbCircle
 10
477.9999999999995
 20
87.0000000000004
 30
0.0
 40
3.0
100
AcDbArc
 50
90.0
 51
180.0
  0
LINE
  5
6ED5
330
18
100
AcDbEntity
  8
DRAW2
100
AcDbLine
 10
488.9999999999999
 20
90.00000000000023
 30
0.0
 11
488.9999999999999
 21
99.00000000000023
 31
0.0
  0
LINE
  5
6EDD
330
18
100
AcDbEntity
  8
DRAW2
100
AcDbLine
 10
411.5
 20
99.00000000000023
 30
0.0
 11
411.0
 21
99.50000000000024
 31
0.0
  0
LINE
  5
6EDE
330
18
100
AcDbEntity
  8
DRAW2
100
AcDbLine
 10
489.0
 20
99.50000000000024
 30
0.0
 11
488.5
 21
99.00000000000023
 31
0.0
  0
LINE
  5
6EDF
330
18
100
AcDbEntity
  8
DRAW2
100
AcDbLine
 10
410.9999999999999
 20
99.00000000000023
 30
0.0
 11
488.9999999999999
 21
99.00000000000023
 31
0.0
  0
LINE
  5
7338
330
18
100
AcDbEntity
  8
DRAW2
100
AcDbLine
 10
77.00912943778337
 20
333.0
 30
0.0
 11
19.19615242270657
 21
333.0
 31
0.0
  0
LINE
  5
7339
330
18
100
AcDbEntity
  8
DRAW2
100
AcDbLine
 10
77.00912943778337
 20
367.0
 30
0.0
 11
20.0
 21
367.0
 31
0.0
  0
LINE
  5
7342
330
18
100
AcDbEntity
  8
DRAW2
100
AcDbLine
 10
-54.50000061094761
 20
262.4999991972444
 30
0.0
 11
-54.50000061094761
 21
277.5000008027546
 31
0.0
  0
LINE
  5
734E
330
18
100
AcDbEntity
  8
DRAW2
100
AcDbLine
 10
-55.0
 20
261.9999899999999
 30
0.0
 11
-55.0
 21
333.0
 31
0.0
  0
LINE
  5
734F
330
18
100
AcDbEntity
  8
DRAW2
100
AcDbLine
 10
-67.29997000000015
 20
332.9999999999997
 30
0.0
 11
-67.29997000000015
 21
260.4999999999997
 31
0.0
  0
LINE
  5
7350
330
18
100
AcDbEntity
  8
DRAW2
100
AcDbLine
 10
-77.29996948242188
 20
262.0000991821286
 30
0.0
 11
-77.29996948242188
 21
332.9858687292703
 31
0.0
  0
LINE
  5
7351
330
18
100
AcDbEntity
  8
DRAW2
100
AcDbLine
 10
-64.80000000000018
 20
332.9999999999999
 30
0.0
 11
-64.80000000000018
 21
259.9999899999998
 31
0.0
  0
LINE
  5
7352
330
18
100
AcDbEntity
  8
DRAW2
100
AcDbLine
 10
-67.79990896484389
 20
333.0
 30
0.0
 11
-67.79990896484389
 21
260.0000610351561
 31
0.0
  0
LINE
  5
7353
330
18
100
AcDbEntity
  8
DRAW2
100
AcDbLine
 10
-122.2999400000001
 20
329.9228110674539
 30
0.0
 11
-122.2999400000001
 21
259.9999999999997
 31
0.0
  0
CIRCLE
  5
7356
330
18
100
AcDbEntity
  8
DRAW2
100
AcDbCircle
 10
-97.5
 20
279.9999999999998
 30
0.0
 40
8.75
  0
LINE
  5
7359
330
18
100
AcDbEntity
  8
DRAW2
100
AcDbLine
 10
-75.4863768777758
 20
260.0
 30
0.0
 11
-122.2999400000001
 21
260.0
 31
0.0
  0
LINE
  5
735A
330
18
100
AcDbEntity
  8
DRAW2
100
AcDbLine
 10
-75.5
 20
260.0000610351561
 30
0.0
 11
-67.79990896484389
 21
260.0000610351561
 31
0.0
  0
ARC
  5
7361
330
18
100
AcDbEntity
  8
DRAW2
100
AcDbCircle
 10
-75.29990844726563
 20
262.000076293945
 30
0.0
 40
2.0
100
AcDbArc
 50
180.0000496325564
 51
270.0000316464673
  0
LINE
  5
7366
330
18
100
AcDbEntity
  8
DRAW2
100
AcDbLine
 10
-55.0
 20
261.999997639316
 30
0.0
 11
-54.50000061094761
 21
262.4999991972444
 31
0.0
  0
LINE
  5
7367
330
18
100
AcDbEntity
  8
DRAW2
100
AcDbLine
 10
-56.99992999999995
 20
259.9999899999999
 30
0.0
 11
-64.80000000000007
 21
259.9999899999999
 31
0.0
  0
ARC
  5
7368
330
18
100
AcDbEntity
  8
DRAW2
100
AcDbCircle
 10
-56.99992999999995
 20
261.9999899999999
 30
0.0
 40
2.0
100
AcDbArc
 50
270.0
 51
0.0000099999977495
  0
LINE
  5
7369
330
18
100
AcDbEntity
  8
DRAW2
100
AcDbLine
 10
-67.79990896484389
 20
260.0000610351561
 30
0.0
 11
-67.29990896484389
 21
260.500061035156
 31
0.0
  0
LINE
  5
736A
330
18
100
AcDbEntity
  8
DRAW3
100
AcDbLine
 10
-64.80000000000007
 20
266.6249699999994
 30
0.0
 11
-67.29997000000015
 21
266.6249699999994
 31
0.0
  0
LINE
  5
736B
330
18
100
AcDbEntity
  8
DRAW2
100
AcDbLine
 10
-64.80000000000007
 20
265.9999699999995
 30
0.0
 11
-67.29997000000015
 21
265.9999699999995
 31
0.0
  0
LINE
  5
73E3
330
18
100
AcDbEntity
  8
DRAW2
100
AcDbLine
 10
-75.4863768777758
 20
439.9999999999997
 30
0.0
 11
-122.2999400000001
 21
439.9999999999997
 31
0.0
  0
CIRCLE
  5
73E4
330
18
100
AcDbEntity
  8
DRAW2
100
AcDbCircle
 10
-97.5
 20
420.0
 30
0.0
 40
6.0
  0
ARC
  5
73E5
330
18
100
AcDbEntity
  8
DRAW2
100
AcDbCircle
 10
-97.5
 20
379.9999999999999
 30
0.0
 40
9.0
100
AcDbArc
 50
32.23095263550413
 51
147.7690473644958
  0
LINE
  5
73E8
330
18
100
AcDbEntity
  8
DRAW2
100
AcDbLine
 10
-93.74722270000006
 20
386.4999999999999
 30
0.0
 11
-89.99444580000021
 21
379.9999993698734
 31
0.0
  0
LINE
  5
73EA
330
18
100
AcDbEntity
  8
DRAW2
100
AcDbLine
 10
-97.49999992887547
 20
413.0717968999999
 30
0.0
 11
-103.4999999999999
 21
416.5358981999999
 31
0.0
  0
CIRCLE
  5
73EB
330
18
100
AcDbEntity
  8
DRAW2
100
AcDbCircle
 10
-97.5
 20
420.0
 30
0.0
 40
8.75
  0
LINE
  5
73EC
330
18
100
AcDbEntity
  8
DRAW2
100
AcDbLine
 10
-97.49999992887547
 20
426.9282031
 30
0.0
 11
-103.4999999999999
 21
423.4641017999999
 31
0.0
  0
LINE
  5
73ED
330
18
100
AcDbEntity
  8
DRAW2
100
AcDbLine
 10
-101.2527816000003
 20
386.5000028999999
 30
0.0
 11
-105.0055585
 21
380.0000024226373
 31
0.0
  0
CIRCLE
  5
73EF
330
18
100
AcDbEntity
  8
DRAW2
100
AcDbCircle
 10
-97.5
 20
320.0
 30
0.0
 40
6.500003299999998
  0
ARC
  5
73F1
330
18
100
AcDbEntity
  8
DRAW2
100
AcDbCircle
 10
-97.5
 20
320.0
 30
0.0
 40
9.0
100
AcDbArc
 50
212.2309526355041
 51
327.7690473644958
  0
LINE
  5
73F3
330
18
100
AcDbEntity
  8
DRAW2
100
AcDbLine
 10
-97.49999992887547
 20
286.9282030999999
 30
0.0
 11
-103.4999999999999
 21
283.4641017999999
 31
0.0
  0
LINE
  5
73F4
330
18
100
AcDbEntity
  8
DRAW2
100
AcDbLine
 10
-93.74721839999962
 20
313.4999970999999
 30
0.0
 11
-89.9944415
 21
319.9999975773625
 31
0.0
  0
LINE
  5
73F7
330
18
100
AcDbEntity
  8
DRAW2
100
AcDbLine
 10
-101.2527772999999
 20
313.5
 30
0.0
 11
-105.0055541999997
 21
320.0000006301264
 31
0.0
  0
CIRCLE
  5
73F9
330
18
100
AcDbEntity
  8
DRAW2
100
AcDbCircle
 10
-97.5
 20
379.9999999999998
 30
0.0
 40
6.500003299999998
  0
LINE
  5
73FB
330
18
100
AcDbEntity
  8
DRAW2
100
AcDbLine
 10
-97.49999992887547
 20
273.0717968999997
 30
0.0
 11
-103.4999999999999
 21
276.5358981999999
 31
0.0
  0
CIRCLE
  5
73FC
330
18
100
AcDbEntity
  8
DRAW2
100
AcDbCircle
 10
-97.5
 20
279.9999999999998
 30
0.0
 40
6.0
  0
LINE
  5
73FD
330
18
100
AcDbEntity
  8
DRAW2
100
AcDbLine
 10
-122.5
 20
369.0
 30
0.0
 11
-122.5
 21
330.9999999999997
 31
0.0
  0
LINE
  5
73FE
330
18
100
AcDbEntity
  8
DRAW2
100
AcDbLine
 10
-105.1131465242697
 20
384.7999999999998
 30
0.0
 11
-118.6476292340824
 21
363.3333333333332
 31
0.0
  0
LINE
  5
73FF
330
18
100
AcDbEntity
  8
DRAW2
100
AcDbLine
 10
-93.74723119999998
 20
313.5000124
 30
0.0
 11
-101.2527853999997
 21
313.5000124
 31
0.0
  0
LINE
  5
7401
330
18
100
AcDbEntity
  8
DRAW2
100
AcDbLine
 10
-105.1131465242697
 20
315.1999999999996
 30
0.0
 11
-118.6476292340824
 21
336.6666666666665
 31
0.0
  0
LINE
  5
7402
330
18
100
AcDbEntity
  8
DRAW2
100
AcDbLine
 10
-103.4999999999999
 20
276.5358983999998
 30
0.0
 11
-103.4999999999999
 21
283.4641015999998
 31
0.0
  0
ARC
  5
7403
330
18
100
AcDbEntity
  8
DRAW2
100
AcDbCircle
 10
-97.5
 20
350.0
 30
0.0
 40
25.0
100
AcDbArc
 50
147.7690473644958
 51
212.2309526355041
  0
LINE
  5
7404
330
18
100
AcDbEntity
  8
DRAW2
100
AcDbLine
 10
-119.5
 20
328.0
 30
0.0
 11
-114.8384289372602
 21
328.0
 31
0.0
  0
ARC
  5
7405
330
18
100
AcDbEntity
  8
DRAW2
100
AcDbCircle
 10
-119.5
 20
330.9999999999997
 30
0.0
 40
3.0
100
AcDbArc
 50
180.0
 51
270.0
  0
ARC
  5
7406
330
18
100
AcDbEntity
  8
DRAW2
100
AcDbCircle
 10
-114.8384289372602
 20
325.0
 30
0.0
 40
3.0
100
AcDbArc
 50
32.23095263550413
 51
90.0
  0
LINE
  5
7407
330
18
100
AcDbEntity
  8
DRAW2
100
AcDbLine
 10
-122.5
 20
355.7735443115236
 30
0.0
 11
-122.850830078125
 21
355.7735443115232
 31
0.0
  0
LINE
  5
7408
330
18
100
AcDbEntity
  8
DRAW2
100
AcDbLine
 10
-122.5
 20
344.2264251708986
 30
0.0
 11
-122.850830078125
 21
344.2264251708984
 31
0.0
  0
ARC
  5
7409
330
18
100
AcDbEntity
  8
DRAW2
100
AcDbCircle
 10
-85.96933255827014
 20
350.0000812869159
 30
0.0
 40
37.33060744178816
100
AcDbArc
 50
171.1030353315588
 51
188.8971659316523
  0
LINE
  5
740A
330
18
100
AcDbEntity
  8
DRAW2
100
AcDbLine
 10
-122.2999400000001
 20
370.0771889325459
 30
0.0
 11
-122.2999400000001
 21
440.0
 31
0.0
  0
LINE
  5
740B
330
18
100
AcDbEntity
  8
DRAW2
100
AcDbLine
 10
-119.5
 20
371.9999999999999
 30
0.0
 11
-114.8384289372602
 21
371.9999999999999
 31
0.0
  0
ARC
  5
740C
330
18
100
AcDbEntity
  8
DRAW2
100
AcDbCircle
 10
-119.5
 20
369.0
 30
0.0
 40
3.0
100
AcDbArc
 50
90.0
 51
180.0
  0
ARC
  5
740D
330
18
100
AcDbEntity
  8
DRAW2
100
AcDbCircle
 10
-114.8384289372602
 20
374.9999999999999
 30
0.0
 40
3.0
100
AcDbArc
 50
270.0
 51
327.7690473644958
  0
LINE
  5
740F
330
18
100
AcDbEntity
  8
DRAW2
100
AcDbLine
 10
-101.2527688
 20
386.4999875999998
 30
0.0
 11
-93.74721460000001
 21
386.4999875999998
 31
0.0
  0
LINE
  5
7410
330
18
100
AcDbEntity
  8
DRAW2
100
AcDbLine
 10
-103.4999999999999
 20
423.4641016
 30
0.0
 11
-103.4999999999999
 21
416.5358984000001
 31
0.0
  0
LINE
  5
7411
330
18
100
AcDbEntity
  8
DRAW2
100
AcDbLine
 10
-89.88685347573028
 20
384.7999999999994
 30
0.0
 11
-76.35237076591749
 21
363.3333333333332
 31
0.0
  0
ARC
  5
7412
330
18
100
AcDbEntity
  8
DRAW2
100
AcDbCircle
 10
-39.0
 20
293.6399799999999
 30
0.0
 40
2.999999799999999
100
AcDbArc
 50
283.000000000001
 51
0.0
  0
LINE
  5
7413
330
18
100
AcDbEntity
  8
DRAW2
100
AcDbLine
 10
-77.00912943778337
 20
333.0
 30
0.0
 11
-19.19615242270663
 21
333.0
 31
0.0
  0
LINE
  5
7414
330
18
100
AcDbEntity
  8
DRAW2
100
AcDbLine
 10
-93.74723739999991
 20
326.5000142999999
 30
0.0
 11
-101.2527915999999
 21
326.5000142999999
 31
0.0
  0
LINE
  5
7416
330
18
100
AcDbEntity
  8
DRAW2
100
AcDbLine
 10
-89.88685347573028
 20
315.1999999999996
 30
0.0
 11
-76.35237076591749
 21
336.6666666666665
 31
0.0
  0
LINE
  5
7418
330
18
100
AcDbEntity
  8
DRAW2
100
AcDbLine
 10
-78.79996973998851
 20
293.9263339401325
 30
0.0
 11
-83.99969863891602
 21
296.9283981323242
 31
0.0
  0
ARC
  5
7419
330
18
100
AcDbEntity
  8
DRAW2
100
AcDbCircle
 10
-57.49993896484375
 20
342.8276519775386
 30
0.0
 40
52.99999618530272
100
AcDbArc
 50
216.355589301406
 51
240.0000922833448
  0
LINE
  5
741B
330
18
100
AcDbEntity
  8
DRAW2
100
AcDbLine
 10
-91.5
 20
283.4641017999999
 30
0.0
 11
-97.50000007112454
 21
286.9282030999999
 31
0.0
  0
LINE
  5
741C
330
18
100
AcDbEntity
  8
DRAW2
100
AcDbLine
 10
-91.5
 20
276.5358981999999
 30
0.0
 11
-97.50000007112454
 21
273.0717968999997
 31
0.0
  0
CIRCLE
  5
741D
330
18
100
AcDbEntity
  8
DRAW3
100
AcDbCircle
 10
-97.5
 20
279.9999999999998
 30
0.0
 40
3.3235002
  0
CIRCLE
  5
741E
330
18
100
AcDbEntity
  8
DRAW2
100
AcDbCircle
 10
-97.5
 20
279.9999999999998
 30
0.0
 40
4.0
  0
LINE
  5
741F
330
18
100
AcDbEntity
  8
DRAW2
100
AcDbLine
 10
-91.5
 20
276.5358983999998
 30
0.0
 11
-91.5
 21
283.4641015999998
 31
0.0
  0
LINE
  5
7426
330
18
100
AcDbEntity
  8
DRAW2
100
AcDbLine
 10
-89.9944458
 20
319.9999993698735
 30
0.0
 11
-93.74722269999962
 21
326.5
 31
0.0
  0
LINE
  5
7436
330
18
100
AcDbEntity
  8
DRAW2
100
AcDbLine
 10
-55.0
 20
278.000002360683
 30
0.0
 11
-54.50000061094761
 21
277.5000008027546
 31
0.0
  0
LINE
  5
7437
330
18
100
AcDbEntity
  8
DRAW3
100
AcDbLine
 10
-64.80000000000018
 20
273.3749699999995
 30
0.0
 11
-67.29997000000015
 21
273.3749699999995
 31
0.0
  0
LINE
  5
7438
330
18
100
AcDbEntity
  8
DRAW2
100
AcDbLine
 10
-64.80000000000018
 20
273.9999699999995
 30
0.0
 11
-67.29997000000015
 21
273.9999699999994
 31
0.0
  0
LINE
  5
7439
330
18
100
AcDbEntity
  8
DRAW2
100
AcDbLine
 10
-38.32512999999994
 20
290.7168599999999
 30
0.0
 11
-49.57466678161011
 21
288.1196834598879
 31
0.0
  0
LINE
  5
743F
330
18
100
AcDbEntity
  8
DRAW2
100
AcDbLine
 10
-55.0
 20
302.0000440478296
 30
0.0
 11
-54.50000061094761
 21
302.5000456057581
 31
0.0
  0
LINE
  5
7440
330
18
100
AcDbEntity
  8
DRAW2
100
AcDbLine
 10
-55.0
 20
318.0000487691967
 30
0.0
 11
-54.50000061094761
 21
317.5000472112682
 31
0.0
  0
LINE
  5
7441
330
18
100
AcDbEntity
  8
DRAW2
100
AcDbLine
 10
-54.50000061094761
 20
302.5000456057581
 30
0.0
 11
-54.50000061094761
 21
317.5000472112682
 31
0.0
  0
LINE
  5
7442
330
18
100
AcDbEntity
  8
DRAW3
100
AcDbLine
 10
-64.80000000000007
 20
306.6249699999998
 30
0.0
 11
-67.29997000000015
 21
306.6249699999998
 31
0.0
  0
LINE
  5
7443
330
18
100
AcDbEntity
  8
DRAW2
100
AcDbLine
 10
-64.80000000000007
 20
305.9999700000001
 30
0.0
 11
-67.29997000000015
 21
305.99997
 31
0.0
  0
LINE
  5
7444
330
18
100
AcDbEntity
  8
DRAW2
100
AcDbLine
 10
-64.80000000000007
 20
313.9999700000001
 30
0.0
 11
-67.29997000000015
 21
313.99997
 31
0.0
  0
LINE
  5
7445
330
18
100
AcDbEntity
  8
DRAW3
100
AcDbLine
 10
-64.80000000000007
 20
313.3749699999998
 30
0.0
 11
-67.29997000000015
 21
313.3749699999998
 31
0.0
  0
ARC
  5
744A
330
18
100
AcDbEntity
  8
DRAW2
100
AcDbCircle
 10
-97.5
 20
350.0
 30
0.0
 40
25.0
100
AcDbArc
 50
327.7690473644958
 51
32.23095263550413
  0
LINE
  5
744B
330
18
100
AcDbEntity
  8
DRAW2
100
AcDbLine
 10
-105.0055508999996
 20
319.9999978926844
 30
0.0
 11
-101.2527737999998
 21
326.4999986
 31
0.0
  0
ARC
  5
744D
330
18
100
AcDbEntity
  8
DRAW2
100
AcDbCircle
 10
-77.00912943778337
 20
330.0
 30
0.0
 40
3.0
100
AcDbArc
 50
90.0
 51
147.7690473644958
  0
LINE
  5
744E
330
18
100
AcDbEntity
  8
DRAW2
100
AcDbLine
 10
-36.0
 20
333.0
 30
0.0
 11
-36.0
 21
293.6399799999999
 31
0.0
  0
LINE
  5
744F
330
18
100
AcDbEntity
  8
DRAW2
100
AcDbLine
 10
-35.0
 20
333.0
 30
0.0
 11
-35.0
 21
310.3
 31
0.0
  0
LINE
  5
746D
330
18
100
AcDbEntity
  8
DRAW2
100
AcDbLine
 10
-2.121320343559773
 20
347.87867965644
 30
0.0
 11
-14.87867965644045
 21
335.1213203435595
 31
0.0
  0
LINE
  5
746E
330
18
100
AcDbEntity
  8
DRAW2
100
AcDbLine
 10
-2.121320343559773
 20
352.1213203435595
 30
0.0
 11
-14.87867965644045
 21
364.87867965644
 31
0.0
  0
LINE
  5
746F
330
18
100
AcDbEntity
  8
DRAW2
100
AcDbLine
 10
14.0
 20
330.0
 30
0.0
 11
-14.0
 21
330.0
 31
0.0
  0
ARC
  5
7470
330
18
100
AcDbEntity
  8
DRAW2
100
AcDbCircle
 10
-14.0
 20
333.0
 30
0.0
 40
3.0
100
AcDbArc
 50
210.0000000000004
 51
270.0
  0
ARC
  5
7471
330
18
100
AcDbEntity
  8
DRAW2
100
AcDbCircle
 10
-19.19615242270663
 20
330.0
 30
0.0
 40
3.0
100
AcDbArc
 50
30.00000000000054
 51
90.0
  0
LINE
  5
7472
330
18
100
AcDbEntity
  8
DRAW2
100
AcDbLine
 10
2.121320343559659
 20
347.87867965644
 30
0.0
 11
14.87867965644022
 21
335.1213203435595
 31
0.0
  0
ARC
  5
7473
330
18
100
AcDbEntity
  8
DRAW2
100
AcDbCircle
 10
14.0
 20
333.0
 30
0.0
 40
3.0
100
AcDbArc
 50
270.0
 51
329.9999999999994
  0
ARC
  5
7474
330
18
100
AcDbEntity
  8
DRAW2
100
AcDbCircle
 10
19.19615242270657
 20
330.0
 30
0.0
 40
3.0
100
AcDbArc
 50
90.0
 51
149.9999999999994
  0
LINE
  5
7475
330
18
100
AcDbEntity
  8
DRAW2
100
AcDbLine
 10
2.121320343559659
 20
352.1213203435595
 30
0.0
 11
14.87867965644022
 21
364.87867965644
 31
0.0
  0
ARC
  5
7476
330
18
100
AcDbEntity
  8
DRAW2
100
AcDbCircle
 10
-39.0
 20
406.3600199999998
 30
0.0
 40
2.999999799999999
100
AcDbArc
 50
0.0
 51
77.00000100000231
  0
LINE
  5
7477
330
18
100
AcDbEntity
  8
DRAW2
100
AcDbLine
 10
-77.00912943778337
 20
367.0
 30
0.0
 11
-20.0
 21
367.0
 31
0.0
  0
LINE
  5
7479
330
18
100
AcDbEntity
  8
DRAW2
100
AcDbLine
 10
-38.32512999999994
 20
409.2830499999999
 30
0.0
 11
-49.57464563644084
 21
411.8801849237524
 31
0.0
  0
LINE
  5
747A
330
18
100
AcDbEntity
  8
DRAW2
100
AcDbLine
 10
-55.0
 20
367.0
 30
0.0
 11
-55.0
 21
438.0
 31
0.0
  0
LINE
  5
747B
330
18
100
AcDbEntity
  8
DRAW2
100
AcDbLine
 10
-64.80000000000018
 20
439.9999699999998
 30
0.0
 11
-64.80000000000018
 21
367.0
 31
0.0
  0
LINE
  5
747C
330
18
100
AcDbEntity
  8
DRAW2
100
AcDbLine
 10
-67.79997000000014
 20
440.0000762939453
 30
0.0
 11
-67.79997000000014
 21
367.0
 31
0.0
  0
LINE
  5
747D
330
18
100
AcDbEntity
  8
DRAW2
100
AcDbLine
 10
-77.29996948242188
 20
367.0141312707296
 30
0.0
 11
-77.29996948242188
 21
438.0000457763669
 31
0.0
  0
LINE
  5
747E
330
18
100
AcDbEntity
  8
DRAW2
100
AcDbLine
 10
-67.29997000000015
 20
439.5000762939453
 30
0.0
 11
-67.29997000000015
 21
367.0
 31
0.0
  0
ARC
  5
7484
330
18
100
AcDbEntity
  8
DRAW2
100
AcDbCircle
 10
-57.49993896484375
 20
357.1725006103511
 30
0.0
 40
52.99999618530272
100
AcDbArc
 50
119.9999760185438
 51
143.6445336420027
  0
LINE
  5
7486
330
18
100
AcDbEntity
  8
DRAW2
100
AcDbLine
 10
-89.99444910000011
 20
380.0000021073155
 30
0.0
 11
-93.74722620000033
 21
373.5000013999999
 31
0.0
  0
LINE
  5
7488
330
18
100
AcDbEntity
  8
DRAW2
100
AcDbLine
 10
-105.0055542
 20
380.0000006301264
 30
0.0
 11
-101.2527773000003
 21
373.4999999999999
 31
0.0
  0
LINE
  5
748B
330
18
100
AcDbEntity
  8
DRAW2
100
AcDbLine
 10
-101.2527626
 20
373.4999856999999
 30
0.0
 11
-93.74720840000009
 21
373.4999856999999
 31
0.0
  0
ARC
  5
748E
330
18
100
AcDbEntity
  8
DRAW2
100
AcDbCircle
 10
-77.00912943778337
 20
369.9999999999999
 30
0.0
 40
3.0
100
AcDbArc
 50
212.2309526355041
 51
270.0
  0
LINE
  5
7493
330
18
100
AcDbEntity
  8
DRAW2
100
AcDbLine
 10
-78.79997115069295
 20
406.0739360656022
 30
0.0
 11
-83.99987030029297
 21
403.0717773437499
 31
0.0
  0
LINE
  5
7498
330
18
100
AcDbEntity
  8
DRAW2
100
AcDbLine
 10
-54.50000061094761
 20
382.4999527887316
 30
0.0
 11
-54.50000061094761
 21
397.4999543942416
 31
0.0
  0
LINE
  5
749D
330
18
100
AcDbEntity
  8
DRAW2
100
AcDbLine
 10
-55.0
 20
381.9999512308031
 30
0.0
 11
-54.50000061094761
 21
382.4999527887316
 31
0.0
  0
LINE
  5
749E
330
18
100
AcDbEntity
  8
DRAW2
100
AcDbLine
 10
-64.80000000000007
 20
385.9999699999998
 30
0.0
 11
-67.29997000000015
 21
385.9999699999998
 31
0.0
  0
LINE
  5
749F
330
18
100
AcDbEntity
  8
DRAW3
100
AcDbLine
 10
-64.80000000000007
 20
386.6249699999997
 30
0.0
 11
-67.29997000000015
 21
386.6249699999997
 31
0.0
  0
LINE
  5
74A3
330
18
100
AcDbEntity
  8
DRAW2
100
AcDbLine
 10
-55.0
 20
397.9999559521701
 30
0.0
 11
-54.50000061094761
 21
397.4999543942416
 31
0.0
  0
LINE
  5
74A4
330
18
100
AcDbEntity
  8
DRAW2
100
AcDbLine
 10
-64.80000000000007
 20
393.9999699999999
 30
0.0
 11
-67.29997000000015
 21
393.9999699999998
 31
0.0
  0
LINE
  5
74A5
330
18
100
AcDbEntity
  8
DRAW3
100
AcDbLine
 10
-64.80000000000007
 20
393.3749699999998
 30
0.0
 11
-67.29997000000015
 21
393.3749699999998
 31
0.0
  0
LINE
  5
74A7
330
18
100
AcDbEntity
  8
DRAW2
100
AcDbLine
 10
-75.5
 20
440.0000762939453
 30
0.0
 11
-67.79997000000014
 21
440.0000762939453
 31
0.0
  0
ARC
  5
74A9
330
18
100
AcDbEntity
  8
DRAW2
100
AcDbCircle
 10
-75.01250918242186
 20
433.2500000000002
 30
0.0
 40
9.3874664
100
AcDbArc
 50
159.7445300000011
 51
200.2554489999986
  0
LINE
  5
74AA
330
18
100
AcDbEntity
  8
DRAW2
100
AcDbLine
 10
-84.39997558242186
 20
436.5000000000001
 30
0.0
 11
-84.39997558242186
 21
423.5000000000002
 31
0.0
  0
LINE
  5
74AD
330
18
100
AcDbEntity
  8
DRAW2
100
AcDbLine
 10
-83.81943968242188
 20
430.0000000000002
 30
0.0
 11
-78.89997558242185
 21
430.0000000000002
 31
0.0
  0
LINE
  5
74AE
330
18
100
AcDbEntity
  8
DRAW2
100
AcDbLine
 10
-84.39997558242186
 20
423.5000000000002
 30
0.0
 11
-78.89997558242185
 21
423.5000000000002
 31
0.0
  0
LINE
  5
74AF
330
18
100
AcDbEntity
  8
DRAW2
100
AcDbLine
 10
-91.5
 20
423.4641016
 30
0.0
 11
-91.5
 21
416.5358984000001
 31
0.0
  0
LINE
  5
74B0
330
18
100
AcDbEntity
  8
DRAW2
100
AcDbLine
 10
-91.5
 20
416.5358981999999
 30
0.0
 11
-97.50000007112454
 21
413.0717968999999
 31
0.0
  0
CIRCLE
  5
74B1
330
18
100
AcDbEntity
  8
DRAW2
100
AcDbCircle
 10
-97.5
 20
420.0
 30
0.0
 40
4.0
  0
CIRCLE
  5
74B2
330
18
100
AcDbEntity
  8
DRAW3
100
AcDbCircle
 10
-97.5
 20
420.0
 30
0.0
 40
3.3235002
  0
LINE
  5
74B3
330
18
100
AcDbEntity
  8
DRAW2
100
AcDbLine
 10
-91.5
 20
423.4641017999999
 30
0.0
 11
-97.50000007112454
 21
426.9282031
 31
0.0
  0
ARC
  5
74B4
330
18
100
AcDbEntity
  8
DRAW2
100
AcDbCircle
 10
-75.01250918242186
 20
426.7500000000002
 30
0.0
 40
9.3874664
100
AcDbArc
 50
159.7445300000011
 51
200.2554489999986
  0
LINE
  5
74B9
330
18
100
AcDbEntity
  8
DRAW2
100
AcDbLine
 10
-84.39997558242186
 20
436.5000000000001
 30
0.0
 11
-78.89997558242185
 21
436.5000000000001
 31
0.0
  0
ARC
  5
74BC
330
18
100
AcDbEntity
  8
DRAW2
100
AcDbCircle
 10
-75.29990844726563
 20
438.0000457763669
 30
0.0
 40
2.000000000000011
100
AcDbArc
 50
90.00003665542431
 51
180.000018669332
  0
LINE
  5
74BD
330
18
100
AcDbEntity
  8
DRAW2
100
AcDbLine
 10
-54.50000061094761
 20
422.4999991972452
 30
0.0
 11
-54.50000061094761
 21
437.5000008027552
 31
0.0
  0
LINE
  5
74BE
330
18
100
AcDbEntity
  8
DRAW2
100
AcDbLine
 10
-49.52497558242185
 20
434.0000300000004
 30
0.0
 11
-54.50000061094761
 21
434.0000300000006
 31
0.0
  0
LINE
  5
74BF
330
18
100
AcDbEntity
  8
DRAW3
100
AcDbLine
 10
-48.89997558242185
 20
433.3750300000003
 30
0.0
 11
-54.50000061094761
 21
433.3750300000004
 31
0.0
  0
LINE
  5
74C0
330
18
100
AcDbEntity
  8
DRAW3
100
AcDbLine
 10
-48.89997558242185
 20
426.6250300000003
 30
0.0
 11
-54.50000061094761
 21
426.6250300000004
 31
0.0
  0
LINE
  5
74C1
330
18
100
AcDbEntity
  8
DRAW2
100
AcDbLine
 10
-49.52497558242185
 20
426.0000300000004
 30
0.0
 11
-54.50000061094761
 21
426.0000300000005
 31
0.0
  0
LINE
  5
74C2
330
18
100
AcDbEntity
  8
DRAW2
100
AcDbLine
 10
-55.0
 20
421.9999976393166
 30
0.0
 11
-54.50000061094761
 21
422.4999991972452
 31
0.0
  0
LINE
  5
74C3
330
18
100
AcDbEntity
  8
DRAW3
100
AcDbLine
 10
-64.80000000000007
 20
426.6249699999996
 30
0.0
 11
-67.29997000000015
 21
426.6249699999995
 31
0.0
  0
LINE
  5
74C4
330
18
100
AcDbEntity
  8
DRAW2
100
AcDbLine
 10
-64.80000000000007
 20
425.9999699999995
 30
0.0
 11
-67.29997000000015
 21
425.9999699999996
 31
0.0
  0
LINE
  5
74C5
330
18
100
AcDbEntity
  8
DRAW3
100
AcDbLine
 10
-64.80000000000007
 20
433.3749699999996
 30
0.0
 11
-67.29997000000015
 21
433.3749699999996
 31
0.0
  0
LINE
  5
74C6
330
18
100
AcDbEntity
  8
DRAW2
100
AcDbLine
 10
-64.80000000000007
 20
433.9999699999996
 30
0.0
 11
-67.29997000000015
 21
433.9999699999996
 31
0.0
  0
LINE
  5
74C7
330
18
100
AcDbEntity
  8
DRAW2
100
AcDbLine
 10
-48.89997558242185
 20
433.3750300000003
 30
0.0
 11
-48.89997558242185
 21
426.6250300000003
 31
0.0
  0
LINE
  5
74C8
330
18
100
AcDbEntity
  8
DRAW2
100
AcDbLine
 10
-49.52491558242178
 20
434.0000300000004
 30
0.0
 11
-48.89985558242194
 21
433.3750300000003
 31
0.0
  0
LINE
  5
74C9
330
18
100
AcDbEntity
  8
DRAW2
100
AcDbLine
 10
-49.52497558242185
 20
434.0000300000004
 30
0.0
 11
-49.52497558242185
 21
426.0000300000004
 31
0.0
  0
LINE
  5
74CA
330
18
100
AcDbEntity
  8
DRAW2
100
AcDbLine
 10
-48.89991558242178
 20
426.6250300000003
 30
0.0
 11
-49.52491558242178
 21
426.0000300000004
 31
0.0
  0
LINE
  5
74CB
330
18
100
AcDbEntity
  8
DRAW2
100
AcDbLine
 10
-55.0
 20
438.0000023606838
 30
0.0
 11
-54.50000061094761
 21
437.5000008027552
 31
0.0
  0
LINE
  5
74CC
330
18
100
AcDbEntity
  8
DRAW2
100
AcDbLine
 10
-56.98897558989347
 20
439.9999699999997
 30
0.0
 11
-64.80000000000018
 21
439.9999699999999
 31
0.0
  0
ARC
  5
74CD
330
18
100
AcDbEntity
  8
DRAW2
100
AcDbCircle
 10
-56.99992999999995
 20
438.0
 30
0.0
 40
2.0
100
AcDbArc
 50
359.999989999999
 51
89.99999699999904
  0
LINE
  5
74CE
330
18
100
AcDbEntity
  8
DRAW2
100
AcDbLine
 10
-67.79997000000014
 20
440.0000762939453
 30
0.0
 11
-67.29997000000015
 21
439.5000762939453
 31
0.0
  0
LINE
  5
74D5
330
18
100
AcDbEntity
  8
DRAW2
100
AcDbLine
 10
14.0
 20
374.9999999999999
 30
0.0
 11
-14.0
 21
374.9999999999999
 31
0.0
  0
LINE
  5
74D6
330
18
100
AcDbEntity
  8
DRAW2
100
AcDbLine
 10
-36.0
 20
406.3600199999998
 30
0.0
 11
-36.0
 21
366.9999999999997
 31
0.0
  0
LINE
  5
74D7
330
18
100
AcDbEntity
  8
DRAW2
100
AcDbLine
 10
-35.0
 20
405.0
 30
0.0
 11
-35.00000000000011
 21
367.0
 31
0.0
  0
ARC
  5
74D8
330
18
100
AcDbEntity
  8
DRAW2
100
AcDbCircle
 10
-20.0
 20
369.9999999999999
 30
0.0
 40
3.0
100
AcDbArc
 50
270.0
 51
0.0
  0
LINE
  5
74D9
330
18
100
AcDbEntity
  8
DRAW2
100
AcDbLine
 10
-17.0
 20
371.9999999999999
 30
0.0
 11
-17.0
 21
369.9999999999999
 31
0.0
  0
ARC
  5
74DA
330
18
100
AcDbEntity
  8
DRAW2
100
AcDbCircle
 10
-14.0
 20
371.9999999999999
 30
0.0
 40
3.0
100
AcDbArc
 50
90.0
 51
180.0
  0
LINE
  5
74DE
330
18
100
AcDbEntity
  8
DRAW2
100
AcDbLine
 10
17.0
 20
371.9999999999999
 30
0.0
 11
17.0
 21
369.9999999999999
 31
0.0
  0
ARC
  5
74DF
330
18
100
AcDbEntity
  8
DRAW2
100
AcDbCircle
 10
20.0
 20
369.9999999999999
 30
0.0
 40
3.0
100
AcDbArc
 50
180.0
 51
270.0
  0
ARC
  5
74E0
330
18
100
AcDbEntity
  8
DRAW2
100
AcDbCircle
 10
14.0
 20
371.9999999999999
 30
0.0
 40
3.0
100
AcDbArc
 50
0.0
 51
90.0
  0
LINE
  5
7540
330
18
100
AcDbEntity
  8
DRAW2
100
AcDbLine
 10
54.49993061127088
 20
262.5000027959506
 30
0.0
 11
54.49993061127088
 21
277.5000044014607
 31
0.0
  0
LINE
  5
7547
330
18
100
AcDbEntity
  8
DRAW2
100
AcDbLine
 10
122.2999400000003
 20
329.9228110674544
 30
0.0
 11
122.2999400000003
 21
259.9999999999997
 31
0.0
  0
LINE
  5
7548
330
18
100
AcDbEntity
  8
DRAW2
100
AcDbLine
 10
67.29997000000037
 20
260.4999999999997
 30
0.0
 11
67.29997000000037
 21
333.0
 31
0.0
  0
LINE
  5
7549
330
18
100
AcDbEntity
  8
DRAW2
100
AcDbLine
 10
55.0
 20
261.9999899999999
 30
0.0
 11
55.0
 21
332.5
 31
0.0
  0
LINE
  5
754A
330
18
100
AcDbEntity
  8
DRAW2
100
AcDbLine
 10
77.30000000000018
 20
262.0000991821286
 30
0.0
 11
77.30000000000018
 21
332.9595736264839
 31
0.0
  0
LINE
  5
754B
330
18
100
AcDbEntity
  8
DRAW2
100
AcDbLine
 10
64.8
 20
333.0
 30
0.0
 11
64.8
 21
259.9999899999999
 31
0.0
  0
LINE
  5
754C
330
18
100
AcDbEntity
  8
DRAW2
100
AcDbLine
 10
67.79990896484412
 20
333.0
 30
0.0
 11
67.79990896484412
 21
260.0000610351561
 31
0.0
  0
CIRCLE
  5
754F
330
18
100
AcDbEntity
  8
DRAW2
100
AcDbCircle
 10
97.5
 20
279.9999999999998
 30
0.0
 40
8.75
  0
LINE
  5
7550
330
18
100
AcDbEntity
  8
DRAW2
100
AcDbLine
 10
75.4863768777758
 20
260.0
 30
0.0
 11
122.5
 21
260.0
 31
0.0
  0
LINE
  5
7551
330
18
100
AcDbEntity
  8
DRAW2
100
AcDbLine
 10
57.0
 20
259.9999899999999
 30
0.0
 11
64.8
 21
259.9999899999999
 31
0.0
  0
LINE
  5
7557
330
18
100
AcDbEntity
  8
DRAW2
100
AcDbLine
 10
54.99993000032327
 20
262.0000012380221
 30
0.0
 11
54.49993061127088
 21
262.5000027959506
 31
0.0
  0
ARC
  5
7558
330
18
100
AcDbEntity
  8
DRAW2
100
AcDbCircle
 10
57.0
 20
261.9999899999999
 30
0.0
 40
2.0
100
AcDbArc
 50
179.9999899999989
 51
270.0
  0
LINE
  5
755D
330
18
100
AcDbEntity
  8
DRAW2
100
AcDbLine
 10
75.30003051757836
 20
260.0000610351561
 30
0.0
 11
67.79990896484417
 21
260.0000610351561
 31
0.0
  0
LINE
  5
755E
330
18
100
AcDbEntity
  8
DRAW2
100
AcDbLine
 10
67.79990896484412
 20
260.0000610351561
 30
0.0
 11
67.29990896484401
 21
260.500061035156
 31
0.0
  0
ARC
  5
755F
330
18
100
AcDbEntity
  8
DRAW2
100
AcDbCircle
 10
75.29993896484393
 20
262.000076293945
 30
0.0
 40
2.0
100
AcDbArc
 50
269.9999683535326
 51
359.9999503674403
  0
LINE
  5
7560
330
18
100
AcDbEntity
  8
DRAW2
100
AcDbLine
 10
64.79991610000081
 20
265.9999699999995
 30
0.0
 11
67.29997000000043
 21
265.9999699999995
 31
0.0
  0
LINE
  5
7561
330
18
100
AcDbEntity
  8
DRAW3
100
AcDbLine
 10
64.79991610000081
 20
266.6249699999994
 30
0.0
 11
67.29997000000043
 21
266.6249699999994
 31
0.0
  0
LINE
  5
7568
330
18
100
AcDbEntity
  8
DRAW2
100
AcDbLine
 10
122.5
 20
369.0
 30
0.0
 11
122.5
 21
330.9999999999997
 31
0.0
  0
LINE
  5
7569
330
18
100
AcDbEntity
  8
DRAW2
100
AcDbLine
 10
89.88685347573028
 20
384.7999999999994
 30
0.0
 11
76.35237076591749
 21
363.3333333333332
 31
0.0
  0
LINE
  5
756A
330
18
100
AcDbEntity
  8
DRAW2
100
AcDbLine
 10
105.1131465242696
 20
384.7999999999998
 30
0.0
 11
118.6476292340824
 21
363.3333333333332
 31
0.0
  0
LINE
  5
756C
330
18
100
AcDbEntity
  8
DRAW2
100
AcDbLine
 10
101.2527816000003
 20
313.4999970999999
 30
0.0
 11
105.0055585
 21
319.9999975773625
 31
0.0
  0
LINE
  5
756E
330
18
100
AcDbEntity
  8
DRAW2
100
AcDbLine
 10
93.74722270000006
 20
313.5
 30
0.0
 11
89.99444580000021
 21
320.0000006301264
 31
0.0
  0
LINE
  5
756F
330
18
100
AcDbEntity
  8
DRAW2
100
AcDbLine
 10
91.5
 20
283.4641017999999
 30
0.0
 11
97.50000007112442
 21
286.9282030999999
 31
0.0
  0
CIRCLE
  5
7570
330
18
100
AcDbEntity
  8
DRAW2
100
AcDbCircle
 10
97.50000000000001
 20
320.0
 30
0.0
 40
6.500003299999998
  0
ARC
  5
7572
330
18
100
AcDbEntity
  8
DRAW2
100
AcDbCircle
 10
97.5
 20
320.0
 30
0.0
 40
9.0
100
AcDbArc
 50
212.2309526355041
 51
327.7690473644958
  0
ARC
  5
7574
330
18
100
AcDbEntity
  8
DRAW2
100
AcDbCircle
 10
57.29996948242206
 20
342.8276519775386
 30
0.0
 40
52.99999618530272
100
AcDbArc
 50
299.9999077166551
 51
323.6444106985938
  0
LINE
  5
7576
330
18
100
AcDbEntity
  8
DRAW2
100
AcDbLine
 10
91.5
 20
276.5358981999999
 30
0.0
 11
97.50000007112442
 21
273.0717968999997
 31
0.0
  0
CIRCLE
  5
7577
330
18
100
AcDbEntity
  8
DRAW2
100
AcDbCircle
 10
97.5
 20
279.9999999999998
 30
0.0
 40
6.0
  0
CIRCLE
  5
7578
330
18
100
AcDbEntity
  8
DRAW2
100
AcDbCircle
 10
97.5
 20
279.9999999999998
 30
0.0
 40
4.0
  0
CIRCLE
  5
7579
330
18
100
AcDbEntity
  8
DRAW3
100
AcDbCircle
 10
97.5
 20
279.9999999999998
 30
0.0
 40
3.3235002
  0
LINE
  5
757A
330
18
100
AcDbEntity
  8
DRAW2
100
AcDbLine
 10
101.2527688
 20
313.5000123999999
 30
0.0
 11
93.74721460000023
 21
313.5000123999999
 31
0.0
  0
LINE
  5
757C
330
18
100
AcDbEntity
  8
DRAW2
100
AcDbLine
 10
89.88685347573028
 20
315.1999999999996
 30
0.0
 11
76.35237076591749
 21
336.6666666666665
 31
0.0
  0
LINE
  5
757D
330
18
100
AcDbEntity
  8
DRAW2
100
AcDbLine
 10
36.0
 20
332.5
 30
0.0
 11
36.0
 21
293.6399799999999
 31
0.0
  0
LINE
  5
757E
330
18
100
AcDbEntity
  8
DRAW2
100
AcDbLine
 10
35.0
 20
310.3
 30
0.0
 11
35.0
 21
332.5
 31
0.0
  0
LINE
  5
7580
330
18
100
AcDbEntity
  8
DRAW2
100
AcDbLine
 10
38.32512999999983
 20
290.7168599999999
 30
0.0
 11
49.57466678161018
 21
288.1196834598878
 31
0.0
  0
ARC
  5
7581
330
18
100
AcDbEntity
  8
DRAW2
100
AcDbCircle
 10
38.99992999999983
 20
293.6399799999999
 30
0.0
 40
2.999999799999999
100
AcDbArc
 50
179.9999899999989
 51
256.9999899999995
  0
LINE
  5
7582
330
18
100
AcDbEntity
  8
DRAW2
100
AcDbLine
 10
54.99993000032327
 20
278.0000059593892
 30
0.0
 11
54.49993061127088
 21
277.5000044014607
 31
0.0
  0
LINE
  5
7587
330
18
100
AcDbEntity
  8
DRAW2
100
AcDbLine
 10
54.99993000032327
 20
302.0000476465356
 30
0.0
 11
54.49993061127088
 21
302.5000492044641
 31
0.0
  0
LINE
  5
7588
330
18
100
AcDbEntity
  8
DRAW2
100
AcDbLine
 10
54.49993061127088
 20
302.5000492044641
 30
0.0
 11
54.49993061127088
 21
317.5000508099742
 31
0.0
  0
LINE
  5
7589
330
18
100
AcDbEntity
  8
DRAW2
100
AcDbLine
 10
54.99993000032327
 20
318.0000523679027
 30
0.0
 11
54.49993061127088
 21
317.5000508099742
 31
0.0
  0
LINE
  5
7592
330
18
100
AcDbEntity
  8
DRAW2
100
AcDbLine
 10
78.79978446960478
 20
294.0416793823242
 30
0.0
 11
83.79972915649437
 21
296.9283981323242
 31
0.0
  0
ARC
  5
7593
330
18
100
AcDbEntity
  8
DRAW2
100
AcDbCircle
 10
80.29990844726587
 20
291.4434356689453
 30
0.0
 40
2.999999761581421
100
AcDbArc
 50
119.9998890473218
 51
179.9999453584866
  0
LINE
  5
7595
330
18
100
AcDbEntity
  8
DRAW2
100
AcDbLine
 10
64.79991610000081
 20
273.9999699999994
 30
0.0
 11
67.29997000000043
 21
273.9999699999994
 31
0.0
  0
LINE
  5
7596
330
18
100
AcDbEntity
  8
DRAW3
100
AcDbLine
 10
64.79991610000081
 20
273.3749699999995
 30
0.0
 11
67.29997000000043
 21
273.3749699999995
 31
0.0
  0
LINE
  5
7599
330
18
100
AcDbEntity
  8
DRAW2
100
AcDbLine
 10
91.5
 20
276.5358983999998
 30
0.0
 11
91.5
 21
283.4641015999998
 31
0.0
  0
LINE
  5
759C
330
18
100
AcDbEntity
  8
DRAW2
100
AcDbLine
 10
64.79991610000081
 20
306.0000164085131
 30
0.0
 11
67.29997000000043
 21
306.0000164085131
 31
0.0
  0
LINE
  5
759D
330
18
100
AcDbEntity
  8
DRAW3
100
AcDbLine
 10
64.79991610000081
 20
306.6250164085129
 30
0.0
 11
67.29997000000043
 21
306.6250164085129
 31
0.0
  0
LINE
  5
759E
330
18
100
AcDbEntity
  8
DRAW3
100
AcDbLine
 10
64.79991610000081
 20
313.3750164085129
 30
0.0
 11
67.29997000000043
 21
313.3750164085129
 31
0.0
  0
LINE
  5
759F
330
18
100
AcDbEntity
  8
DRAW2
100
AcDbLine
 10
64.79991610000081
 20
314.0000164085131
 30
0.0
 11
67.29997000000043
 21
314.0000164085131
 31
0.0
  0
LINE
  5
75AC
330
18
100
AcDbEntity
  8
DRAW2
100
AcDbLine
 10
59.5
 20
332.5
 30
0.0
 11
33.0
 21
332.5
 31
0.0
  0
LINE
  5
75AD
330
18
100
AcDbEntity
  8
DRAW2
100
AcDbLine
 10
33.0
 20
332.5
 30
0.0
 11
33.0
 21
333.0
 31
0.0
  0
LINE
  5
75AE
330
18
100
AcDbEntity
  8
DRAW2
100
AcDbLine
 10
59.5
 20
333.0
 30
0.0
 11
59.5
 21
332.5
 31
0.0
  0
ARC
  5
75AF
330
18
100
AcDbEntity
  8
DRAW2
100
AcDbCircle
 10
97.5
 20
350.0
 30
0.0
 40
25.0
100
AcDbArc
 50
147.7690473644958
 51
212.2309526355041
  0
ARC
  5
75B0
330
18
100
AcDbEntity
  8
DRAW2
100
AcDbCircle
 10
77.00912943778337
 20
330.0
 30
0.0
 40
3.0
100
AcDbArc
 50
32.23095263550413
 51
90.0
  0
LINE
  5
75B1
330
18
100
AcDbEntity
  8
DRAW2
100
AcDbLine
 10
101.2527626
 20
326.5000142999999
 30
0.0
 11
93.74720840000009
 21
326.5000142999999
 31
0.0
  0
LINE
  5
75B3
330
18
100
AcDbEntity
  8
DRAW2
100
AcDbLine
 10
105.1131465242696
 20
315.1999999999996
 30
0.0
 11
118.6476292340824
 21
336.6666666666665
 31
0.0
  0
LINE
  5
75B4
330
18
100
AcDbEntity
  8
DRAW2
100
AcDbLine
 10
97.49999992887536
 20
286.9282030999999
 30
0.0
 11
103.4999999999999
 21
283.4641017999999
 31
0.0
  0
LINE
  5
75B5
330
18
100
AcDbEntity
  8
DRAW2
100
AcDbLine
 10
97.49999992887536
 20
273.0717968999997
 30
0.0
 11
103.4999999999999
 21
276.5358981999999
 31
0.0
  0
LINE
  5
75B6
330
18
100
AcDbEntity
  8
DRAW2
100
AcDbLine
 10
103.4999999999999
 20
276.5358983999998
 30
0.0
 11
103.4999999999999
 21
283.4641015999998
 31
0.0
  0
LINE
  5
75B7
330
18
100
AcDbEntity
  8
DRAW2
100
AcDbLine
 10
105.0055542
 20
319.9999993698734
 30
0.0
 11
101.2527773000003
 21
326.5
 31
0.0
  0
ARC
  5
75B9
330
18
100
AcDbEntity
  8
DRAW2
100
AcDbCircle
 10
97.5
 20
350.0
 30
0.0
 40
25.0
100
AcDbArc
 50
327.7690473644958
 51
32.23095263550413
  0
LINE
  5
75BA
330
18
100
AcDbEntity
  8
DRAW2
100
AcDbLine
 10
89.99444910000034
 20
319.9999978926843
 30
0.0
 11
93.74722620000012
 21
326.4999985999999
 31
0.0
  0
ARC
  5
75BC
330
18
100
AcDbEntity
  8
DRAW2
100
AcDbCircle
 10
114.8384289372601
 20
325.0
 30
0.0
 40
3.0
100
AcDbArc
 50
90.0
 51
147.7690473644958
  0
LINE
  5
75BD
330
18
100
AcDbEntity
  8
DRAW2
100
AcDbLine
 10
119.5
 20
328.0
 30
0.0
 11
114.8384289372601
 21
328.0
 31
0.0
  0
ARC
  5
75BE
330
18
100
AcDbEntity
  8
DRAW2
100
AcDbCircle
 10
119.5
 20
330.9999999999997
 30
0.0
 40
3.0
100
AcDbArc
 50
270.0
 51
0.0
  0
LINE
  5
75BF
330
18
100
AcDbEntity
  8
DRAW2
100
AcDbLine
 10
122.5
 20
355.7735443115236
 30
0.0
 11
122.850830078125
 21
355.7735443115232
 31
0.0
  0
LINE
  5
75C0
330
18
100
AcDbEntity
  8
DRAW2
100
AcDbLine
 10
122.5
 20
344.2264251708986
 30
0.0
 11
122.850830078125
 21
344.2264251708984
 31
0.0
  0
ARC
  5
75C1
330
18
100
AcDbEntity
  8
DRAW2
100
AcDbCircle
 10
85.96933256081507
 20
350.0000812869156
 30
0.0
 40
37.33060743927375
100
AcDbArc
 50
351.1028340677439
 51
8.896964669045598
  0
LINE
  5
75C2
330
18
100
AcDbEntity
  8
DRAW2
100
AcDbLine
 10
75.4863768777758
 20
439.9999999999997
 30
0.0
 11
122.5
 21
439.9999999999997
 31
0.0
  0
LINE
  5
75C3
330
18
100
AcDbEntity
  8
DRAW2
100
AcDbLine
 10
91.5
 20
416.5358981999999
 30
0.0
 11
97.50000007112442
 21
413.0717968999999
 31
0.0
  0
LINE
  5
75C5
330
18
100
AcDbEntity
  8
DRAW2
100
AcDbLine
 10
101.2527772999999
 20
386.4999999999999
 30
0.0
 11
105.0055541999997
 21
379.9999993698734
 31
0.0
  0
CIRCLE
  5
75C6
330
18
100
AcDbEntity
  8
DRAW3
100
AcDbCircle
 10
97.5
 20
420.0
 30
0.0
 40
3.3235002
  0
CIRCLE
  5
75C7
330
18
100
AcDbEntity
  8
DRAW2
100
AcDbCircle
 10
97.5
 20
420.0
 30
0.0
 40
6.0
  0
CIRCLE
  5
75C8
330
18
100
AcDbEntity
  8
DRAW2
100
AcDbCircle
 10
97.5
 20
420.0
 30
0.0
 40
4.0
  0
ARC
  5
75C9
330
18
100
AcDbEntity
  8
DRAW2
100
AcDbCircle
 10
97.5
 20
379.9999999999999
 30
0.0
 40
9.0
100
AcDbArc
 50
32.23095263550413
 51
147.7690473644958
  0
ARC
  5
75CC
330
18
100
AcDbEntity
  8
DRAW2
100
AcDbCircle
 10
57.49993896484363
 20
357.1725006103511
 30
0.0
 40
52.99999618530272
100
AcDbArc
 50
36.35546635799722
 51
60.00002398145169
  0
CIRCLE
  5
75CD
330
18
100
AcDbEntity
  8
DRAW2
100
AcDbCircle
 10
97.5
 20
420.0
 30
0.0
 40
8.75
  0
LINE
  5
75CE
330
18
100
AcDbEntity
  8
DRAW2
100
AcDbLine
 10
91.5
 20
423.4641017999999
 30
0.0
 11
97.50000007112442
 21
426.9282031
 31
0.0
  0
LINE
  5
75D0
330
18
100
AcDbEntity
  8
DRAW2
100
AcDbLine
 10
93.74721839999962
 20
386.5000028999999
 30
0.0
 11
89.9944415
 21
380.0000024226373
 31
0.0
  0
CIRCLE
  5
75D1
330
18
100
AcDbEntity
  8
DRAW2
100
AcDbCircle
 10
97.49999999999998
 20
379.9999999999999
 30
0.0
 40
6.500003299999998
  0
LINE
  5
75D4
330
18
100
AcDbEntity
  8
DRAW2
100
AcDbLine
 10
38.32512999999983
 20
409.2830499999999
 30
0.0
 11
49.57464563644077
 21
411.8801849237525
 31
0.0
  0
LINE
  5
75D5
330
18
100
AcDbEntity
  8
DRAW2
100
AcDbLine
 10
55.0
 20
366.9999699999998
 30
0.0
 11
55.0
 21
437.9999699999998
 31
0.0
  0
LINE
  5
75D6
330
18
100
AcDbEntity
  8
DRAW2
100
AcDbLine
 10
64.8
 20
439.9999399999996
 30
0.0
 11
64.8
 21
366.9999699999996
 31
0.0
  0
LINE
  5
75D7
330
18
100
AcDbEntity
  8
DRAW2
100
AcDbLine
 10
67.29997000000048
 20
439.5001373291018
 30
0.0
 11
67.29997000000025
 21
367.0
 31
0.0
  0
LINE
  5
75D8
330
18
100
AcDbEntity
  8
DRAW2
100
AcDbLine
 10
67.79990896484412
 20
440.0000762939453
 30
0.0
 11
67.79990896484412
 21
367.0
 31
0.0
  0
LINE
  5
75D9
330
18
100
AcDbEntity
  8
DRAW2
100
AcDbLine
 10
77.30000000000018
 20
366.9999999999999
 30
0.0
 11
77.30000000000018
 21
438.0000457763668
 31
0.0
  0
LINE
  5
75DB
330
18
100
AcDbEntity
  8
DRAW2
100
AcDbLine
 10
54.49993061127088
 20
382.4999563874376
 30
0.0
 11
54.49993061127088
 21
397.4999579929477
 31
0.0
  0
LINE
  5
75DE
330
18
100
AcDbEntity
  8
DRAW2
100
AcDbLine
 10
35.00000000000005
 20
367.0
 30
0.0
 11
35.0
 21
405.0
 31
0.0
  0
LINE
  5
75DF
330
18
100
AcDbEntity
  8
DRAW2
100
AcDbLine
 10
36.0
 20
406.3600199999998
 30
0.0
 11
36.0
 21
366.9999999999997
 31
0.0
  0
LINE
  5
75E0
330
18
100
AcDbEntity
  8
DRAW2
100
AcDbLine
 10
54.99993000032327
 20
381.9999548295092
 30
0.0
 11
54.49993061127088
 21
382.4999563874376
 31
0.0
  0
ARC
  5
75E4
330
18
100
AcDbEntity
  8
DRAW2
100
AcDbCircle
 10
38.99992999999983
 20
406.3600199999998
 30
0.0
 40
2.999999799999999
100
AcDbArc
 50
103.000000000001
 51
180.0000099999977
  0
LINE
  5
75E5
330
18
100
AcDbEntity
  8
DRAW2
100
AcDbLine
 10
54.99993000032327
 20
397.9999595508762
 30
0.0
 11
54.49993061127088
 21
397.4999579929477
 31
0.0
  0
ARC
  5
75EE
330
18
100
AcDbEntity
  8
DRAW2
100
AcDbCircle
 10
77.00912943778337
 20
369.9999999999999
 30
0.0
 40
3.0
100
AcDbArc
 50
270.0
 51
327.7690473644958
  0
LINE
  5
75EF
330
18
100
AcDbEntity
  8
DRAW3
100
AcDbLine
 10
64.79991610000081
 20
386.6248935914861
 30
0.0
 11
67.29997000000025
 21
386.6248935914856
 31
0.0
  0
LINE
  5
75F0
330
18
100
AcDbEntity
  8
DRAW2
100
AcDbLine
 10
64.79991610000081
 20
385.9998935914861
 30
0.0
 11
67.29997000000025
 21
385.9998935914855
 31
0.0
  0
LINE
  5
75F4
330
18
100
AcDbEntity
  8
DRAW2
100
AcDbLine
 10
93.74723119999998
 20
386.4999876
 30
0.0
 11
101.2527854
 21
386.4999876
 31
0.0
  0
ARC
  5
75F5
330
18
100
AcDbEntity
  8
DRAW2
100
AcDbCircle
 10
80.4998779296875
 20
408.5567321777341
 30
0.0
 40
2.999999761581426
100
AcDbArc
 50
179.9999863396216
 51
240.0000426507834
  0
LINE
  5
75F7
330
18
100
AcDbEntity
  8
DRAW3
100
AcDbLine
 10
64.79991610000081
 20
393.3748935914861
 30
0.0
 11
67.29997000000025
 21
393.3748935914854
 31
0.0
  0
LINE
  5
75F8
330
18
100
AcDbEntity
  8
DRAW2
100
AcDbLine
 10
64.79991610000081
 20
393.9998935914861
 30
0.0
 11
67.29997000000025
 21
393.9998935914854
 31
0.0
  0
LINE
  5
75F9
330
18
100
AcDbEntity
  8
DRAW2
100
AcDbLine
 10
78.9998664855957
 20
405.958526611328
 30
0.0
 11
83.99987030029297
 21
403.0717773437499
 31
0.0
  0
LINE
  5
7600
330
18
100
AcDbEntity
  8
DRAW2
100
AcDbLine
 10
57.0
 20
439.9999399999997
 30
0.0
 11
64.8
 21
439.9999399999996
 31
0.0
  0
LINE
  5
7602
330
18
100
AcDbEntity
  8
DRAW2
100
AcDbLine
 10
54.49993061127088
 20
422.5000027959512
 30
0.0
 11
54.49993061127088
 21
437.5000044014613
 31
0.0
  0
LINE
  5
7603
330
18
100
AcDbEntity
  8
DRAW2
100
AcDbLine
 10
54.99993000032327
 20
422.0000012380228
 30
0.0
 11
54.49993061127088
 21
422.5000027959512
 31
0.0
  0
LINE
  5
760C
330
18
100
AcDbEntity
  8
DRAW2
100
AcDbLine
 10
54.99993000032327
 20
438.0000059593898
 30
0.0
 11
54.49993061127088
 21
437.5000044014613
 31
0.0
  0
ARC
  5
760D
330
18
100
AcDbEntity
  8
DRAW2
100
AcDbCircle
 10
57.0
 20
437.9999699999998
 30
0.0
 40
2.0
100
AcDbArc
 50
90.00000299999769
 51
180.0000099999977
  0
LINE
  5
7613
330
18
100
AcDbEntity
  8
DRAW3
100
AcDbLine
 10
64.79991610000081
 20
426.6249399999995
 30
0.0
 11
67.29997000000048
 21
426.6249399999995
 31
0.0
  0
LINE
  5
7614
330
18
100
AcDbEntity
  8
DRAW2
100
AcDbLine
 10
64.79991610000081
 20
425.9999399999994
 30
0.0
 11
67.29997000000048
 21
425.9999399999994
 31
0.0
  0
LINE
  5
7615
330
18
100
AcDbEntity
  8
DRAW2
100
AcDbLine
 10
64.79991610000081
 20
433.9999399999994
 30
0.0
 11
67.29997000000048
 21
433.9999399999994
 31
0.0
  0
LINE
  5
7616
330
18
100
AcDbEntity
  8
DRAW3
100
AcDbLine
 10
64.79991610000081
 20
433.3749399999994
 30
0.0
 11
67.29997000000048
 21
433.3749399999994
 31
0.0
  0
LINE
  5
761A
330
18
100
AcDbEntity
  8
DRAW2
100
AcDbLine
 10
91.5
 20
423.4641016
 30
0.0
 11
91.5
 21
416.5358984000001
 31
0.0
  0
LINE
  5
761F
330
18
100
AcDbEntity
  8
DRAW2
100
AcDbLine
 10
75.30003051757836
 20
440.0000762939452
 30
0.0
 11
67.79990896484401
 21
440.0000762939452
 31
0.0
  0
LINE
  5
7620
330
18
100
AcDbEntity
  8
DRAW2
100
AcDbLine
 10
67.79990896484412
 20
440.0000762939453
 30
0.0
 11
67.29990896484401
 21
439.5000762939453
 31
0.0
  0
ARC
  5
7621
330
18
100
AcDbEntity
  8
DRAW2
100
AcDbCircle
 10
75.29993896484393
 20
438.0000457763668
 30
0.0
 40
2.000000000000011
100
AcDbArc
 50
359.9999813306646
 51
89.99996334457568
  0
LINE
  5
7624
330
18
100
AcDbEntity
  8
DRAW2
100
AcDbLine
 10
122.2999400000003
 20
370.0771889325453
 30
0.0
 11
122.2999400000003
 21
440.0
 31
0.0
  0
LINE
  5
7625
330
18
100
AcDbEntity
  8
DRAW2
100
AcDbLine
 10
105.0055508999998
 20
380.0000021073156
 30
0.0
 11
101.2527737999996
 21
373.5000013999999
 31
0.0
  0
LINE
  5
7627
330
18
100
AcDbEntity
  8
DRAW2
100
AcDbLine
 10
89.9944458
 20
380.0000006301264
 30
0.0
 11
93.74722269999962
 21
373.4999999999999
 31
0.0
  0
LINE
  5
762A
330
18
100
AcDbEntity
  8
DRAW2
100
AcDbLine
 10
93.74723739999991
 20
373.4999856999999
 30
0.0
 11
101.2527915999999
 21
373.4999856999999
 31
0.0
  0
ARC
  5
762B
330
18
100
AcDbEntity
  8
DRAW2
100
AcDbCircle
 10
119.5
 20
369.0
 30
0.0
 40
3.0
100
AcDbArc
 50
0.0
 51
90.0
  0
ARC
  5
762C
330
18
100
AcDbEntity
  8
DRAW2
100
AcDbCircle
 10
114.8384289372601
 20
374.9999999999999
 30
0.0
 40
3.0
100
AcDbArc
 50
212.2309526355041
 51
270.0
  0
LINE
  5
762D
330
18
100
AcDbEntity
  8
DRAW2
100
AcDbLine
 10
119.5
 20
371.9999999999999
 30
0.0
 11
114.8384289372601
 21
371.9999999999999
 31
0.0
  0
LINE
  5
762E
330
18
100
AcDbEntity
  8
DRAW2
100
AcDbLine
 10
103.4999999999999
 20
423.4641016
 30
0.0
 11
103.4999999999999
 21
416.5358984000001
 31
0.0
  0
LINE
  5
762F
330
18
100
AcDbEntity
  8
DRAW2
100
AcDbLine
 10
97.49999992887536
 20
413.0717968999999
 30
0.0
 11
103.4999999999999
 21
416.5358981999999
 31
0.0
  0
LINE
  5
7630
330
18
100
AcDbEntity
  8
DRAW2
100
AcDbLine
 10
97.49999992887536
 20
426.9282031
 30
0.0
 11
103.4999999999999
 21
423.4641017999999
 31
0.0
  0
LINE
  5
77D6
330
18
100
AcDbEntity
  8
DRAW2
100
AcDbLine
 10
-35.00000000000005
 20
333.0
 30
0.0
 11
-35.0
 21
311.0
 31
0.0
  0
LINE
  5
77D7
330
18
100
AcDbEntity
  8
DRAW2
100
AcDbLine
 10
35.0
 20
332.5
 30
0.0
 11
35.0
 21
310.0
 31
0.0
  0
LINE
  5
77D8
330
18
100
AcDbEntity
  8
DRAW2
100
AcDbLine
 10
-35.0
 20
333.0
 30
0.0
 11
-35.0
 21
310.0
 31
0.0
  0
LINE
  5
77D9
330
18
100
AcDbEntity
  8
DRAW2
100
AcDbLine
 10
35.0
 20
310.3
 30
0.0
 11
35.0
 21
332.5
 31
0.0
  0
LINE
  5
77DB
330
18
100
AcDbEntity
  8
DRAW2
100
AcDbLine
 10
34.5
 20
309.0
 30
0.0
 11
-34.5
 21
309.0
 31
0.0
  0
LINE
  5
77DC
330
18
100
AcDbEntity
  8
DRAW2
100
AcDbLine
 10
-34.5
 20
295.0
 30
0.0
 11
34.5
 21
295.0
 31
0.0
  0
LINE
  5
77DD
330
18
100
AcDbEntity
  8
DRAW2
100
AcDbLine
 10
-34.0
 20
310.0
 30
0.0
 11
34.0
 21
310.0
 31
0.0
  0
LINE
  5
77DE
330
18
100
AcDbEntity
  8
DRAW2
100
AcDbLine
 10
-34.0
 20
309.0
 30
0.0
 11
34.0
 21
309.0
 31
0.0
  0
LINE
  5
77DF
330
18
100
AcDbEntity
  8
DRAW2
100
AcDbLine
 10
34.0
 20
310.0
 30
0.0
 11
-34.0
 21
310.0
 31
0.0
  0
ARC
  5
77E1
330
18
100
AcDbEntity
  8
DRAW2
100
AcDbCircle
 10
-34.0
 20
311.0
 30
0.0
 40
1.0
100
AcDbArc
 50
180.0
 51
270.0
  0
LINE
  5
77E2
330
18
100
AcDbEntity
  8
DRAW2
100
AcDbLine
 10
-35.0
 20
295.5
 30
0.0
 11
-34.5
 21
295.0
 31
0.0
  0
LINE
  5
77E3
330
18
100
AcDbEntity
  8
DRAW2
100
AcDbLine
 10
-34.5
 20
309.0
 30
0.0
 11
-35.0
 21
308.4999999999999
 31
0.0
  0
LINE
  5
77E4
330
18
100
AcDbEntity
  8
DRAW2
100
AcDbLine
 10
-35.0
 20
308.4999999999999
 30
0.0
 11
-35.0
 21
295.5
 31
0.0
  0
LINE
  5
77E5
330
18
100
AcDbEntity
  8
DRAW2
100
AcDbLine
 10
-34.0
 20
309.0
 30
0.0
 11
-34.0
 21
310.0
 31
0.0
  0
LINE
  5
77E6
330
18
100
AcDbEntity
  8
DRAW2
100
AcDbLine
 10
-25.0
 20
309.0
 30
0.0
 11
-25.0
 21
310.0
 31
0.0
  0
LINE
  5
77E7
330
18
100
AcDbEntity
  8
DRAW2
100
AcDbLine
 10
25.0
 20
309.0
 30
0.0
 11
25.0
 21
310.0
 31
0.0
  0
ARC
  5
77E8
330
18
100
AcDbEntity
  8
DRAW2
100
AcDbCircle
 10
34.0
 20
311.0
 30
0.0
 40
1.0
100
AcDbArc
 50
270.0
 51
0.0
  0
LINE
  5
77E9
330
18
100
AcDbEntity
  8
DRAW2
100
AcDbLine
 10
35.0
 20
295.5
 30
0.0
 11
34.5
 21
295.0
 31
0.0
  0
LINE
  5
77EA
330
18
100
AcDbEntity
  8
DRAW2
100
AcDbLine
 10
34.5
 20
309.0
 30
0.0
 11
35.0
 21
308.4999999999999
 31
0.0
  0
LINE
  5
77EB
330
18
100
AcDbEntity
  8
DRAW2
100
AcDbLine
 10
35.0
 20
295.5
 30
0.0
 11
35.0
 21
308.4999999999999
 31
0.0
  0
LINE
  5
77EC
330
18
100
AcDbEntity
  8
DRAW2
100
AcDbLine
 10
34.0
 20
309.0
 30
0.0
 11
34.0
 21
310.0
 31
0.0
  0
LINE
  5
77ED
330
18
100
AcDbEntity
  8
DRAW2
100
AcDbLine
 10
-36.0
 20
310.0
 30
0.0
 11
-35.0
 21
310.0
 31
0.0
  0
LINE
  5
77EE
330
18
100
AcDbEntity
  8
DRAW2
100
AcDbLine
 10
36.00000000000005
 20
310.0
 30
0.0
 11
35.0
 21
310.0
 31
0.0
  0
ARC
  5
77F0
330
18
100
AcDbEntity
  8
DRAW2
100
AcDbCircle
 10
29.82757467381395
 20
441.7881797874022
 30
0.0
 40
28.0
100
AcDbArc
 50
90.0
 51
173.4132245732383
  0
ARC
  5
77F1
330
18
100
AcDbEntity
  8
DRAW2
100
AcDbCircle
 10
29.82757467381395
 20
441.7881797874022
 30
0.0
 40
32.0
100
AcDbArc
 50
90.0
 51
174.2395584958303
  0
LINE
  5
77F2
330
18
100
AcDbEntity
  8
DRAW2
100
AcDbLine
 10
9.5
 20
426.5000000000002
 30
0.0
 11
9.5
 21
421.4999999999999
 31
0.0
  0
LINE
  5
77F3
330
18
100
AcDbEntity
  8
DRAW2
100
AcDbLine
 10
8.622983346207092
 20
426.5000000000002
 30
0.0
 11
8.622983346207092
 21
421.4999999999999
 31
0.0
  0
LINE
  5
77F4
330
18
100
AcDbEntity
  8
DRAW2
100
AcDbLine
 10
0.8770166537926797
 20
426.5000000000001
 30
0.0
 11
0.8770166537926797
 21
421.4999999999999
 31
0.0
  0
LINE
  5
77F5
330
18
100
AcDbEntity
  8
DRAW2
100
AcDbLine
 10
-0.8770166537937598
 20
426.5000000000001
 30
0.0
 11
-0.8770166537937598
 21
421.4999999999999
 31
0.0
  0
LINE
  5
77F6
330
18
100
AcDbEntity
  8
DRAW2
100
AcDbLine
 10
-8.62298334620732
 20
426.4999999999999
 30
0.0
 11
-8.62298334620732
 21
421.4999999999999
 31
0.0
  0
LINE
  5
77F7
330
18
100
AcDbEntity
  8
DRAW2
100
AcDbLine
 10
-9.5
 20
426.4999999999999
 30
0.0
 11
-9.5
 21
421.4999999999999
 31
0.0
  0
LINE
  5
77F8
330
18
100
AcDbEntity
  8
DRAW2
100
AcDbLine
 10
-7.600000000000022
 20
409.7
 30
0.0
 11
-2.0
 21
409.7
 31
0.0
  0
LINE
  5
77F9
330
18
100
AcDbEntity
  8
DRAW2
100
AcDbLine
 10
13.28300000000001
 20
411.7
 30
0.0
 11
-13.28300000000001
 21
411.7
 31
0.0
  0
LINE
  5
77FA
330
18
100
AcDbEntity
  8
DRAW2
100
AcDbLine
 10
10.5
 20
421.2
 30
0.0
 11
-10.5
 21
421.2000000000002
 31
0.0
  0
LINE
  5
77FB
330
18
100
AcDbEntity
  8
DRAW2
100
AcDbLine
 10
10.5
 20
419.7
 30
0.0
 11
-10.5
 21
419.7
 31
0.0
  0
LINE
  5
77FC
330
18
100
AcDbEntity
  8
DRAW2
100
AcDbLine
 10
9.5
 20
421.4999999999999
 30
0.0
 11
-9.5
 21
421.4999999999999
 31
0.0
  0
ARC
  5
77FD
330
18
100
AcDbEntity
  8
DRAW2
100
AcDbCircle
 10
0.0
 20
446.2467496220664
 30
0.0
 40
45.27838782640867
100
AcDbArc
 50
246.5754772320218
 51
293.4245227679781
  0
LINE
  5
77FE
330
18
100
AcDbEntity
  8
DRAW2
100
AcDbLine
 10
-15.0
 20
409.7
 30
0.0
 11
15.0
 21
409.7
 31
0.0
  0
ARC
  5
77FF
330
18
100
AcDbEntity
  8
DRAW2
100
AcDbCircle
 10
-14.99999999999994
 20
406.7
 30
0.0
 40
3.0
100
AcDbArc
 50
89.99995999999923
 51
179.9999479999986
  0
LINE
  5
7800
330
18
100
AcDbEntity
  8
DRAW2
100
AcDbLine
 10
-18.0
 20
406.7
 30
0.0
 11
-18.0
 21
404.7
 31
0.0
  0
LINE
  5
7801
330
18
100
AcDbEntity
  8
DRAW3
100
AcDbLine
 10
-12.12099999999998
 20
411.7
 30
0.0
 11
-12.05849999999998
 21
409.7
 31
0.0
  0
LINE
  5
7802
330
18
100
AcDbEntity
  8
DRAW2
100
AcDbLine
 10
-13.28300000000001
 20
411.7
 30
0.0
 11
-13.22050000000007
 21
409.7
 31
0.0
  0
LINE
  5
7803
330
18
100
AcDbEntity
  8
DRAW2
100
AcDbLine
 10
-12.0
 20
411.7
 30
0.0
 11
-12.0
 21
419.7
 31
0.0
  0
LINE
  5
7804
330
18
100
AcDbEntity
  8
DRAW2
100
AcDbLine
 10
-10.5
 20
419.7
 30
0.0
 11
-10.5
 21
421.2000000000002
 31
0.0
  0
ARC
  5
7805
330
18
100
AcDbEntity
  8
DRAW2
100
AcDbCircle
 10
-9.200000000000045
 20
421.2
 30
0.0
 40
0.3
100
AcDbArc
 50
90.0
 51
179.9999999999772
  0
LINE
  5
7806
330
18
100
AcDbEntity
  8
DRAW2
100
AcDbLine
 10
-7.600000000000136
 20
419.7
 30
0.0
 11
-12.0
 21
419.7
 31
0.0
  0
ARC
  5
7807
330
18
100
AcDbEntity
  8
DRAW2
100
AcDbCircle
 10
15.00000000000005
 20
406.7
 30
0.0
 40
3.0
100
AcDbArc
 50
359.9999799999979
 51
89.99995999999923
  0
LINE
  5
7809
330
18
100
AcDbEntity
  8
DRAW2
100
AcDbLine
 10
18.0
 20
406.7
 30
0.0
 11
18.0
 21
404.7
 31
0.0
  0
LINE
  5
780A
330
18
100
AcDbEntity
  8
DRAW2
100
AcDbLine
 10
12.0
 20
419.7
 30
0.0
 11
7.600000000000022
 21
419.7
 31
0.0
  0
ARC
  5
780B
330
18
100
AcDbEntity
  8
DRAW2
100
AcDbCircle
 10
9.200000000000045
 20
421.2
 30
0.0
 40
0.3
100
AcDbArc
 50
0.0000000000097707
 51
90.0
  0
LINE
  5
780E
330
18
100
AcDbEntity
  8
DRAW2
100
AcDbLine
 10
2.0
 20
409.7
 30
0.0
 11
7.600000000000022
 21
409.7
 31
0.0
  0
LINE
  5
7810
330
18
100
AcDbEntity
  8
DRAW2
100
AcDbLine
 10
10.5
 20
419.7
 30
0.0
 11
10.5
 21
421.2
 31
0.0
  0
LINE
  5
7811
330
18
100
AcDbEntity
  8
DRAW3
100
AcDbLine
 10
12.12099999999998
 20
411.7
 30
0.0
 11
12.05849999999998
 21
409.7
 31
0.0
  0
LINE
  5
7812
330
18
100
AcDbEntity
  8
DRAW2
100
AcDbLine
 10
13.28300000000001
 20
411.7
 30
0.0
 11
13.22050000000007
 21
409.7
 31
0.0
  0
LINE
  5
7813
330
18
100
AcDbEntity
  8
DRAW2
100
AcDbLine
 10
12.0
 20
411.7
 30
0.0
 11
12.0
 21
419.7
 31
0.0
  0
ARC
  5
7814
330
18
100
AcDbEntity
  8
DRAW2
100
AcDbCircle
 10
-4.750000000000568
 20
429.2366794098502
 30
0.0
 40
9.263320590149962
100
AcDbArc
 50
65.28538430779524
 51
114.7146156922047
  0
LINE
  5
7815
330
18
100
AcDbEntity
  8
DRAW2
100
AcDbLine
 10
5.25
 20
445.0000000000001
 30
0.0
 11
-5.25
 21
445.0000000000001
 31
0.0
  0
LINE
  5
7816
330
18
100
AcDbEntity
  8
DRAW2
100
AcDbLine
 10
9.25
 20
438.5000000000002
 30
0.0
 11
-9.25
 21
438.5000000000002
 31
0.0
  0
LINE
  5
7817
330
18
100
AcDbEntity
  8
DRAW2
100
AcDbLine
 10
9.5
 20
429.0000000000002
 30
0.0
 11
-9.5
 21
429.0000000000002
 31
0.0
  0
LINE
  5
7818
330
18
100
AcDbEntity
  8
DRAW2
100
AcDbLine
 10
9.5
 20
426.5000000000002
 30
0.0
 11
-9.5
 21
426.4999999999999
 31
0.0
  0
LINE
  5
7819
330
18
100
AcDbEntity
  8
DRAW2
100
AcDbLine
 10
-9.25
 20
438.5000000000002
 30
0.0
 11
-9.25
 21
441.0000000000002
 31
0.0
  0
LINE
  5
781A
330
18
100
AcDbEntity
  8
DRAW2
100
AcDbLine
 10
-8.62298334620732
 20
437.6514942239682
 30
0.0
 11
-9.5
 21
437.6514942239682
 31
0.0
  0
LINE
  5
781B
330
18
100
AcDbEntity
  8
DRAW2
100
AcDbLine
 10
-8.622983346207377
 20
437.6514942239682
 30
0.0
 11
-8.62298334620732
 21
429.0000000000002
 31
0.0
  0
LINE
  5
781C
330
18
100
AcDbEntity
  8
DRAW2
100
AcDbLine
 10
-9.5
 20
437.9226497308104
 30
0.0
 11
-9.5
 21
429.0000000000002
 31
0.0
  0
LINE
  5
781D
330
18
100
AcDbEntity
  8
DRAW3
100
AcDbLine
 10
-6.929999999999949
 20
426.4999999999999
 30
0.0
 11
-6.929999999999949
 21
429.0000000000002
 31
0.0
  0
LINE
  5
781E
330
18
100
AcDbEntity
  8
DRAW2
100
AcDbLine
 10
-7.600000000000022
 20
426.4999999999999
 30
0.0
 11
-7.600000000000022
 21
429.0000000000002
 31
0.0
  0
LINE
  5
781F
330
18
100
AcDbEntity
  8
DRAW2
100
AcDbLine
 10
-9.5
 20
437.9226497308104
 30
0.0
 11
-8.5
 21
438.4999999999999
 31
0.0
  0
ARC
  5
7820
330
18
100
AcDbEntity
  8
DRAW2
100
AcDbCircle
 10
-5.25
 20
441.0000000000002
 30
0.0
 40
4.0
100
AcDbArc
 50
90.0
 51
180.0
  0
LINE
  5
7821
330
18
100
AcDbEntity
  8
DRAW2
100
AcDbLine
 10
9.25
 20
438.5000000000002
 30
0.0
 11
9.25
 21
441.0000000000002
 31
0.0
  0
LINE
  5
7822
330
18
100
AcDbEntity
  8
DRAW2
100
AcDbLine
 10
0.8770166537926797
 20
437.6514942239682
 30
0.0
 11
-0.8770166537937598
 21
437.6514942239682
 31
0.0
  0
ARC
  5
7823
330
18
100
AcDbEntity
  8
DRAW2
100
AcDbCircle
 10
4.749999999999886
 20
429.2366794098484
 30
0.0
 40
9.263320590151778
100
AcDbArc
 50
65.28538430779821
 51
114.7146156922017
  0
LINE
  5
7824
330
18
100
AcDbEntity
  8
DRAW2
100
AcDbLine
 10
0.8770166537926797
 20
437.6514942239682
 30
0.0
 11
0.8770166537926797
 21
429.0000000000002
 31
0.0
  0
LINE
  5
7825
330
18
100
AcDbEntity
  8
DRAW2
100
AcDbLine
 10
-0.8770166537937598
 20
437.6514942239682
 30
0.0
 11
-0.8770166537937598
 21
429.0000000000002
 31
0.0
  0
LINE
  5
7826
330
18
100
AcDbEntity
  8
DRAW2
100
AcDbLine
 10
8.622983346207092
 20
437.6514942239682
 30
0.0
 11
8.622983346207092
 21
429.0000000000002
 31
0.0
  0
LINE
  5
7827
330
18
100
AcDbEntity
  8
DRAW2
100
AcDbLine
 10
9.5
 20
437.9226497308104
 30
0.0
 11
9.5
 21
429.0000000000002
 31
0.0
  0
LINE
  5
7828
330
18
100
AcDbEntity
  8
DRAW2
100
AcDbLine
 10
9.5
 20
437.6514942239682
 30
0.0
 11
8.622983346207035
 21
437.6514942239682
 31
0.0
  0
LINE
  5
7829
330
18
100
AcDbEntity
  8
DRAW2
100
AcDbLine
 10
7.599999999999909
 20
426.4999999999999
 30
0.0
 11
7.600000000000022
 21
429.0000000000002
 31
0.0
  0
LINE
  5
782A
330
18
100
AcDbEntity
  8
DRAW3
100
AcDbLine
 10
6.930000000000063
 20
426.5000000000002
 30
0.0
 11
6.930000000000063
 21
429.0000000000002
 31
0.0
  0
LINE
  5
782D
330
18
100
AcDbEntity
  8
DRAW2
100
AcDbLine
 10
9.5
 20
437.9226497308104
 30
0.0
 11
8.5
 21
438.4999999999999
 31
0.0
  0
ARC
  5
782E
330
18
100
AcDbEntity
  8
DRAW2
100
AcDbCircle
 10
5.25
 20
441.0000000000001
 30
0.0
 40
4.0
100
AcDbArc
 50
0.0
 51
90.0
  0
LINE
  5
782F
330
18
100
AcDbEntity
  8
DRAW2
100
AcDbLine
 10
34.0
 20
404.7000000000001
 30
0.0
 11
18.0
 21
404.7
 31
0.0
  0
LINE
  5
7830
330
18
100
AcDbEntity
  8
DRAW2
100
AcDbLine
 10
35.0
 20
403.7000000000001
 30
0.0
 11
34.99999999999994
 21
366.9999999999999
 31
0.0
  0
LINE
  5
7831
330
18
100
AcDbEntity
  8
DRAW2
100
AcDbLine
 10
35.00000000000011
 20
367.0
 30
0.0
 11
35.0
 21
405.0
 31
0.0
  0
LINE
  5
7833
330
18
100
AcDbEntity
  8
DRAW2
100
AcDbLine
 10
36.0
 20
405.0
 30
0.0
 11
35.0
 21
405.0
 31
0.0
  0
ARC
  5
7834
330
18
100
AcDbEntity
  8
DRAW2
100
AcDbCircle
 10
34.0
 20
403.7000000000001
 30
0.0
 40
1.0
100
AcDbArc
 50
0.0
 51
90.0
  0
LINE
  5
7835
330
18
100
AcDbEntity
  8
DRAW2
100
AcDbLine
 10
35.0
 20
405.0
 30
0.0
 11
36.0
 21
404.9999999999998
 31
0.0
  0
LINE
  5
7836
330
18
100
AcDbEntity
  8
DRAW2
100
AcDbLine
 10
-35.0
 20
403.7
 30
0.0
 11
-34.99999999999994
 21
366.9999999999999
 31
0.0
  0
LINE
  5
7837
330
18
100
AcDbEntity
  8
DRAW2
100
AcDbLine
 10
-35.0
 20
405.0
 30
0.0
 11
-35.00000000000023
 21
367.0
 31
0.0
  0
LINE
  5
7838
330
18
100
AcDbEntity
  8
DRAW2
100
AcDbLine
 10
-36.0
 20
406.3600199999998
 30
0.0
 11
-36.0
 21
366.9999999999999
 31
0.0
  0
ARC
  5
7839
330
18
100
AcDbEntity
  8
DRAW2
100
AcDbCircle
 10
-34.0
 20
403.7
 30
0.0
 40
1.0
100
AcDbArc
 50
90.0
 51
180.0
  0
LINE
  5
783A
330
18
100
AcDbEntity
  8
DRAW2
100
AcDbLine
 10
-36.0
 20
405.0
 30
0.0
 11
-35.0
 21
405.0
 31
0.0
  0
LINE
  5
783B
330
18
100
AcDbEntity
  8
DRAW2
100
AcDbLine
 10
-18.0
 20
404.7
 30
0.0
 11
-34.0
 21
404.7
 31
0.0
  0
LINE
  5
78E5
330
18
100
AcDbEntity
  8
DRAW2
100
AcDbLine
 10
-64.80000000000029
 20
-4.000030000000023
 30
0.0
 11
-67.29997000000025
 21
-4.000030000000009
 31
0.0
  0
LINE
  5
78E6
330
18
100
AcDbEntity
  8
DRAW2
100
AcDbLine
 10
-64.80000000000018
 20
3.999960000000015
 30
0.0
 11
-67.29997000000025
 21
3.999960000000015
 31
0.0
  0
LINE
  5
78E7
330
18
100
AcDbEntity
  8
DRAW3
100
AcDbLine
 10
-64.80000000000018
 20
-3.400040000000004
 30
0.0
 11
-67.29997000000025
 21
-3.400039999999989
 31
0.0
  0
LINE
  5
78E8
330
18
100
AcDbEntity
  8
DRAW3
100
AcDbLine
 10
-64.80000000000018
 20
3.399979999999999
 30
0.0
 11
-67.29997000000025
 21
3.399979999999999
 31
0.0
  0
LINE
  5
78F2
330
18
100
AcDbEntity
  8
DRAW2
100
AcDbLine
 10
-64.80000000000029
 20
65.28197999999993
 30
0.0
 11
-67.29997000000025
 21
65.28197999999995
 31
0.0
  0
LINE
  5
78F3
330
18
100
AcDbEntity
  8
DRAW2
100
AcDbLine
 10
-64.80000000000018
 20
73.28196999999997
 30
0.0
 11
-67.29997000000025
 21
73.28196999999997
 31
0.0
  0
LINE
  5
78F4
330
18
100
AcDbEntity
  8
DRAW3
100
AcDbLine
 10
-64.80000000000018
 20
65.88196999999995
 30
0.0
 11
-67.29997000000025
 21
65.88196999999997
 31
0.0
  0
LINE
  5
78F5
330
18
100
AcDbEntity
  8
DRAW3
100
AcDbLine
 10
-64.80000000000018
 20
72.68198999999995
 30
0.0
 11
-67.29997000000025
 21
72.68198999999995
 31
0.0
  0
LINE
  5
78F6
330
18
100
AcDbEntity
  8
DRAW2
100
AcDbLine
 10
-48.89998610000034
 20
72.68192800000003
 30
0.0
 11
-49.50002610000061
 21
73.28195799999997
 31
0.0
  0
LINE
  5
78F7
330
18
100
AcDbEntity
  8
DRAW2
100
AcDbLine
 10
-48.90004610000019
 20
65.88196800000009
 30
0.0
 11
-48.90004610000019
 21
72.68198799999999
 31
0.0
  0
LINE
  5
78F8
330
18
100
AcDbEntity
  8
DRAW2
100
AcDbLine
 10
-49.50002610000061
 20
73.28195799999999
 30
0.0
 11
-54.50000061094761
 21
73.28195800000016
 31
0.0
  0
LINE
  5
78F9
330
18
100
AcDbEntity
  8
DRAW2
100
AcDbLine
 10
-49.50002610000061
 20
65.28198800000012
 30
0.0
 11
-49.50002610000061
 21
73.28195799999997
 31
0.0
  0
LINE
  5
78FA
330
18
100
AcDbEntity
  8
DRAW3
100
AcDbLine
 10
-48.89998610000034
 20
72.68192800000003
 30
0.0
 11
-54.50000061094762
 21
72.68202682510765
 31
0.0
  0
LINE
  5
78FB
330
18
100
AcDbEntity
  8
DRAW2
100
AcDbLine
 10
-49.50002610000061
 20
65.28201800000005
 30
0.0
 11
-54.50000061094761
 21
65.28196442720903
 31
0.0
  0
LINE
  5
78FC
330
18
100
AcDbEntity
  8
DRAW2
100
AcDbLine
 10
-49.50002610000061
 20
65.28201800000005
 30
0.0
 11
-48.90004610000019
 21
65.88199800000001
 31
0.0
  0
LINE
  5
78FD
330
18
100
AcDbEntity
  8
DRAW3
100
AcDbLine
 10
-48.90004610000019
 20
65.88199800000001
 30
0.0
 11
-54.50000061094762
 21
65.88194858710389
 31
0.0
  0
LINE
  5
7900
330
18
100
AcDbEntity
  8
DRAW2
100
AcDbLine
 10
64.80000000000029
 20
-73.28203000000006
 30
0.0
 11
67.29997000000025
 21
-73.28203000000005
 31
0.0
  0
LINE
  5
7901
330
18
100
AcDbEntity
  8
DRAW2
100
AcDbLine
 10
64.80000000000018
 20
-65.28204000000002
 30
0.0
 11
67.29997000000025
 21
-65.28204000000002
 31
0.0
  0
LINE
  5
7902
330
18
100
AcDbEntity
  8
DRAW3
100
AcDbLine
 10
64.80000000000018
 20
-72.68204000000004
 30
0.0
 11
67.29997000000025
 21
-72.68204000000003
 31
0.0
  0
LINE
  5
7903
330
18
100
AcDbEntity
  8
DRAW3
100
AcDbLine
 10
64.80000000000018
 20
-65.88202000000004
 30
0.0
 11
67.29997000000025
 21
-65.88202000000004
 31
0.0
  0
LINE
  5
790D
330
18
100
AcDbEntity
  8
DRAW3
100
AcDbLine
 10
64.80000000000018
 20
3.399979999999999
 30
0.0
 11
67.29997000000025
 21
3.399979999999999
 31
0.0
  0
LINE
  5
790E
330
18
100
AcDbEntity
  8
DRAW3
100
AcDbLine
 10
64.80000000000018
 20
-3.400040000000004
 30
0.0
 11
67.29997000000025
 21
-3.400039999999989
 31
0.0
  0
LINE
  5
790F
330
18
100
AcDbEntity
  8
DRAW2
100
AcDbLine
 10
64.80000000000018
 20
3.999960000000015
 30
0.0
 11
67.29997000000025
 21
3.999960000000015
 31
0.0
  0
LINE
  5
7910
330
18
100
AcDbEntity
  8
DRAW2
100
AcDbLine
 10
64.80000000000029
 20
-4.000030000000023
 30
0.0
 11
67.29997000000025
 21
-4.000030000000009
 31
0.0
  0
LINE
  5
791A
330
18
100
AcDbEntity
  8
DRAW3
100
AcDbLine
 10
64.80000000000018
 20
65.88196999999995
 30
0.0
 11
67.29997000000025
 21
65.88196999999997
 31
0.0
  0
LINE
  5
791B
330
18
100
AcDbEntity
  8
DRAW2
100
AcDbLine
 10
64.80000000000029
 20
65.28197999999993
 30
0.0
 11
67.29997000000025
 21
65.28197999999995
 31
0.0
  0
LINE
  5
791C
330
18
100
AcDbEntity
  8
DRAW3
100
AcDbLine
 10
64.80000000000018
 20
72.68198999999995
 30
0.0
 11
67.29997000000025
 21
72.68198999999995
 31
0.0
  0
LINE
  5
791D
330
18
100
AcDbEntity
  8
DRAW2
100
AcDbLine
 10
64.80000000000018
 20
73.28196999999997
 30
0.0
 11
67.29997000000025
 21
73.28196999999997
 31
0.0
  0
LINE
  5
7A62
330
18
100
AcDbEntity
  8
DRAW2
100
AcDbLine
 10
410.9999999999999
 20
-99.0
 30
0.0
 11
488.9999999999999
 21
-99.0
 31
0.0
  0
LINE
  5
7B50
330
18
100
AcDbEntity
  8
DRAW2
100
AcDbLine
 10
-105.0055542
 20
144.5999760999998
 30
0.0
 11
-89.9944458
 21
144.5999760999998
 31
0.0
  0
LINE
  5
7B51
330
18
100
AcDbEntity
  8
DRAW2
100
AcDbLine
 10
-104.0000304999999
 20
150.0999760999998
 30
0.0
 11
-91.0
 21
150.0999760999998
 31
0.0
  0
ARC
  5
7B52
330
18
100
AcDbEntity
  8
DRAW2
100
AcDbCircle
 10
-103.1291655999999
 20
146.7773136999998
 30
0.0
 40
3.3226678
100
AcDbArc
 50
55.61685400000246
 51
115.6144799999999
  0
LINE
  5
7B53
330
18
100
AcDbEntity
  8
DRAW2
100
AcDbLine
 10
-105.0055542
 20
149.5194401999998
 30
0.0
 11
-105.0055542
 21
144.5999760999998
 31
0.0
  0
LINE
  5
7B54
330
18
100
AcDbEntity
  8
DRAW2
100
AcDbLine
 10
-105.0055589999999
 20
149.5194196999998
 30
0.0
 11
-104.0000347999999
 21
150.0999593999998
 31
0.0
  0
LINE
  5
7B55
330
18
100
AcDbEntity
  8
DRAW2
100
AcDbLine
 10
-91.0000162
 20
150.0999779999998
 30
0.0
 11
-89.9944458
 21
149.5194115999998
 31
0.0
  0
LINE
  5
7B56
330
18
100
AcDbEntity
  8
DRAW2
100
AcDbLine
 10
-101.2527771
 20
149.5194401999998
 30
0.0
 11
-101.2527771
 21
144.5999760999998
 31
0.0
  0
LINE
  5
7B57
330
18
100
AcDbEntity
  8
DRAW2
100
AcDbLine
 10
-93.74722289999999
 20
149.5194401999998
 30
0.0
 11
-93.74722289999999
 21
144.5999760999998
 31
0.0
  0
ARC
  5
7B5B
330
18
100
AcDbEntity
  8
DRAW2
100
AcDbCircle
 10
-97.5
 20
137.6801152999998
 30
0.0
 40
12.419868
100
AcDbArc
 50
72.41265499999848
 51
107.5873599999996
  0
ARC
  5
7B5C
330
18
100
AcDbEntity
  8
DRAW2
100
AcDbCircle
 10
-91.87083440000003
 20
146.7773747999998
 30
0.0
 40
3.322595799999999
100
AcDbArc
 50
64.383207
 51
124.3839100000021
  0
LINE
  5
7B5D
330
18
100
AcDbEntity
  8
DRAW2
100
AcDbLine
 10
-89.9944458
 20
149.5194249999998
 30
0.0
 11
-89.9944458
 21
144.5999760999998
 31
0.0
  0
LINE
  5
7B61
330
18
100
AcDbEntity
  8
DRAW2
100
AcDbLine
 10
-105.0055542
 20
144.5999760999998
 30
0.0
 11
-89.9944458
 21
144.5999760999998
 31
0.0
  0
ARC
  5
7C39
330
18
100
AcDbEntity
  8
DRAW2
100
AcDbCircle
 10
-47.99999999999994
 20
281.2990951768369
 30
0.0
 40
7.0
100
AcDbArc
 50
103.0000789740054
 51
180.0
  0
ARC
  5
7C3A
330
18
100
AcDbEntity
  8
DRAW2
100
AcDbCircle
 10
-48.00000000000006
 20
418.7007780885466
 30
0.0
 40
7.0
100
AcDbArc
 50
180.0
 51
257.0000986541521
  0
ARC
  5
7C48
330
18
100
AcDbEntity
  8
DRAW2
100
AcDbCircle
 10
48.0
 20
281.2990951768367
 30
0.0
 40
7.0
100
AcDbArc
 50
0.0
 51
76.99992102599455
  0
ARC
  5
7C49
330
18
100
AcDbEntity
  8
DRAW2
100
AcDbCircle
 10
48.0
 20
418.7007780885466
 30
0.0
 40
7.0
100
AcDbArc
 50
282.9999013458479
 51
0.0
  0
LINE
  5
844C
330
18
100
AcDbEntity
  8
DRAW2
100
AcDbLine
 10
-90.00000000000001
 20
142.9999699999998
 30
0.0
 11
-105.0
 21
142.9999699999998
 31
0.0
  0
LINE
  5
844D
330
18
100
AcDbEntity
  8
DRAW2
100
AcDbLine
 10
-90.00000000000001
 20
144.5999760999998
 30
0.0
 11
-105.0
 21
144.5999760999998
 31
0.0
  0
LINE
  5
844E
330
18
100
AcDbEntity
  8
DRAW2
100
AcDbLine
 10
-105.0
 20
144.5999760999998
 30
0.0
 11
-105.0
 21
142.9999699999998
 31
0.0
  0
LINE
  5
844F
330
18
100
AcDbEntity
  8
DRAW2
100
AcDbLine
 10
-97.25000000000001
 20
144.5999760999998
 30
0.0
 11
-97.25000000000001
 21
142.9999699999998
 31
0.0
  0
LINE
  5
8450
330
18
100
AcDbEntity
  8
DRAW2
100
AcDbLine
 10
-97.75000000000002
 20
144.5999760999998
 30
0.0
 11
-97.75000000000002
 21
142.9999699999998
 31
0.0
  0
LINE
  5
8451
330
18
100
AcDbEntity
  8
DRAW2
100
AcDbLine
 10
-90.00000000000001
 20
144.5999760999998
 30
0.0
 11
-90.00000000000001
 21
142.9999699999998
 31
0.0
  0
LINE
  5
8452
330
18
100
AcDbEntity
  8
DRAW2
100
AcDbLine
 10
89.99450579999995
 20
144.5999760999998
 30
0.0
 11
105.0056141999999
 21
144.5999760999998
 31
0.0
  0
LINE
  5
8453
330
18
100
AcDbEntity
  8
DRAW2
100
AcDbLine
 10
91.00002949999998
 20
150.0999760999998
 30
0.0
 11
104.0000599999999
 21
150.0999760999998
 31
0.0
  0
ARC
  5
8454
330
18
100
AcDbEntity
  8
DRAW2
100
AcDbCircle
 10
97.50005999999997
 20
137.6801152999998
 30
0.0
 40
12.419868
100
AcDbArc
 50
72.41265499999848
 51
107.5873599999996
  0
LINE
  5
8455
330
18
100
AcDbEntity
  8
DRAW2
100
AcDbLine
 10
89.99450579999995
 20
144.5999760999998
 30
0.0
 11
105.0056141999999
 21
144.5999760999998
 31
0.0
  0
LINE
  5
8457
330
18
100
AcDbEntity
  8
DRAW2
100
AcDbLine
 10
105.0000599999999
 20
144.5999760999998
 30
0.0
 11
90.00005999999995
 21
144.5999760999998
 31
0.0
  0
LINE
  5
8458
330
18
100
AcDbEntity
  8
DRAW2
100
AcDbLine
 10
105.0000599999999
 20
142.9999699999998
 30
0.0
 11
90.00005999999995
 21
142.9999699999998
 31
0.0
  0
ARC
  5
8459
330
18
100
AcDbEntity
  8
DRAW2
100
AcDbCircle
 10
91.87089439999999
 20
146.7773136999998
 30
0.0
 40
3.3226678
100
AcDbArc
 50
55.61685400000246
 51
115.6144799999999
  0
LINE
  5
845A
330
18
100
AcDbEntity
  8
DRAW2
100
AcDbLine
 10
89.99450100000002
 20
149.5194196999998
 30
0.0
 11
91.00002519999998
 21
150.0999593999998
 31
0.0
  0
LINE
  5
845D
330
18
100
AcDbEntity
  8
DRAW2
100
AcDbLine
 10
90.00005999999995
 20
144.5999760999998
 30
0.0
 11
90.00005999999995
 21
142.9999699999998
 31
0.0
  0
LINE
  5
845E
330
18
100
AcDbEntity
  8
DRAW2
100
AcDbLine
 10
97.25005999999995
 20
144.5999760999998
 30
0.0
 11
97.25005999999995
 21
142.9999699999998
 31
0.0
  0
LINE
  5
845F
330
18
100
AcDbEntity
  8
DRAW2
100
AcDbLine
 10
97.75005999999995
 20
144.5999760999998
 30
0.0
 11
97.75005999999995
 21
142.9999699999998
 31
0.0
  0
LINE
  5
8460
330
18
100
AcDbEntity
  8
DRAW2
100
AcDbLine
 10
89.99450579999995
 20
149.5194401999998
 30
0.0
 11
89.99450579999995
 21
144.5999760999998
 31
0.0
  0
LINE
  5
8461
330
18
100
AcDbEntity
  8
DRAW2
100
AcDbLine
 10
93.74728289999996
 20
149.5194401999998
 30
0.0
 11
93.74728289999996
 21
144.5999760999998
 31
0.0
  0
LINE
  5
8462
330
18
100
AcDbEntity
  8
DRAW2
100
AcDbLine
 10
104.0000437999999
 20
150.0999779999998
 30
0.0
 11
105.0056141999999
 21
149.5194115999998
 31
0.0
  0
ARC
  5
8463
330
18
100
AcDbEntity
  8
DRAW2
100
AcDbCircle
 10
103.1292255999999
 20
146.7773747999998
 30
0.0
 40
3.322595799999999
100
AcDbArc
 50
64.383207
 51
124.3839100000021
  0
LINE
  5
8466
330
18
100
AcDbEntity
  8
DRAW2
100
AcDbLine
 10
105.0000599999999
 20
144.5999760999998
 30
0.0
 11
105.0000599999999
 21
142.9999699999998
 31
0.0
  0
LINE
  5
8467
330
18
100
AcDbEntity
  8
DRAW2
100
AcDbLine
 10
101.2528370999999
 20
149.5194401999998
 30
0.0
 11
101.2528370999999
 21
144.5999760999998
 31
0.0
  0
LINE
  5
8468
330
18
100
AcDbEntity
  8
DRAW2
100
AcDbLine
 10
105.0056141999999
 20
149.5194249999998
 30
0.0
 11
105.0056141999999
 21
144.5999760999998
 31
0.0
  0
ARC
  5
8471
330
18
100
AcDbEntity
  8
DRAW2
100
AcDbCircle
 10
-52.14008928170144
 20
121.0000000000001
 30
0.0
 40
26.52403700918386
100
AcDbArc
 50
140.1389413726297
 51
219.8610586273693
  0
ARC
  5
8472
330
18
100
AcDbEntity
  8
DRAW2
100
AcDbCircle
 10
-145.0109013304136
 20
120.5000000000001
 30
0.0
 40
31.82753924625554
100
AcDbArc
 50
323.3469964959128
 51
42.49420409400214
  0
ARC
  5
8473
330
18
100
AcDbEntity
  8
DRAW2
100
AcDbCircle
 10
145.0109713304136
 20
120.5000000000001
 30
0.0
 40
31.82753924625554
100
AcDbArc
 50
137.5057959059978
 51
216.6530035040871
  0
ARC
  5
8474
330
18
100
AcDbEntity
  8
DRAW2
100
AcDbCircle
 10
52.14015928170145
 20
121.0000000000001
 30
0.0
 40
26.52403700918386
100
AcDbArc
 50
320.1389413726297
 51
39.86105862737021
  0
ARC
  5
847D
330
18
100
AcDbEntity
  8
DRAW2
100
AcDbCircle
 10
-52.14012428170144
 20
-120.9999400000001
 30
0.0
 40
26.52403700918386
100
AcDbArc
 50
140.1389413726297
 51
219.8610586273693
  0
ARC
  5
847E
330
18
100
AcDbEntity
  8
DRAW2
100
AcDbCircle
 10
-145.0109363304136
 20
-120.4999400000001
 30
0.0
 40
31.82753924625554
100
AcDbArc
 50
317.5057959059978
 51
36.65300350408715
  0
ARC
  5
847F
330
18
100
AcDbEntity
  8
DRAW2
100
AcDbCircle
 10
145.0109363304136
 20
-120.4999400000001
 30
0.0
 40
31.82753924625554
100
AcDbArc
 50
143.3469964959128
 51
222.4942040940021
  0
ARC
  5
8480
330
18
100
AcDbEntity
  8
DRAW2
100
AcDbCircle
 10
52.14012428170144
 20
-120.9999400000001
 30
0.0
 40
26.52403700918386
100
AcDbArc
 50
320.1389413726297
 51
39.86105862737021
  0
LINE
  5
84A4
330
18
100
AcDbEntity
  8
DRAW2
100
AcDbLine
 10
-78.90000610000007
 20
61.77645579999996
 30
0.0
 11
-78.90000610000007
 21
76.78756419999998
 31
0.0
  0
LINE
  5
84A5
330
18
100
AcDbEntity
  8
DRAW2
100
AcDbLine
 10
-84.40000610000007
 20
62.78197949999999
 30
0.0
 11
-84.40000610000007
 21
75.78200999999997
 31
0.0
  0
ARC
  5
84A6
330
18
100
AcDbEntity
  8
DRAW2
100
AcDbCircle
 10
-71.98014530000008
 20
69.28200999999997
 30
0.0
 40
12.419868
100
AcDbArc
 50
162.4126549999985
 51
197.5873599999994
  0
LINE
  5
84A7
330
18
100
AcDbEntity
  8
DRAW2
100
AcDbLine
 10
-78.90000610000007
 20
61.77645579999996
 30
0.0
 11
-78.90000610000007
 21
76.78756419999998
 31
0.0
  0
LINE
  5
84A9
330
18
100
AcDbEntity
  8
DRAW2
100
AcDbLine
 10
-78.90000610000007
 20
76.78200999999996
 30
0.0
 11
-78.90000610000007
 21
61.78200999999996
 31
0.0
  0
LINE
  5
84AA
330
18
100
AcDbEntity
  8
DRAW2
100
AcDbLine
 10
-77.3000000000001
 20
76.78200999999996
 30
0.0
 11
-77.3000000000001
 21
61.78200999999996
 31
0.0
  0
ARC
  5
84AB
330
18
100
AcDbEntity
  8
DRAW2
100
AcDbCircle
 10
-81.07734370000008
 20
63.65284440000001
 30
0.0
 40
3.3226678
100
AcDbArc
 50
145.6168540000017
 51
205.6144799999999
  0
LINE
  5
84AC
330
18
100
AcDbEntity
  8
DRAW2
100
AcDbLine
 10
-83.81944970000006
 20
61.77645100000002
 30
0.0
 11
-84.39998940000007
 21
62.78197519999999
 31
0.0
  0
LINE
  5
84AF
330
18
100
AcDbEntity
  8
DRAW2
100
AcDbLine
 10
-78.90000610000007
 20
61.78200999999996
 30
0.0
 11
-77.3000000000001
 21
61.78200999999996
 31
0.0
  0
LINE
  5
84B0
330
18
100
AcDbEntity
  8
DRAW2
100
AcDbLine
 10
-78.90000610000007
 20
69.03200999999995
 30
0.0
 11
-77.3000000000001
 21
69.03200999999995
 31
0.0
  0
LINE
  5
84B1
330
18
100
AcDbEntity
  8
DRAW2
100
AcDbLine
 10
-78.90000610000007
 20
69.53200999999996
 30
0.0
 11
-77.3000000000001
 21
69.53200999999996
 31
0.0
  0
LINE
  5
84B2
330
18
100
AcDbEntity
  8
DRAW2
100
AcDbLine
 10
-83.81947020000007
 20
61.77645579999996
 30
0.0
 11
-78.90000610000007
 21
61.77645579999996
 31
0.0
  0
LINE
  5
84B3
330
18
100
AcDbEntity
  8
DRAW2
100
AcDbLine
 10
-83.81947020000007
 20
65.52923289999997
 30
0.0
 11
-78.90000610000007
 21
65.52923289999997
 31
0.0
  0
LINE
  5
84B4
330
18
100
AcDbEntity
  8
DRAW2
100
AcDbLine
 10
-84.40000800000007
 20
75.78199379999997
 30
0.0
 11
-83.81944160000006
 21
76.78756419999998
 31
0.0
  0
ARC
  5
84B5
330
18
100
AcDbEntity
  8
DRAW2
100
AcDbCircle
 10
-81.07740480000009
 20
74.91117559999993
 30
0.0
 40
3.322595799999999
100
AcDbArc
 50
154.383207
 51
214.3839100000026
  0
LINE
  5
84B8
330
18
100
AcDbEntity
  8
DRAW2
100
AcDbLine
 10
-78.90000610000007
 20
76.78200999999996
 30
0.0
 11
-77.3000000000001
 21
76.78200999999996
 31
0.0
  0
LINE
  5
84B9
330
18
100
AcDbEntity
  8
DRAW2
100
AcDbLine
 10
-83.81947020000007
 20
73.03478709999997
 30
0.0
 11
-78.90000610000007
 21
73.03478709999997
 31
0.0
  0
LINE
  5
84BA
330
18
100
AcDbEntity
  8
DRAW2
100
AcDbLine
 10
-83.81945500000005
 20
76.78756419999998
 30
0.0
 11
-78.90000610000007
 21
76.78756419999998
 31
0.0
  0
LINE
  5
86A4
330
18
100
AcDbEntity
  8
DRAW2
100
AcDbLine
 10
-110.3000000000001
 20
-49.00003000014999
 30
0.0
 11
-110.3000000000001
 21
48.99997000015003
 31
0.0
  0
LINE
  5
86A5
330
18
100
AcDbEntity
  8
DRAW2
100
AcDbLine
 10
-67.3000000000001
 20
-89.50002999999993
 30
0.0
 11
-67.3000000000001
 21
89.49996999999996
 31
0.0
  0
LINE
  5
86A6
330
18
100
AcDbEntity
  8
DRAW2
100
AcDbLine
 10
-67.8000000000001
 20
89.99997000000007
 30
0.0
 11
-67.8000000000001
 21
-90.00003000000004
 31
0.0
  0
LINE
  5
86A7
330
18
100
AcDbEntity
  8
DRAW2
100
AcDbLine
 10
-77.3000000000001
 20
89.99997000000007
 30
0.0
 11
-77.3000000000001
 21
-90.00002999999992
 31
0.0
  0
LINE
  5
86A8
330
18
100
AcDbEntity
  8
DRAW2
100
AcDbLine
 10
-122.3
 20
-99.00002999999992
 30
0.0
 11
-122.3
 21
-61.00002999999992
 31
0.0
  0
LINE
  5
86A9
330
18
100
AcDbEntity
  8
DRAW2
100
AcDbLine
 10
-72.3000000000001
 20
-99.00002999999992
 30
0.0
 11
-72.3000000000001
 21
-90.00002999999992
 31
0.0
  0
ARC
  5
86AA
330
18
100
AcDbEntity
  8
DRAW2
100
AcDbCircle
 10
-69.3000000000001
 20
-93.00002999999993
 30
0.0
 40
3.0
100
AcDbArc
 50
90.00005000000504
 51
180.000040000004
  0
LINE
  5
86AB
330
18
100
AcDbEntity
  8
DRAW2
100
AcDbLine
 10
-72.3000000000001
 20
-99.0
 30
0.0
 11
-122.3
 21
-99.0
 31
0.0
  0
ARC
  5
86AC
330
18
100
AcDbEntity
  8
DRAW2
100
AcDbCircle
 10
-57.61725305521159
 20
-5.790381833126957
 30
0.0
 40
53.0
100
AcDbArc
 50
186.2721939226408
 51
248.1997069867959
  0
LINE
  5
86AD
330
18
100
AcDbEntity
  8
DRAW2
100
AcDbLine
 10
-116.3
 20
-55.00002999999992
 30
0.0
 11
-77.3000000000001
 21
-55.00002999999992
 31
0.0
  0
LINE
  5
86AE
330
18
100
AcDbEntity
  8
DRAW2
100
AcDbLine
 10
-122.3
 20
-90.00002999999992
 30
0.0
 11
-72.3000000000001
 21
-90.00002999999992
 31
0.0
  0
LINE
  5
86AF
330
18
100
AcDbEntity
  8
DRAW2
100
AcDbLine
 10
-123.3
 20
-76.00015000000007
 30
0.0
 11
-123.3
 21
-61.99999000000002
 31
0.0
  0
LINE
  5
86B0
330
18
100
AcDbEntity
  8
DRAW2
100
AcDbLine
 10
-123.3
 20
-76.00015000000007
 30
0.0
 11
-122.3
 21
-76.00015000000007
 31
0.0
  0
ARC
  5
86B1
330
18
100
AcDbEntity
  8
DRAW2
100
AcDbCircle
 10
-116.3
 20
-49.00003000000004
 30
0.0
 40
6.0
100
AcDbArc
 50
270.0
 51
0.0
  0
LINE
  5
86B2
330
18
100
AcDbEntity
  8
DRAW2
100
AcDbLine
 10
-123.3
 20
-61.99999000000002
 30
0.0
 11
-122.3
 21
-61.99999000000002
 31
0.0
  0
ARC
  5
86B3
330
18
100
AcDbEntity
  8
DRAW2
100
AcDbCircle
 10
-116.3000000000005
 20
-61.00003000000004
 30
0.0
 40
6.0
100
AcDbArc
 50
90.0
 51
180.0
  0
LINE
  5
86B4
330
18
100
AcDbEntity
  8
DRAW2
100
AcDbLine
 10
-67.79999999999964
 20
-90.00002999999992
 30
0.0
 11
-69.3000000000001
 21
-90.00002999999992
 31
0.0
  0
LINE
  5
86B5
330
18
100
AcDbEntity
  8
DRAW2
100
AcDbLine
 10
-67.8000000000001
 20
-90.00003000000004
 30
0.0
 11
-67.3000000000001
 21
-89.50003000000004
 31
0.0
  0
LINE
  5
86B6
330
18
100
AcDbEntity
  8
DRAW2
100
AcDbLine
 10
-122.3000000000005
 20
60.99997000000008
 30
0.0
 11
-122.3
 21
98.99997000000007
 31
0.0
  0
LINE
  5
86B7
330
18
100
AcDbEntity
  8
DRAW2
100
AcDbLine
 10
-72.3000000000001
 20
89.99997000000007
 30
0.0
 11
-72.3000000000001
 21
98.99997000000007
 31
0.0
  0
ARC
  5
86B8
330
18
100
AcDbEntity
  8
DRAW2
100
AcDbCircle
 10
-69.3000000000001
 20
92.99997000000008
 30
0.0
 40
3.0
100
AcDbArc
 50
180.000040000004
 51
270.0000179999861
  0
ARC
  5
86B9
330
18
100
AcDbEntity
  8
DRAW2
100
AcDbCircle
 10
-57.61725305521159
 20
5.790321833127109
 30
0.0
 40
53.0
100
AcDbArc
 50
111.800293013204
 51
173.7278060773591
  0
LINE
  5
86BA
330
18
100
AcDbEntity
  8
DRAW2
100
AcDbLine
 10
-122.3
 20
89.99997000000007
 30
0.0
 11
-72.3000000000001
 21
89.99997000000007
 31
0.0
  0
LINE
  5
86BB
330
18
100
AcDbEntity
  8
DRAW2
100
AcDbLine
 10
-116.3
 20
54.99997000000007
 30
0.0
 11
-77.3000000000001
 21
54.99997000000007
 31
0.0
  0
LINE
  5
86BC
330
18
100
AcDbEntity
  8
DRAW2
100
AcDbLine
 10
-123.3
 20
61.99988000000008
 30
0.0
 11
-123.3
 21
75.99999000000003
 31
0.0
  0
ARC
  5
86BD
330
18
100
AcDbEntity
  8
DRAW2
100
AcDbCircle
 10
-116.3
 20
48.99997000000007
 30
0.0
 40
6.0
100
AcDbArc
 50
0.0
 51
90.0
  0
LINE
  5
86BE
330
18
100
AcDbEntity
  8
DRAW2
100
AcDbLine
 10
-123.3
 20
61.99988000000008
 30
0.0
 11
-122.3
 21
61.99988000000008
 31
0.0
  0
ARC
  5
86BF
330
18
100
AcDbEntity
  8
DRAW2
100
AcDbCircle
 10
-116.3
 20
60.99997000000008
 30
0.0
 40
6.0
100
AcDbArc
 50
180.0
 51
270.0
  0
LINE
  5
86C0
330
18
100
AcDbEntity
  8
DRAW2
100
AcDbLine
 10
-123.3
 20
75.99999000000003
 30
0.0
 11
-122.3
 21
75.99999000000003
 31
0.0
  0
LINE
  5
86C1
330
18
100
AcDbEntity
  8
DRAW2
100
AcDbLine
 10
-67.8000000000001
 20
89.99997000000007
 30
0.0
 11
-69.3000000000001
 21
89.99997000000007
 31
0.0
  0
LINE
  5
86C2
330
18
100
AcDbEntity
  8
DRAW2
100
AcDbLine
 10
-67.3000000000001
 20
89.49997000000008
 30
0.0
 11
-67.8000000000001
 21
89.99997000000007
 31
0.0
  0
LINE
  5
86C3
330
18
100
AcDbEntity
  8
DRAW2
100
AcDbLine
 10
-72.3000000000001
 20
98.99997000000007
 30
0.0
 11
-122.3
 21
98.99997000000007
 31
0.0
  0
LINE
  5
8734
330
18
100
AcDbEntity
  8
DRAW2
100
AcDbLine
 10
-78.90000610000007
 20
7.5
 30
0.0
 11
-77.3000000000001
 21
7.5
 31
0.0
  0
LINE
  5
8735
330
18
100
AcDbEntity
  8
DRAW2
100
AcDbLine
 10
-78.90000610000007
 20
-7.5
 30
0.0
 11
-77.3000000000001
 21
-7.5
 31
0.0
  0
LINE
  5
8736
330
18
100
AcDbEntity
  8
DRAW2
100
AcDbLine
 10
-78.90000610000007
 20
0.25
 30
0.0
 11
-77.3000000000001
 21
0.25
 31
0.0
  0
LINE
  5
8737
330
18
100
AcDbEntity
  8
DRAW2
100
AcDbLine
 10
-78.90000610000007
 20
-0.25
 30
0.0
 11
-77.3000000000001
 21
-0.25
 31
0.0
  0
ARC
  5
8738
330
18
100
AcDbEntity
  8
DRAW2
100
AcDbCircle
 10
-71.98014530000008
 20
0.0000000000000142
 30
0.0
 40
12.419868
100
AcDbArc
 50
162.4126549999985
 51
197.5873599999994
  0
LINE
  5
8739
330
18
100
AcDbEntity
  8
DRAW2
100
AcDbLine
 10
-78.90000610000007
 20
7.5
 30
0.0
 11
-78.90000610000007
 21
-7.5
 31
0.0
  0
LINE
  5
873A
330
18
100
AcDbEntity
  8
DRAW2
100
AcDbLine
 10
-78.90000610000007
 20
-7.505554199999991
 30
0.0
 11
-78.90000610000007
 21
7.50555420000002
 31
0.0
  0
LINE
  5
873B
330
18
100
AcDbEntity
  8
DRAW2
100
AcDbLine
 10
-78.90000610000007
 20
-7.505554199999991
 30
0.0
 11
-78.90000610000007
 21
7.50555420000002
 31
0.0
  0
LINE
  5
873C
330
18
100
AcDbEntity
  8
DRAW2
100
AcDbLine
 10
-84.40000610000007
 20
-6.500030499999965
 30
0.0
 11
-84.40000610000007
 21
6.500000000000014
 31
0.0
  0
LINE
  5
8740
330
18
100
AcDbEntity
  8
DRAW2
100
AcDbLine
 10
-83.81944970000006
 20
-7.505558999999934
 30
0.0
 11
-84.39998940000007
 21
-6.500034799999966
 31
0.0
  0
ARC
  5
8741
330
18
100
AcDbEntity
  8
DRAW2
100
AcDbCircle
 10
-81.07734370000008
 20
-5.629165599999943
 30
0.0
 40
3.3226678
100
AcDbArc
 50
145.6168540000017
 51
205.6144799999999
  0
LINE
  5
8742
330
18
100
AcDbEntity
  8
DRAW2
100
AcDbLine
 10
-83.81947020000007
 20
-3.752777099999988
 30
0.0
 11
-78.90000610000007
 21
-3.752777099999988
 31
0.0
  0
LINE
  5
8743
330
18
100
AcDbEntity
  8
DRAW2
100
AcDbLine
 10
-83.81947020000007
 20
-7.505554199999991
 30
0.0
 11
-78.90000610000007
 21
-7.505554199999991
 31
0.0
  0
LINE
  5
8744
330
18
100
AcDbEntity
  8
DRAW2
100
AcDbLine
 10
-84.40000800000007
 20
6.499983800000009
 30
0.0
 11
-83.81944160000006
 21
7.50555420000002
 31
0.0
  0
LINE
  5
8745
330
18
100
AcDbEntity
  8
DRAW2
100
AcDbLine
 10
-83.81945500000005
 20
7.50555420000002
 30
0.0
 11
-78.90000610000007
 21
7.50555420000002
 31
0.0
  0
LINE
  5
8748
330
18
100
AcDbEntity
  8
DRAW2
100
AcDbLine
 10
-83.81947020000007
 20
3.752777100000017
 30
0.0
 11
-78.90000610000007
 21
3.752777100000017
 31
0.0
  0
ARC
  5
8749
330
18
100
AcDbEntity
  8
DRAW2
100
AcDbCircle
 10
-81.07740480000009
 20
5.629165599999979
 30
0.0
 40
3.322595799999999
100
AcDbArc
 50
154.383207
 51
214.3839100000026
  0
LINE
  5
874A
330
18
100
AcDbEntity
  8
DRAW2
100
AcDbLine
 10
-77.3000000000001
 20
7.5
 30
0.0
 11
-77.3000000000001
 21
-7.5
 31
0.0
  0
LINE
  5
874B
330
18
100
AcDbEntity
  8
DRAW2
100
AcDbLine
 10
-48.90004610000019
 20
-3.400041999999871
 30
0.0
 11
-48.90004610000019
 21
3.399978000000032
 31
0.0
  0
LINE
  5
874C
330
18
100
AcDbEntity
  8
DRAW2
100
AcDbLine
 10
-49.50002610000061
 20
-4.00002199999983
 30
0.0
 11
-49.50002610000061
 21
3.999948000000017
 31
0.0
  0
LINE
  5
874D
330
18
100
AcDbEntity
  8
DRAW3
100
AcDbLine
 10
-48.90004610000019
 20
-3.400011999999946
 30
0.0
 11
-54.50000061094762
 21
-3.400061412896064
 31
0.0
  0
LINE
  5
874E
330
18
100
AcDbEntity
  8
DRAW2
100
AcDbLine
 10
-49.50002610000061
 20
-3.999991999999906
 30
0.0
 11
-54.50000061094761
 21
-4.000045572790924
 31
0.0
  0
LINE
  5
874F
330
18
100
AcDbEntity
  8
DRAW2
100
AcDbLine
 10
-49.50002610000061
 20
-3.999991999999906
 30
0.0
 11
-48.90004610000019
 21
-3.400011999999946
 31
0.0
  0
LINE
  5
8750
330
18
100
AcDbEntity
  8
DRAW3
100
AcDbLine
 10
-48.89998610000034
 20
3.39991800000007
 30
0.0
 11
-54.50000061094762
 21
3.400016825107698
 31
0.0
  0
LINE
  5
8751
330
18
100
AcDbEntity
  8
DRAW2
100
AcDbLine
 10
-49.50002610000061
 20
3.999948000000031
 30
0.0
 11
-54.50000061094761
 21
3.999948000000202
 31
0.0
  0
LINE
  5
8752
330
18
100
AcDbEntity
  8
DRAW2
100
AcDbLine
 10
-48.89998610000034
 20
3.39991800000007
 30
0.0
 11
-49.50002610000061
 21
3.999948000000017
 31
0.0
  0
LINE
  5
8753
330
18
100
AcDbEntity
  8
DRAW2
100
AcDbLine
 10
-78.90000610000007
 20
-69.53200000000004
 30
0.0
 11
-77.3000000000001
 21
-69.53200000000004
 31
0.0
  0
LINE
  5
8754
330
18
100
AcDbEntity
  8
DRAW2
100
AcDbLine
 10
-78.90000610000007
 20
-69.03200000000004
 30
0.0
 11
-77.3000000000001
 21
-69.03200000000004
 31
0.0
  0
LINE
  5
8755
330
18
100
AcDbEntity
  8
DRAW2
100
AcDbLine
 10
-78.90000610000007
 20
-76.78200000000003
 30
0.0
 11
-77.3000000000001
 21
-76.78200000000003
 31
0.0
  0
LINE
  5
8756
330
18
100
AcDbEntity
  8
DRAW2
100
AcDbLine
 10
-78.90000610000007
 20
-61.78200000000003
 30
0.0
 11
-77.3000000000001
 21
-61.78200000000003
 31
0.0
  0
ARC
  5
8757
330
18
100
AcDbEntity
  8
DRAW2
100
AcDbCircle
 10
-81.07740480000009
 20
-63.65283440000006
 30
0.0
 40
3.322595799999999
100
AcDbArc
 50
154.383207
 51
214.3839100000026
  0
LINE
  5
8758
330
18
100
AcDbEntity
  8
DRAW2
100
AcDbLine
 10
-84.40000610000007
 20
-75.7820305
 30
0.0
 11
-84.40000610000007
 21
-62.78200000000002
 31
0.0
  0
LINE
  5
8759
330
18
100
AcDbEntity
  8
DRAW2
100
AcDbLine
 10
-78.90000610000007
 20
-76.78755420000003
 30
0.0
 11
-78.90000610000007
 21
-61.77644580000002
 31
0.0
  0
LINE
  5
875A
330
18
100
AcDbEntity
  8
DRAW2
100
AcDbLine
 10
-78.90000610000007
 20
-76.78755420000003
 30
0.0
 11
-78.90000610000007
 21
-61.77644580000002
 31
0.0
  0
LINE
  5
875B
330
18
100
AcDbEntity
  8
DRAW2
100
AcDbLine
 10
-78.90000610000007
 20
-61.78200000000003
 30
0.0
 11
-78.90000610000007
 21
-76.78200000000003
 31
0.0
  0
LINE
  5
875C
330
18
100
AcDbEntity
  8
DRAW2
100
AcDbLine
 10
-83.81947020000007
 20
-65.52922290000002
 30
0.0
 11
-78.90000610000007
 21
-65.52922290000002
 31
0.0
  0
LINE
  5
875F
330
18
100
AcDbEntity
  8
DRAW2
100
AcDbLine
 10
-83.81947020000007
 20
-76.78755420000003
 30
0.0
 11
-78.90000610000007
 21
-76.78755420000003
 31
0.0
  0
LINE
  5
8760
330
18
100
AcDbEntity
  8
DRAW2
100
AcDbLine
 10
-83.81947020000007
 20
-73.03477710000002
 30
0.0
 11
-78.90000610000007
 21
-73.03477710000002
 31
0.0
  0
ARC
  5
8761
330
18
100
AcDbEntity
  8
DRAW2
100
AcDbCircle
 10
-81.07734370000008
 20
-74.91116559999998
 30
0.0
 40
3.3226678
100
AcDbArc
 50
145.6168540000017
 51
205.6144799999999
  0
LINE
  5
8762
330
18
100
AcDbEntity
  8
DRAW2
100
AcDbLine
 10
-83.81944970000006
 20
-76.78755899999997
 30
0.0
 11
-84.39998940000007
 21
-75.7820348
 31
0.0
  0
ARC
  5
8766
330
18
100
AcDbEntity
  8
DRAW2
100
AcDbCircle
 10
-71.98014530000008
 20
-69.28200000000003
 30
0.0
 40
12.419868
100
AcDbArc
 50
162.4126549999985
 51
197.5873599999994
  0
LINE
  5
8767
330
18
100
AcDbEntity
  8
DRAW2
100
AcDbLine
 10
-83.81945500000005
 20
-61.77644580000002
 30
0.0
 11
-78.90000610000007
 21
-61.77644580000002
 31
0.0
  0
LINE
  5
8768
330
18
100
AcDbEntity
  8
DRAW2
100
AcDbLine
 10
-84.40000800000007
 20
-62.78201620000003
 30
0.0
 11
-83.81944160000006
 21
-61.77644580000002
 31
0.0
  0
LINE
  5
8769
330
18
100
AcDbEntity
  8
DRAW2
100
AcDbLine
 10
-77.3000000000001
 20
-61.78200000000003
 30
0.0
 11
-77.3000000000001
 21
-76.78200000000003
 31
0.0
  0
LINE
  5
876A
330
18
100
AcDbEntity
  8
DRAW2
100
AcDbLine
 10
-49.50002610000061
 20
-73.28199199999994
 30
0.0
 11
-54.50000061094761
 21
-73.28204557279097
 31
0.0
  0
LINE
  5
876B
330
18
100
AcDbEntity
  8
DRAW3
100
AcDbLine
 10
-48.90004610000019
 20
-72.68201199999999
 30
0.0
 11
-54.50000061094762
 21
-72.6820614128961
 31
0.0
  0
LINE
  5
876C
330
18
100
AcDbEntity
  8
DRAW2
100
AcDbLine
 10
-49.50002610000061
 20
-73.28199199999994
 30
0.0
 11
-48.90004610000019
 21
-72.68201199999999
 31
0.0
  0
LINE
  5
876D
330
18
100
AcDbEntity
  8
DRAW2
100
AcDbLine
 10
-49.50002610000061
 20
-73.28202199999987
 30
0.0
 11
-49.50002610000061
 21
-65.28205200000002
 31
0.0
  0
LINE
  5
876E
330
18
100
AcDbEntity
  8
DRAW2
100
AcDbLine
 10
-48.90004610000019
 20
-72.68204199999991
 30
0.0
 11
-48.90004610000019
 21
-65.88202200000001
 31
0.0
  0
LINE
  5
876F
330
18
100
AcDbEntity
  8
DRAW2
100
AcDbLine
 10
-49.50002610000061
 20
-65.28205200000001
 30
0.0
 11
-54.50000061094761
 21
-65.28205199999984
 31
0.0
  0
LINE
  5
8770
330
18
100
AcDbEntity
  8
DRAW3
100
AcDbLine
 10
-48.89998610000034
 20
-65.88208199999996
 30
0.0
 11
-54.50000061094762
 21
-65.88198317489234
 31
0.0
  0
LINE
  5
8771
330
18
100
AcDbEntity
  8
DRAW2
100
AcDbLine
 10
-48.89998610000034
 20
-65.88208199999996
 30
0.0
 11
-49.50002610000061
 21
-65.28205200000002
 31
0.0
  0
LINE
  5
8772
330
18
100
AcDbEntity
  8
DRAW2
100
AcDbLine
 10
77.3000000000001
 20
-61.78200000000003
 30
0.0
 11
77.3000000000001
 21
-76.78200000000003
 31
0.0
  0
ARC
  5
8773
330
18
100
AcDbEntity
  8
DRAW2
100
AcDbCircle
 10
81.07734370000008
 20
-74.91116559999998
 30
0.0
 40
3.3226678
100
AcDbArc
 50
334.38552
 51
34.38314599999822
  0
LINE
  5
8774
330
18
100
AcDbEntity
  8
DRAW2
100
AcDbLine
 10
78.90000610000007
 20
-61.78200000000003
 30
0.0
 11
78.90000610000007
 21
-76.78200000000003
 31
0.0
  0
LINE
  5
8775
330
18
100
AcDbEntity
  8
DRAW2
100
AcDbLine
 10
78.90000610000007
 20
-76.78755420000003
 30
0.0
 11
78.90000610000007
 21
-61.77644580000002
 31
0.0
  0
LINE
  5
8776
330
18
100
AcDbEntity
  8
DRAW2
100
AcDbLine
 10
78.90000610000007
 20
-76.78755420000003
 30
0.0
 11
78.90000610000007
 21
-61.77644580000002
 31
0.0
  0
LINE
  5
8777
330
18
100
AcDbEntity
  8
DRAW2
100
AcDbLine
 10
84.40000610000007
 20
-75.7820305
 30
0.0
 11
84.40000610000007
 21
-62.78200000000002
 31
0.0
  0
LINE
  5
8778
330
18
100
AcDbEntity
  8
DRAW2
100
AcDbLine
 10
78.90000610000007
 20
-76.78200000000003
 30
0.0
 11
77.3000000000001
 21
-76.78200000000003
 31
0.0
  0
LINE
  5
8779
330
18
100
AcDbEntity
  8
DRAW2
100
AcDbLine
 10
83.81944970000006
 20
-76.78755899999997
 30
0.0
 11
84.39998940000007
 21
-75.7820348
 31
0.0
  0
LINE
  5
877A
330
18
100
AcDbEntity
  8
DRAW2
100
AcDbLine
 10
83.81947020000007
 20
-76.78755420000003
 30
0.0
 11
78.90000610000007
 21
-76.78755420000003
 31
0.0
  0
LINE
  5
877B
330
18
100
AcDbEntity
  8
DRAW2
100
AcDbLine
 10
78.90000610000007
 20
-61.78200000000003
 30
0.0
 11
77.3000000000001
 21
-61.78200000000003
 31
0.0
  0
LINE
  5
877C
330
18
100
AcDbEntity
  8
DRAW2
100
AcDbLine
 10
78.90000610000007
 20
-69.03200000000004
 30
0.0
 11
77.3000000000001
 21
-69.03200000000004
 31
0.0
  0
LINE
  5
877D
330
18
100
AcDbEntity
  8
DRAW2
100
AcDbLine
 10
78.90000610000007
 20
-69.53200000000004
 30
0.0
 11
77.3000000000001
 21
-69.53200000000004
 31
0.0
  0
LINE
  5
877E
330
18
100
AcDbEntity
  8
DRAW2
100
AcDbLine
 10
84.40000800000007
 20
-62.78201620000003
 30
0.0
 11
83.81944160000006
 21
-61.77644580000002
 31
0.0
  0
LINE
  5
877F
330
18
100
AcDbEntity
  8
DRAW2
100
AcDbLine
 10
83.81945500000005
 20
-61.77644580000002
 30
0.0
 11
78.90000610000007
 21
-61.77644580000002
 31
0.0
  0
ARC
  5
8780
330
18
100
AcDbEntity
  8
DRAW2
100
AcDbCircle
 10
71.98014530000008
 20
-69.28200000000003
 30
0.0
 40
12.419868
100
AcDbArc
 50
342.4126400000005
 51
17.58734500000151
  0
LINE
  5
8784
330
18
100
AcDbEntity
  8
DRAW2
100
AcDbLine
 10
83.81947020000007
 20
-73.03477710000002
 30
0.0
 11
78.90000610000007
 21
-73.03477710000002
 31
0.0
  0
LINE
  5
8787
330
18
100
AcDbEntity
  8
DRAW2
100
AcDbLine
 10
83.81947020000007
 20
-65.52922290000002
 30
0.0
 11
78.90000610000007
 21
-65.52922290000002
 31
0.0
  0
ARC
  5
8788
330
18
100
AcDbEntity
  8
DRAW2
100
AcDbCircle
 10
81.07740480000009
 20
-63.65283440000006
 30
0.0
 40
3.322595799999999
100
AcDbArc
 50
325.6160899999973
 51
25.61679300000001
  0
LINE
  5
8789
330
18
100
AcDbEntity
  8
DRAW3
100
AcDbLine
 10
48.89998610000034
 20
-65.88208199999996
 30
0.0
 11
54.50000061094762
 21
-65.88198317489234
 31
0.0
  0
LINE
  5
878A
330
18
100
AcDbEntity
  8
DRAW2
100
AcDbLine
 10
49.50002610000061
 20
-65.28205200000001
 30
0.0
 11
54.50000061094761
 21
-65.28205199999984
 31
0.0
  0
LINE
  5
878B
330
18
100
AcDbEntity
  8
DRAW3
100
AcDbLine
 10
48.90004610000019
 20
-72.68201199999999
 30
0.0
 11
54.50000061094762
 21
-72.6820614128961
 31
0.0
  0
LINE
  5
878C
330
18
100
AcDbEntity
  8
DRAW2
100
AcDbLine
 10
49.50002610000061
 20
-73.28199199999994
 30
0.0
 11
54.50000061094761
 21
-73.28204557279097
 31
0.0
  0
LINE
  5
878D
330
18
100
AcDbEntity
  8
DRAW2
100
AcDbLine
 10
48.89998610000034
 20
-65.88208199999996
 30
0.0
 11
49.50002610000061
 21
-65.28205200000002
 31
0.0
  0
LINE
  5
878E
330
18
100
AcDbEntity
  8
DRAW2
100
AcDbLine
 10
48.90004610000019
 20
-72.68204199999991
 30
0.0
 11
48.90004610000019
 21
-65.88202200000001
 31
0.0
  0
LINE
  5
878F
330
18
100
AcDbEntity
  8
DRAW2
100
AcDbLine
 10
49.50002610000061
 20
-73.28202199999987
 30
0.0
 11
49.50002610000061
 21
-65.28205200000002
 31
0.0
  0
LINE
  5
8790
330
18
100
AcDbEntity
  8
DRAW2
100
AcDbLine
 10
49.50002610000061
 20
-73.28199199999994
 30
0.0
 11
48.90004610000019
 21
-72.68201199999999
 31
0.0
  0
LINE
  5
8791
330
18
100
AcDbEntity
  8
DRAW2
100
AcDbLine
 10
78.90000610000007
 20
-0.25
 30
0.0
 11
77.3000000000001
 21
-0.25
 31
0.0
  0
LINE
  5
8792
330
18
100
AcDbEntity
  8
DRAW2
100
AcDbLine
 10
78.90000610000007
 20
0.25
 30
0.0
 11
77.3000000000001
 21
0.25
 31
0.0
  0
LINE
  5
8793
330
18
100
AcDbEntity
  8
DRAW2
100
AcDbLine
 10
78.90000610000007
 20
-7.5
 30
0.0
 11
77.3000000000001
 21
-7.5
 31
0.0
  0
LINE
  5
8794
330
18
100
AcDbEntity
  8
DRAW2
100
AcDbLine
 10
78.90000610000007
 20
7.5
 30
0.0
 11
77.3000000000001
 21
7.5
 31
0.0
  0
ARC
  5
8795
330
18
100
AcDbEntity
  8
DRAW2
100
AcDbCircle
 10
81.07740480000009
 20
5.629165599999979
 30
0.0
 40
3.322595799999999
100
AcDbArc
 50
325.6160899999973
 51
25.61679300000001
  0
LINE
  5
8796
330
18
100
AcDbEntity
  8
DRAW2
100
AcDbLine
 10
84.40000610000007
 20
-6.500030499999965
 30
0.0
 11
84.40000610000007
 21
6.500000000000014
 31
0.0
  0
LINE
  5
8797
330
18
100
AcDbEntity
  8
DRAW2
100
AcDbLine
 10
78.90000610000007
 20
-7.505554199999991
 30
0.0
 11
78.90000610000007
 21
7.50555420000002
 31
0.0
  0
LINE
  5
8798
330
18
100
AcDbEntity
  8
DRAW2
100
AcDbLine
 10
78.90000610000007
 20
-7.505554199999991
 30
0.0
 11
78.90000610000007
 21
7.50555420000002
 31
0.0
  0
LINE
  5
8799
330
18
100
AcDbEntity
  8
DRAW2
100
AcDbLine
 10
78.90000610000007
 20
7.5
 30
0.0
 11
78.90000610000007
 21
-7.5
 31
0.0
  0
LINE
  5
879A
330
18
100
AcDbEntity
  8
DRAW2
100
AcDbLine
 10
83.81947020000007
 20
3.752777100000017
 30
0.0
 11
78.90000610000007
 21
3.752777100000017
 31
0.0
  0
LINE
  5
879D
330
18
100
AcDbEntity
  8
DRAW2
100
AcDbLine
 10
83.81947020000007
 20
-7.505554199999991
 30
0.0
 11
78.90000610000007
 21
-7.505554199999991
 31
0.0
  0
LINE
  5
879E
330
18
100
AcDbEntity
  8
DRAW2
100
AcDbLine
 10
83.81947020000007
 20
-3.752777099999988
 30
0.0
 11
78.90000610000007
 21
-3.752777099999988
 31
0.0
  0
ARC
  5
879F
330
18
100
AcDbEntity
  8
DRAW2
100
AcDbCircle
 10
81.07734370000008
 20
-5.629165599999943
 30
0.0
 40
3.3226678
100
AcDbArc
 50
334.38552
 51
34.38314599999822
  0
LINE
  5
87A0
330
18
100
AcDbEntity
  8
DRAW2
100
AcDbLine
 10
83.81944970000006
 20
-7.505558999999934
 30
0.0
 11
84.39998940000007
 21
-6.500034799999966
 31
0.0
  0
ARC
  5
87A4
330
18
100
AcDbEntity
  8
DRAW2
100
AcDbCircle
 10
71.98014530000008
 20
0.0000000000000142
 30
0.0
 40
12.419868
100
AcDbArc
 50
342.4126400000005
 51
17.58734500000151
  0
LINE
  5
87A5
330
18
100
AcDbEntity
  8
DRAW2
100
AcDbLine
 10
83.81945500000005
 20
7.50555420000002
 30
0.0
 11
78.90000610000007
 21
7.50555420000002
 31
0.0
  0
LINE
  5
87A6
330
18
100
AcDbEntity
  8
DRAW2
100
AcDbLine
 10
84.40000800000007
 20
6.499983800000009
 30
0.0
 11
83.81944160000006
 21
7.50555420000002
 31
0.0
  0
LINE
  5
87A7
330
18
100
AcDbEntity
  8
DRAW2
100
AcDbLine
 10
77.3000000000001
 20
7.5
 30
0.0
 11
77.3000000000001
 21
-7.5
 31
0.0
  0
LINE
  5
87A8
330
18
100
AcDbEntity
  8
DRAW2
100
AcDbLine
 10
49.50002610000061
 20
-3.999991999999906
 30
0.0
 11
54.50000061094761
 21
-4.000045572790924
 31
0.0
  0
LINE
  5
87A9
330
18
100
AcDbEntity
  8
DRAW3
100
AcDbLine
 10
48.90004610000019
 20
-3.400011999999946
 30
0.0
 11
54.50000061094762
 21
-3.400061412896064
 31
0.0
  0
LINE
  5
87AA
330
18
100
AcDbEntity
  8
DRAW2
100
AcDbLine
 10
49.50002610000061
 20
-3.999991999999906
 30
0.0
 11
48.90004610000019
 21
-3.400011999999946
 31
0.0
  0
LINE
  5
87AB
330
18
100
AcDbEntity
  8
DRAW2
100
AcDbLine
 10
49.50002610000061
 20
-4.00002199999983
 30
0.0
 11
49.50002610000061
 21
3.999948000000017
 31
0.0
  0
LINE
  5
87AC
330
18
100
AcDbEntity
  8
DRAW2
100
AcDbLine
 10
48.90004610000019
 20
-3.400041999999871
 30
0.0
 11
48.90004610000019
 21
3.399978000000032
 31
0.0
  0
LINE
  5
87AD
330
18
100
AcDbEntity
  8
DRAW2
100
AcDbLine
 10
49.50002610000061
 20
3.999948000000031
 30
0.0
 11
54.50000061094761
 21
3.999948000000202
 31
0.0
  0
LINE
  5
87AE
330
18
100
AcDbEntity
  8
DRAW3
100
AcDbLine
 10
48.89998610000034
 20
3.39991800000007
 30
0.0
 11
54.50000061094762
 21
3.400016825107698
 31
0.0
  0
LINE
  5
87AF
330
18
100
AcDbEntity
  8
DRAW2
100
AcDbLine
 10
48.89998610000034
 20
3.39991800000007
 30
0.0
 11
49.50002610000061
 21
3.999948000000017
 31
0.0
  0
LINE
  5
87B0
330
18
100
AcDbEntity
  8
DRAW2
100
AcDbLine
 10
78.90000610000007
 20
76.78200999999996
 30
0.0
 11
77.3000000000001
 21
76.78200999999996
 31
0.0
  0
LINE
  5
87B1
330
18
100
AcDbEntity
  8
DRAW2
100
AcDbLine
 10
78.90000610000007
 20
61.78200999999996
 30
0.0
 11
77.3000000000001
 21
61.78200999999996
 31
0.0
  0
LINE
  5
87B2
330
18
100
AcDbEntity
  8
DRAW2
100
AcDbLine
 10
78.90000610000007
 20
69.53200999999996
 30
0.0
 11
77.3000000000001
 21
69.53200999999996
 31
0.0
  0
LINE
  5
87B3
330
18
100
AcDbEntity
  8
DRAW2
100
AcDbLine
 10
78.90000610000007
 20
69.03200999999995
 30
0.0
 11
77.3000000000001
 21
69.03200999999995
 31
0.0
  0
ARC
  5
87B4
330
18
100
AcDbEntity
  8
DRAW2
100
AcDbCircle
 10
71.98014530000008
 20
69.28200999999997
 30
0.0
 40
12.419868
100
AcDbArc
 50
342.4126400000005
 51
17.58734500000151
  0
LINE
  5
87B5
330
18
100
AcDbEntity
  8
DRAW2
100
AcDbLine
 10
78.90000610000007
 20
76.78200999999996
 30
0.0
 11
78.90000610000007
 21
61.78200999999996
 31
0.0
  0
LINE
  5
87B6
330
18
100
AcDbEntity
  8
DRAW2
100
AcDbLine
 10
78.90000610000007
 20
61.77645579999996
 30
0.0
 11
78.90000610000007
 21
76.78756419999998
 31
0.0
  0
LINE
  5
87B7
330
18
100
AcDbEntity
  8
DRAW2
100
AcDbLine
 10
78.90000610000007
 20
61.77645579999996
 30
0.0
 11
78.90000610000007
 21
76.78756419999998
 31
0.0
  0
LINE
  5
87B8
330
18
100
AcDbEntity
  8
DRAW2
100
AcDbLine
 10
84.40000610000007
 20
62.78197949999999
 30
0.0
 11
84.40000610000007
 21
75.78200999999997
 31
0.0
  0
LINE
  5
87BC
330
18
100
AcDbEntity
  8
DRAW2
100
AcDbLine
 10
83.81944970000006
 20
61.77645100000002
 30
0.0
 11
84.39998940000007
 21
62.78197519999999
 31
0.0
  0
ARC
  5
87BD
330
18
100
AcDbEntity
  8
DRAW2
100
AcDbCircle
 10
81.07734370000008
 20
63.65284440000001
 30
0.0
 40
3.3226678
100
AcDbArc
 50
334.38552
 51
34.38314599999822
  0
LINE
  5
87BE
330
18
100
AcDbEntity
  8
DRAW2
100
AcDbLine
 10
83.81947020000007
 20
65.52923289999997
 30
0.0
 11
78.90000610000007
 21
65.52923289999997
 31
0.0
  0
LINE
  5
87BF
330
18
100
AcDbEntity
  8
DRAW2
100
AcDbLine
 10
83.81947020000007
 20
61.77645579999996
 30
0.0
 11
78.90000610000007
 21
61.77645579999996
 31
0.0
  0
LINE
  5
87C0
330
18
100
AcDbEntity
  8
DRAW2
100
AcDbLine
 10
84.40000800000007
 20
75.78199379999997
 30
0.0
 11
83.81944160000006
 21
76.78756419999998
 31
0.0
  0
LINE
  5
87C1
330
18
100
AcDbEntity
  8
DRAW2
100
AcDbLine
 10
83.81945500000005
 20
76.78756419999998
 30
0.0
 11
78.90000610000007
 21
76.78756419999998
 31
0.0
  0
LINE
  5
87C4
330
18
100
AcDbEntity
  8
DRAW2
100
AcDbLine
 10
83.81947020000007
 20
73.03478709999997
 30
0.0
 11
78.90000610000007
 21
73.03478709999997
 31
0.0
  0
ARC
  5
87C5
330
18
100
AcDbEntity
  8
DRAW2
100
AcDbCircle
 10
81.07740480000009
 20
74.91117559999993
 30
0.0
 40
3.322595799999999
100
AcDbArc
 50
325.6160899999973
 51
25.61679300000001
  0
LINE
  5
87C6
330
18
100
AcDbEntity
  8
DRAW2
100
AcDbLine
 10
77.3000000000001
 20
76.78200999999996
 30
0.0
 11
77.3000000000001
 21
61.78200999999996
 31
0.0
  0
LINE
  5
87C7
330
18
100
AcDbEntity
  8
DRAW2
100
AcDbLine
 10
48.90004610000019
 20
65.88196800000009
 30
0.0
 11
48.90004610000019
 21
72.68198799999999
 31
0.0
  0
LINE
  5
87C8
330
18
100
AcDbEntity
  8
DRAW2
100
AcDbLine
 10
49.50002610000061
 20
65.28198800000012
 30
0.0
 11
49.50002610000061
 21
73.28195799999997
 31
0.0
  0
LINE
  5
87C9
330
18
100
AcDbEntity
  8
DRAW3
100
AcDbLine
 10
48.90004610000019
 20
65.88199800000001
 30
0.0
 11
54.50000061094762
 21
65.88194858710389
 31
0.0
  0
LINE
  5
87CA
330
18
100
AcDbEntity
  8
DRAW2
100
AcDbLine
 10
49.50002610000061
 20
65.28201800000005
 30
0.0
 11
54.50000061094761
 21
65.28196442720903
 31
0.0
  0
LINE
  5
87CB
330
18
100
AcDbEntity
  8
DRAW2
100
AcDbLine
 10
49.50002610000061
 20
65.28201800000005
 30
0.0
 11
48.90004610000019
 21
65.88199800000001
 31
0.0
  0
LINE
  5
87CC
330
18
100
AcDbEntity
  8
DRAW3
100
AcDbLine
 10
48.89998610000034
 20
72.68192800000003
 30
0.0
 11
54.50000061094762
 21
72.68202682510765
 31
0.0
  0
LINE
  5
87CD
330
18
100
AcDbEntity
  8
DRAW2
100
AcDbLine
 10
49.50002610000061
 20
73.28195799999999
 30
0.0
 11
54.50000061094761
 21
73.28195800000016
 31
0.0
  0
LINE
  5
87CE
330
18
100
AcDbEntity
  8
DRAW2
100
AcDbLine
 10
48.89998610000034
 20
72.68192800000003
 30
0.0
 11
49.50002610000061
 21
73.28195799999997
 31
0.0
  0
LINE
  5
887D
330
18
100
AcDbEntity
  8
DRAW2
100
AcDbLine
 10
394.9999928
 20
52.5000136242432
 30
0.0
 11
394.9999928
 21
37.50001362424319
 31
0.0
  0
LINE
  5
887E
330
18
100
AcDbEntity
  8
DRAW2
100
AcDbLine
 10
393.3999867
 20
52.5000136242432
 30
0.0
 11
393.3999867
 21
37.50001362424319
 31
0.0
  0
LINE
  5
8880
330
18
100
AcDbEntity
  8
DRAW2
100
AcDbLine
 10
393.3999867
 20
37.49445942424319
 30
0.0
 11
393.3999867
 21
52.5055678242432
 31
0.0
  0
LINE
  5
8883
330
18
100
AcDbEntity
  8
DRAW2
100
AcDbLine
 10
393.3999867
 20
37.49445942424319
 30
0.0
 11
393.3999867
 21
52.5055678242432
 31
0.0
  0
LINE
  5
8886
330
18
100
AcDbEntity
  8
DRAW2
100
AcDbLine
 10
393.3999867
 20
45.25001362424319
 30
0.0
 11
394.9999928
 21
45.25001362424319
 31
0.0
  0
LINE
  5
8887
330
18
100
AcDbEntity
  8
DRAW2
100
AcDbLine
 10
393.3999867
 20
44.75001362424319
 30
0.0
 11
394.9999928
 21
44.75001362424319
 31
0.0
  0
LINE
  5
8888
330
18
100
AcDbEntity
  8
DRAW2
100
AcDbLine
 10
393.3999867
 20
37.50001362424319
 30
0.0
 11
394.9999928
 21
37.50001362424319
 31
0.0
  0
LINE
  5
888F
330
18
100
AcDbEntity
  8
DRAW2
100
AcDbLine
 10
393.3999867
 20
52.5000136242432
 30
0.0
 11
394.9999928
 21
52.5000136242432
 31
0.0
  0
LINE
  5
889D
330
18
100
AcDbEntity
  8
DRAW2
100
AcDbLine
 10
393.3999867
 20
-0.2499999999998863
 30
0.0
 11
394.9999928
 21
-0.2499999999998863
 31
0.0
  0
LINE
  5
889E
330
18
100
AcDbEntity
  8
DRAW2
100
AcDbLine
 10
393.3999867
 20
0.2500000000001137
 30
0.0
 11
394.9999928
 21
0.2500000000001137
 31
0.0
  0
LINE
  5
889F
330
18
100
AcDbEntity
  8
DRAW2
100
AcDbLine
 10
393.3999867
 20
7.500000000000113
 30
0.0
 11
394.9999928
 21
7.500000000000113
 31
0.0
  0
LINE
  5
88A0
330
18
100
AcDbEntity
  8
DRAW2
100
AcDbLine
 10
393.3999867
 20
-7.499999999999886
 30
0.0
 11
394.9999928
 21
-7.499999999999886
 31
0.0
  0
LINE
  5
88A1
330
18
100
AcDbEntity
  8
DRAW2
100
AcDbLine
 10
393.3999867
 20
-7.505554199999892
 30
0.0
 11
393.3999867
 21
7.505554200000119
 31
0.0
  0
LINE
  5
88A2
330
18
100
AcDbEntity
  8
DRAW2
100
AcDbLine
 10
393.3999867
 20
-7.505554199999892
 30
0.0
 11
393.3999867
 21
7.505554200000119
 31
0.0
  0
LINE
  5
88A3
330
18
100
AcDbEntity
  8
DRAW2
100
AcDbLine
 10
393.3999867
 20
7.500000000000113
 30
0.0
 11
393.3999867
 21
-7.499999999999886
 31
0.0
  0
LINE
  5
88A4
330
18
100
AcDbEntity
  8
DRAW2
100
AcDbLine
 10
387.8999938999999
 20
-6.500044124242833
 30
0.0
 11
387.8999938999999
 21
6.499986375757032
 31
0.0
  0
ARC
  5
88A5
330
18
100
AcDbEntity
  8
DRAW2
100
AcDbCircle
 10
391.2226563000001
 20
-5.629179224242818
 30
0.0
 40
3.3226678
100
AcDbArc
 50
145.616854
 51
205.61448
  0
LINE
  5
88A6
330
18
100
AcDbEntity
  8
DRAW2
100
AcDbLine
 10
388.4805297999998
 20
-7.505567824242973
 30
0.0
 11
393.3999938999999
 21
-7.505567824242973
 31
0.0
  0
LINE
  5
88A7
330
18
100
AcDbEntity
  8
DRAW2
100
AcDbLine
 10
388.4805502999999
 20
-7.505572624242915
 30
0.0
 11
387.9000106
 21
-6.500048424242834
 31
0.0
  0
ARC
  5
88AD
330
18
100
AcDbEntity
  8
DRAW2
100
AcDbCircle
 10
400.3198546999999
 20
-0.0000136242429676
 30
0.0
 40
12.419868
100
AcDbArc
 50
162.4126549999999
 51
197.5873599999999
  0
LINE
  5
88AE
330
18
100
AcDbEntity
  8
DRAW2
100
AcDbLine
 10
388.4805297999998
 20
-3.75279072424297
 30
0.0
 11
393.3999938999999
 21
-3.75279072424297
 31
0.0
  0
LINE
  5
88AF
330
18
100
AcDbEntity
  8
DRAW2
100
AcDbLine
 10
388.4805297999998
 20
3.752763475757035
 30
0.0
 11
393.3999938999999
 21
3.752763475757035
 31
0.0
  0
LINE
  5
88B0
330
18
100
AcDbEntity
  8
DRAW2
100
AcDbLine
 10
388.480545
 20
7.505540575757038
 30
0.0
 11
393.3999938999999
 21
7.505540575757038
 31
0.0
  0
ARC
  5
88B1
330
18
100
AcDbEntity
  8
DRAW2
100
AcDbCircle
 10
391.2225952
 20
5.62915197575711
 30
0.0
 40
3.322595799999999
100
AcDbArc
 50
154.383207
 51
214.38391
  0
LINE
  5
88B2
330
18
100
AcDbEntity
  8
DRAW2
100
AcDbLine
 10
387.8999919999998
 20
6.499970175757141
 30
0.0
 11
388.4805584
 21
7.505540575757038
 31
0.0
  0
LINE
  5
88B3
330
18
100
AcDbEntity
  8
DRAW2
100
AcDbLine
 10
394.9999928
 20
7.500000000000113
 30
0.0
 11
394.9999928
 21
-7.499999999999886
 31
0.0
  0
LINE
  5
88B4
330
18
100
AcDbEntity
  8
DRAW2
100
AcDbLine
 10
393.3999867
 20
-52.49998637575686
 30
0.0
 11
394.9999928
 21
-52.49998637575686
 31
0.0
  0
LINE
  5
88B5
330
18
100
AcDbEntity
  8
DRAW2
100
AcDbLine
 10
393.3999867
 20
-37.49998637575686
 30
0.0
 11
394.9999928
 21
-37.49998637575686
 31
0.0
  0
LINE
  5
88B6
330
18
100
AcDbEntity
  8
DRAW2
100
AcDbLine
 10
393.3999867
 20
-44.74998637575686
 30
0.0
 11
394.9999928
 21
-44.74998637575686
 31
0.0
  0
LINE
  5
88B7
330
18
100
AcDbEntity
  8
DRAW2
100
AcDbLine
 10
393.3999867
 20
-45.24998637575686
 30
0.0
 11
394.9999928
 21
-45.24998637575686
 31
0.0
  0
LINE
  5
88B8
330
18
100
AcDbEntity
  8
DRAW2
100
AcDbLine
 10
393.3999867
 20
-37.49998637575686
 30
0.0
 11
393.3999867
 21
-52.49998637575686
 31
0.0
  0
LINE
  5
88B9
330
18
100
AcDbEntity
  8
DRAW2
100
AcDbLine
 10
393.3999867
 20
-52.50554057575687
 30
0.0
 11
393.3999867
 21
-37.49443217575685
 31
0.0
  0
LINE
  5
88BA
330
18
100
AcDbEntity
  8
DRAW2
100
AcDbLine
 10
393.3999867
 20
-52.50554057575687
 30
0.0
 11
393.3999867
 21
-37.49443217575685
 31
0.0
  0
LINE
  5
88C0
330
18
100
AcDbEntity
  8
DRAW2
100
AcDbLine
 10
394.9999928
 20
-37.49998637575686
 30
0.0
 11
394.9999928
 21
-52.49998637575686
 31
0.0
  0
LINE
  5
88DC
330
18
100
AcDbEntity
  8
DRAW2
100
AcDbLine
 10
427.5
 20
143.0000000000002
 30
0.0
 11
412.5
 21
143.0000000000002
 31
0.0
  0
LINE
  5
88DD
330
18
100
AcDbEntity
  8
DRAW2
100
AcDbLine
 10
427.5
 20
144.6000061000002
 30
0.0
 11
412.5
 21
144.6000061000002
 31
0.0
  0
LINE
  5
88DF
330
18
100
AcDbEntity
  8
DRAW2
100
AcDbLine
 10
412.4944458
 20
144.6000061000002
 30
0.0
 11
427.5055542
 21
144.6000061000002
 31
0.0
  0
LINE
  5
88E2
330
18
100
AcDbEntity
  8
DRAW2
100
AcDbLine
 10
412.4944458
 20
144.6000061000002
 30
0.0
 11
427.5055542
 21
144.6000061000002
 31
0.0
  0
LINE
  5
88E5
330
18
100
AcDbEntity
  8
DRAW2
100
AcDbLine
 10
420.25
 20
144.6000061000002
 30
0.0
 11
420.25
 21
143.0000000000002
 31
0.0
  0
LINE
  5
88E6
330
18
100
AcDbEntity
  8
DRAW2
100
AcDbLine
 10
419.75
 20
144.6000061000002
 30
0.0
 11
419.75
 21
143.0000000000002
 31
0.0
  0
LINE
  5
88E7
330
18
100
AcDbEntity
  8
DRAW2
100
AcDbLine
 10
412.5
 20
144.6000061000002
 30
0.0
 11
412.5
 21
143.0000000000002
 31
0.0
  0
LINE
  5
88EE
330
18
100
AcDbEntity
  8
DRAW2
100
AcDbLine
 10
427.5
 20
144.6000061000002
 30
0.0
 11
427.5
 21
143.0000000000002
 31
0.0
  0
LINE
  5
88F3
330
18
100
AcDbEntity
  8
DRAW2
100
AcDbLine
 10
472.4944458
 20
144.6000061000002
 30
0.0
 11
487.5055542000001
 21
144.6000061000002
 31
0.0
  0
LINE
  5
88F4
330
18
100
AcDbEntity
  8
DRAW2
100
AcDbLine
 10
472.4944458
 20
144.6000061000002
 30
0.0
 11
487.5055542000001
 21
144.6000061000002
 31
0.0
  0
LINE
  5
88F5
330
18
100
AcDbEntity
  8
DRAW2
100
AcDbLine
 10
487.5
 20
144.6000061000002
 30
0.0
 11
472.5
 21
144.6000061000002
 31
0.0
  0
LINE
  5
88F6
330
18
100
AcDbEntity
  8
DRAW2
100
AcDbLine
 10
472.5
 20
144.6000061000002
 30
0.0
 11
472.5
 21
143.0000000000002
 31
0.0
  0
LINE
  5
88F7
330
18
100
AcDbEntity
  8
DRAW2
100
AcDbLine
 10
473.5
 20
150.1000061000002
 30
0.0
 11
486.5000000000001
 21
150.1000061000002
 31
0.0
  0
ARC
  5
88F8
330
18
100
AcDbEntity
  8
DRAW2
100
AcDbCircle
 10
483.25
 20
140.7125361000005
 30
0.0
 40
9.3874664
100
AcDbArc
 50
69.74455100000426
 51
110.2554700000031
  0
LINE
  5
88F9
330
18
100
AcDbEntity
  8
DRAW2
100
AcDbLine
 10
480.0
 20
149.5194661000002
 30
0.0
 11
480.0
 21
144.6000061000002
 31
0.0
  0
LINE
  5
88FC
330
18
100
AcDbEntity
  8
DRAW2
100
AcDbLine
 10
479.75
 20
144.6000061000002
 30
0.0
 11
479.75
 21
143.0000000000002
 31
0.0
  0
LINE
  5
88FD
330
18
100
AcDbEntity
  8
DRAW2
100
AcDbLine
 10
480.2500000000001
 20
144.6000061000002
 30
0.0
 11
480.2500000000001
 21
143.0000000000002
 31
0.0
  0
LINE
  5
88FF
330
18
100
AcDbEntity
  8
DRAW2
100
AcDbLine
 10
473.5
 20
150.1000061000002
 30
0.0
 11
473.5
 21
144.6000061000002
 31
0.0
  0
ARC
  5
8900
330
18
100
AcDbEntity
  8
DRAW2
100
AcDbCircle
 10
476.75
 20
140.7125361000005
 30
0.0
 40
9.3874664
100
AcDbArc
 50
69.74455100000426
 51
110.2554700000031
  0
LINE
  5
8903
330
18
100
AcDbEntity
  8
DRAW2
100
AcDbLine
 10
487.5
 20
144.6000061000002
 30
0.0
 11
487.5
 21
143.0000000000002
 31
0.0
  0
LINE
  5
8904
330
18
100
AcDbEntity
  8
DRAW2
100
AcDbLine
 10
486.5000000000001
 20
150.1000061000002
 30
0.0
 11
486.5000000000001
 21
144.6000061000002
 31
0.0
  0
LINE
  5
8905
330
18
100
AcDbEntity
  8
DRAW2
100
AcDbLine
 10
487.5
 20
143.0000000000002
 30
0.0
 11
472.5
 21
143.0000000000002
 31
0.0
  0
LINE
  5
8922
330
18
100
AcDbEntity
  8
DRAW2
100
AcDbLine
 10
122.3
 20
-99.00002999999992
 30
0.0
 11
122.3
 21
-61.00002999999992
 31
0.0
  0
LINE
  5
8923
330
18
100
AcDbEntity
  8
DRAW2
100
AcDbLine
 10
123.3
 20
-76.00015000000007
 30
0.0
 11
123.3
 21
-61.99999000000002
 31
0.0
  0
LINE
  5
8924
330
18
100
AcDbEntity
  8
DRAW2
100
AcDbLine
 10
72.3000000000001
 20
-99.0
 30
0.0
 11
122.3
 21
-99.0
 31
0.0
  0
LINE
  5
8925
330
18
100
AcDbEntity
  8
DRAW2
100
AcDbLine
 10
122.3
 20
-90.00002999999992
 30
0.0
 11
72.3000000000001
 21
-90.00002999999992
 31
0.0
  0
LINE
  5
8926
330
18
100
AcDbEntity
  8
DRAW2
100
AcDbLine
 10
123.3
 20
-76.00015000000007
 30
0.0
 11
122.3
 21
-76.00015000000007
 31
0.0
  0
LINE
  5
8927
330
18
100
AcDbEntity
  8
DRAW2
100
AcDbLine
 10
116.3
 20
-55.00002999999992
 30
0.0
 11
77.3000000000001
 21
-55.00002999999992
 31
0.0
  0
LINE
  5
8928
330
18
100
AcDbEntity
  8
DRAW2
100
AcDbLine
 10
110.3000000000001
 20
-49.00003000014999
 30
0.0
 11
110.3000000000001
 21
48.99997000015003
 31
0.0
  0
ARC
  5
8929
330
18
100
AcDbEntity
  8
DRAW2
100
AcDbCircle
 10
116.3
 20
-49.00003000000004
 30
0.0
 40
6.0
100
AcDbArc
 50
180.0
 51
270.0
  0
ARC
  5
892A
330
18
100
AcDbEntity
  8
DRAW2
100
AcDbCircle
 10
116.3000000000005
 20
-61.00003000000004
 30
0.0
 40
6.0
100
AcDbArc
 50
0.000000000000007
 51
90.0
  0
LINE
  5
892B
330
18
100
AcDbEntity
  8
DRAW2
100
AcDbLine
 10
123.3
 20
-61.99999000000002
 30
0.0
 11
122.3
 21
-61.99999000000002
 31
0.0
  0
LINE
  5
892C
330
18
100
AcDbEntity
  8
DRAW2
100
AcDbLine
 10
67.8000000000001
 20
89.99997000000007
 30
0.0
 11
67.8000000000001
 21
-90.00003000000004
 31
0.0
  0
LINE
  5
892D
330
18
100
AcDbEntity
  8
DRAW2
100
AcDbLine
 10
77.3000000000001
 20
89.99997000000007
 30
0.0
 11
77.3000000000001
 21
-90.00002999999992
 31
0.0
  0
LINE
  5
892E
330
18
100
AcDbEntity
  8
DRAW2
100
AcDbLine
 10
67.3000000000001
 20
-89.50002999999993
 30
0.0
 11
67.3000000000001
 21
89.49996999999996
 31
0.0
  0
ARC
  5
892F
330
18
100
AcDbEntity
  8
DRAW2
100
AcDbCircle
 10
69.3000000000001
 20
-93.00002999999993
 30
0.0
 40
3.0
100
AcDbArc
 50
359.9999599999959
 51
89.99994999999499
  0
LINE
  5
8930
330
18
100
AcDbEntity
  8
DRAW2
100
AcDbLine
 10
67.8000000000001
 20
-90.00003000000004
 30
0.0
 11
67.3000000000001
 21
-89.50003000000004
 31
0.0
  0
LINE
  5
8931
330
18
100
AcDbEntity
  8
DRAW2
100
AcDbLine
 10
67.79999999999964
 20
-90.00002999999992
 30
0.0
 11
69.3000000000001
 21
-90.00002999999992
 31
0.0
  0
LINE
  5
8932
330
18
100
AcDbEntity
  8
DRAW2
100
AcDbLine
 10
72.3000000000001
 20
-99.00002999999992
 30
0.0
 11
72.3000000000001
 21
-90.00002999999992
 31
0.0
  0
ARC
  5
8933
330
18
100
AcDbEntity
  8
DRAW2
100
AcDbCircle
 10
57.61725305521159
 20
-5.790381833126957
 30
0.0
 40
53.0
100
AcDbArc
 50
291.8002930132039
 51
353.7278060773591
  0
ARC
  5
8934
330
18
100
AcDbEntity
  8
DRAW2
100
AcDbCircle
 10
57.61725305521159
 20
5.790321833127109
 30
0.0
 40
53.0
100
AcDbArc
 50
6.272193922640892
 51
68.199706986796
  0
LINE
  5
8935
330
18
100
AcDbEntity
  8
DRAW2
100
AcDbLine
 10
116.3
 20
54.99997000000007
 30
0.0
 11
77.3000000000001
 21
54.99997000000007
 31
0.0
  0
ARC
  5
8936
330
18
100
AcDbEntity
  8
DRAW2
100
AcDbCircle
 10
116.3
 20
48.99997000000007
 30
0.0
 40
6.0
100
AcDbArc
 50
90.0
 51
180.0
  0
ARC
  5
8937
330
18
100
AcDbEntity
  8
DRAW2
100
AcDbCircle
 10
116.3
 20
60.99997000000008
 30
0.0
 40
6.0
100
AcDbArc
 50
270.0
 51
0.000000000000007
  0
LINE
  5
8938
330
18
100
AcDbEntity
  8
DRAW2
100
AcDbLine
 10
122.3000000000005
 20
60.99997000000008
 30
0.0
 11
122.3
 21
98.99997000000007
 31
0.0
  0
LINE
  5
8939
330
18
100
AcDbEntity
  8
DRAW2
100
AcDbLine
 10
123.3
 20
61.99988000000008
 30
0.0
 11
123.3
 21
75.99999000000003
 31
0.0
  0
LINE
  5
893A
330
18
100
AcDbEntity
  8
DRAW2
100
AcDbLine
 10
123.3
 20
61.99988000000008
 30
0.0
 11
122.3
 21
61.99988000000008
 31
0.0
  0
LINE
  5
893B
330
18
100
AcDbEntity
  8
DRAW2
100
AcDbLine
 10
123.3
 20
75.99999000000003
 30
0.0
 11
122.3
 21
75.99999000000003
 31
0.0
  0
LINE
  5
893C
330
18
100
AcDbEntity
  8
DRAW2
100
AcDbLine
 10
122.3
 20
89.99997000000007
 30
0.0
 11
72.3000000000001
 21
89.99997000000007
 31
0.0
  0
LINE
  5
893D
330
18
100
AcDbEntity
  8
DRAW2
100
AcDbLine
 10
67.8000000000001
 20
89.99997000000007
 30
0.0
 11
69.3000000000001
 21
89.99997000000007
 31
0.0
  0
ARC
  5
893E
330
18
100
AcDbEntity
  8
DRAW2
100
AcDbCircle
 10
69.3000000000001
 20
92.99997000000008
 30
0.0
 40
3.0
100
AcDbArc
 50
269.9999820000138
 51
359.9999599999959
  0
LINE
  5
893F
330
18
100
AcDbEntity
  8
DRAW2
100
AcDbLine
 10
72.3000000000001
 20
89.99997000000007
 30
0.0
 11
72.3000000000001
 21
98.99997000000007
 31
0.0
  0
LINE
  5
8940
330
18
100
AcDbEntity
  8
DRAW2
100
AcDbLine
 10
67.3000000000001
 20
89.49997000000008
 30
0.0
 11
67.8000000000001
 21
89.99997000000007
 31
0.0
  0
LINE
  5
8941
330
18
100
AcDbEntity
  8
DRAW2
100
AcDbLine
 10
72.3000000000001
 20
98.99997000000007
 30
0.0
 11
122.3
 21
98.99997000000007
 31
0.0
  0
LINE
  5
89F2
330
18
100
AcDbEntity
  8
DRAW2
100
AcDbLine
 10
411.5
 20
-99.0
 30
0.0
 11
488.4999999999999
 21
-99.0
 31
0.0
  0
LINE
  5
8A18
330
18
100
AcDbEntity
  8
DRAW2
100
AcDbLine
 10
-122.4999649999999
 20
99.49997000000008
 30
0.0
 11
-72.49996499999998
 21
99.49997000000008
 31
0.0
  0
LINE
  5
8A19
330
18
100
AcDbEntity
  8
DRAW2
100
AcDbLine
 10
72.50003499999997
 20
99.49997000000008
 30
0.0
 11
122.5000349999999
 21
99.49997000000008
 31
0.0
  0
LINE
  5
8A1A
330
18
100
AcDbEntity
  8
DRAW2
100
AcDbLine
 10
-122.4999649999999
 20
-99.50000000000001
 30
0.0
 11
-72.49996499999998
 21
-99.50000000000001
 31
0.0
  0
LINE
  5
8A1B
330
18
100
AcDbEntity
  8
DRAW2
100
AcDbLine
 10
72.50003500000008
 20
-99.50000000000001
 30
0.0
 11
122.500035
 21
-99.50000000000001
 31
0.0
  0
LINE
  5
8A1C
330
18
100
AcDbEntity
  8
DRAW2
100
AcDbLine
 10
411.0
 20
-99.50000000000001
 30
0.0
 11
488.9999999999999
 21
-99.50000000000001
 31
0.0
  0
LINE
  5
8A6E
330
18
100
AcDbEntity
  8
DRAW2
100
AcDbLine
 10
411.5
 20
99.00000000000023
 30
0.0
 11
488.5
 21
99.00000000000023
 31
0.0
  0
LINE
  5
8AD4
330
18
100
AcDbEntity
  8
DRAW2
100
AcDbLine
 10
-77.29996948242188
 20
437.5000000000002
 30
0.0
 11
-77.29996948242188
 21
422.5000000000002
 31
0.0
  0
LINE
  5
8AD5
330
18
100
AcDbEntity
  8
DRAW2
100
AcDbLine
 10
-78.89997558242185
 20
437.5000000000002
 30
0.0
 11
-78.89997558242185
 21
422.5000000000002
 31
0.0
  0
LINE
  5
8ADC
330
18
100
AcDbEntity
  8
DRAW2
100
AcDbLine
 10
-78.89997558242185
 20
422.5000000000002
 30
0.0
 11
-77.29996948242188
 21
422.5000000000002
 31
0.0
  0
LINE
  5
8AE3
330
18
100
AcDbEntity
  8
DRAW2
100
AcDbLine
 10
-78.89997558242185
 20
437.5000000000002
 30
0.0
 11
-77.29996948242188
 21
437.5000000000002
 31
0.0
  0
LINE
  5
8AE8
330
18
100
AcDbEntity
  8
DRAW2
100
AcDbLine
 10
-78.89997558242185
 20
430.2500000000001
 30
0.0
 11
-77.29996948242188
 21
430.2500000000001
 31
0.0
  0
LINE
  5
8AE9
330
18
100
AcDbEntity
  8
DRAW2
100
AcDbLine
 10
-78.89997558242185
 20
429.7500000000002
 30
0.0
 11
-77.29996948242188
 21
429.7500000000002
 31
0.0
  0
LINE
  5
8AF5
330
18
100
AcDbEntity
  8
DRAW2
100
AcDbLine
 10
-84.39997558242186
 20
276.4999999999995
 30
0.0
 11
-84.39997558242186
 21
263.4999999999995
 31
0.0
  0
ARC
  5
8AF6
330
18
100
AcDbEntity
  8
DRAW2
100
AcDbCircle
 10
-75.01250918242186
 20
266.7499999999995
 30
0.0
 40
9.3874664
100
AcDbArc
 50
159.7445300000011
 51
200.2554489999986
  0
LINE
  5
8AF7
330
18
100
AcDbEntity
  8
DRAW2
100
AcDbLine
 10
-77.29996948242188
 20
277.4999999999995
 30
0.0
 11
-77.29996948242188
 21
262.4999999999995
 31
0.0
  0
LINE
  5
8AF8
330
18
100
AcDbEntity
  8
DRAW2
100
AcDbLine
 10
-78.89997558242185
 20
277.4999999999995
 30
0.0
 11
-78.89997558242185
 21
262.4999999999995
 31
0.0
  0
LINE
  5
8AFA
330
18
100
AcDbEntity
  8
DRAW2
100
AcDbLine
 10
-78.89997558242185
 20
262.4999999999995
 30
0.0
 11
-77.29996948242188
 21
262.4999999999995
 31
0.0
  0
LINE
  5
8AFB
330
18
100
AcDbEntity
  8
DRAW2
100
AcDbLine
 10
-84.39997558242186
 20
263.4999999999995
 30
0.0
 11
-78.89997558242185
 21
263.4999999999995
 31
0.0
  0
LINE
  5
8AFC
330
18
100
AcDbEntity
  8
DRAW2
100
AcDbLine
 10
-78.89997558242185
 20
277.4999999999995
 30
0.0
 11
-77.29996948242188
 21
277.4999999999995
 31
0.0
  0
LINE
  5
8B00
330
18
100
AcDbEntity
  8
DRAW2
100
AcDbLine
 10
-78.89997558242185
 20
270.2499999999995
 30
0.0
 11
-77.29996948242188
 21
270.2499999999995
 31
0.0
  0
LINE
  5
8B01
330
18
100
AcDbEntity
  8
DRAW2
100
AcDbLine
 10
-78.89997558242185
 20
269.7499999999995
 30
0.0
 11
-77.29996948242188
 21
269.7499999999995
 31
0.0
  0
ARC
  5
8B03
330
18
100
AcDbEntity
  8
DRAW2
100
AcDbCircle
 10
-75.01250918242186
 20
273.2499999999995
 30
0.0
 40
9.3874664
100
AcDbArc
 50
159.7445300000011
 51
200.2554489999986
  0
LINE
  5
8B04
330
18
100
AcDbEntity
  8
DRAW2
100
AcDbLine
 10
-83.81943968242188
 20
269.9999999999995
 30
0.0
 11
-78.89997558242185
 21
269.9999999999995
 31
0.0
  0
LINE
  5
8B05
330
18
100
AcDbEntity
  8
DRAW2
100
AcDbLine
 10
-84.39997558242186
 20
276.4999999999995
 30
0.0
 11
-78.89997558242185
 21
276.4999999999995
 31
0.0
  0
LINE
  5
8B06
330
18
100
AcDbEntity
  8
DRAW2
100
AcDbLine
 10
-78.89997558242185
 20
397.5
 30
0.0
 11
-77.29996948242188
 21
397.5
 31
0.0
  0
LINE
  5
8B07
330
18
100
AcDbEntity
  8
DRAW2
100
AcDbLine
 10
-78.89997558242185
 20
390.25
 30
0.0
 11
-77.29996948242188
 21
390.25
 31
0.0
  0
LINE
  5
8B08
330
18
100
AcDbEntity
  8
DRAW2
100
AcDbLine
 10
-78.89997558242185
 20
389.7499999999999
 30
0.0
 11
-77.29996948242188
 21
389.7499999999999
 31
0.0
  0
LINE
  5
8B09
330
18
100
AcDbEntity
  8
DRAW2
100
AcDbLine
 10
-78.89997558242185
 20
382.5
 30
0.0
 11
-77.29996948242188
 21
382.5
 31
0.0
  0
ARC
  5
8B0B
330
18
100
AcDbEntity
  8
DRAW2
100
AcDbCircle
 10
-75.01250918242186
 20
393.25
 30
0.0
 40
9.3874664
100
AcDbArc
 50
159.7445300000011
 51
200.2554489999986
  0
LINE
  5
8B0C
330
18
100
AcDbEntity
  8
DRAW2
100
AcDbLine
 10
-84.39997558242186
 20
396.5
 30
0.0
 11
-84.39997558242186
 21
383.4999999999999
 31
0.0
  0
LINE
  5
8B0D
330
18
100
AcDbEntity
  8
DRAW2
100
AcDbLine
 10
-78.89997558242185
 20
397.5
 30
0.0
 11
-78.89997558242185
 21
382.5
 31
0.0
  0
LINE
  5
8B0F
330
18
100
AcDbEntity
  8
DRAW2
100
AcDbLine
 10
-83.81943968242188
 20
390.0
 30
0.0
 11
-78.89997558242185
 21
390.0
 31
0.0
  0
LINE
  5
8B10
330
18
100
AcDbEntity
  8
DRAW2
100
AcDbLine
 10
-84.39997558242186
 20
383.4999999999999
 30
0.0
 11
-78.89997558242185
 21
383.4999999999999
 31
0.0
  0
ARC
  5
8B11
330
18
100
AcDbEntity
  8
DRAW2
100
AcDbCircle
 10
-75.01250918242186
 20
386.75
 30
0.0
 40
9.3874664
100
AcDbArc
 50
159.7445300000011
 51
200.2554489999986
  0
LINE
  5
8B15
330
18
100
AcDbEntity
  8
DRAW2
100
AcDbLine
 10
-84.39997558242186
 20
396.5
 30
0.0
 11
-78.89997558242185
 21
396.5
 31
0.0
  0
LINE
  5
8B16
330
18
100
AcDbEntity
  8
DRAW2
100
AcDbLine
 10
-77.29996948242188
 20
397.5
 30
0.0
 11
-77.29996948242188
 21
382.5
 31
0.0
  0
LINE
  5
8B27
330
18
100
AcDbEntity
  8
DRAW2
100
AcDbLine
 10
-78.89997558242185
 20
302.4999999999999
 30
0.0
 11
-77.29996948242188
 21
302.4999999999999
 31
0.0
  0
LINE
  5
8B28
330
18
100
AcDbEntity
  8
DRAW2
100
AcDbLine
 10
-78.89997558242185
 20
309.75
 30
0.0
 11
-77.29996948242188
 21
309.75
 31
0.0
  0
LINE
  5
8B29
330
18
100
AcDbEntity
  8
DRAW2
100
AcDbLine
 10
-78.89997558242185
 20
310.25
 30
0.0
 11
-77.29996948242188
 21
310.25
 31
0.0
  0
LINE
  5
8B2A
330
18
100
AcDbEntity
  8
DRAW2
100
AcDbLine
 10
-78.89997558242185
 20
317.5
 30
0.0
 11
-77.29996948242188
 21
317.5
 31
0.0
  0
LINE
  5
8B2B
330
18
100
AcDbEntity
  8
DRAW2
100
AcDbLine
 10
-84.39997558242186
 20
316.5
 30
0.0
 11
-78.89997558242185
 21
316.5
 31
0.0
  0
ARC
  5
8B2F
330
18
100
AcDbEntity
  8
DRAW2
100
AcDbCircle
 10
-75.01250918242186
 20
306.7499999999999
 30
0.0
 40
9.3874664
100
AcDbArc
 50
159.7445300000011
 51
200.2554489999986
  0
LINE
  5
8B30
330
18
100
AcDbEntity
  8
DRAW2
100
AcDbLine
 10
-84.39997558242186
 20
303.5
 30
0.0
 11
-78.89997558242185
 21
303.5
 31
0.0
  0
LINE
  5
8B31
330
18
100
AcDbEntity
  8
DRAW2
100
AcDbLine
 10
-83.81943968242188
 20
310.0
 30
0.0
 11
-78.89997558242185
 21
310.0
 31
0.0
  0
LINE
  5
8B33
330
18
100
AcDbEntity
  8
DRAW2
100
AcDbLine
 10
-78.89997558242185
 20
317.5
 30
0.0
 11
-78.89997558242185
 21
302.4999999999999
 31
0.0
  0
LINE
  5
8B34
330
18
100
AcDbEntity
  8
DRAW2
100
AcDbLine
 10
-84.39997558242186
 20
316.5
 30
0.0
 11
-84.39997558242186
 21
303.5
 31
0.0
  0
ARC
  5
8B35
330
18
100
AcDbEntity
  8
DRAW2
100
AcDbCircle
 10
-75.01250918242186
 20
313.25
 30
0.0
 40
9.3874664
100
AcDbArc
 50
159.7445300000011
 51
200.2554489999986
  0
LINE
  5
8B37
330
18
100
AcDbEntity
  8
DRAW2
100
AcDbLine
 10
-77.29996948242188
 20
317.5
 30
0.0
 11
-77.29996948242188
 21
302.4999999999999
 31
0.0
  0
ARC
  5
8B3A
330
18
100
AcDbEntity
  8
DRAW2
100
AcDbCircle
 10
-80.29996948242189
 20
408.6720132401316
 30
0.0
 40
3.0
100
AcDbArc
 50
299.9999632093645
 51
0.0
  0
ARC
  5
8B3B
330
18
100
AcDbEntity
  8
DRAW2
100
AcDbCircle
 10
-80.29996948242189
 20
291.328257580073
 30
0.0
 40
3.0
100
AcDbArc
 50
0.0
 51
60.00000568015742
  0
LINE
  5
8B3C
330
18
100
AcDbEntity
  8
DRAW2
100
AcDbLine
 10
-49.52497558242185
 20
394.0000300000001
 30
0.0
 11
-49.52497558242185
 21
386.0000300000001
 31
0.0
  0
LINE
  5
8B3D
330
18
100
AcDbEntity
  8
DRAW2
100
AcDbLine
 10
-48.89997558242185
 20
393.3750300000001
 30
0.0
 11
-48.89997558242185
 21
386.6250300000001
 31
0.0
  0
LINE
  5
8B3E
330
18
100
AcDbEntity
  8
DRAW2
100
AcDbLine
 10
-49.52497558242185
 20
386.0000300000001
 30
0.0
 11
-54.50000061094761
 21
386.0000300000003
 31
0.0
  0
LINE
  5
8B3F
330
18
100
AcDbEntity
  8
DRAW3
100
AcDbLine
 10
-48.89997558242185
 20
386.6250300000001
 30
0.0
 11
-54.50000061094761
 21
386.6250300000002
 31
0.0
  0
LINE
  5
8B40
330
18
100
AcDbEntity
  8
DRAW2
100
AcDbLine
 10
-48.89991558242178
 20
386.6250300000001
 30
0.0
 11
-49.52491558242178
 21
386.0000300000001
 31
0.0
  0
LINE
  5
8B41
330
18
100
AcDbEntity
  8
DRAW3
100
AcDbLine
 10
-48.89997558242185
 20
393.3750300000001
 30
0.0
 11
-54.50000061094761
 21
393.3750300000001
 31
0.0
  0
LINE
  5
8B42
330
18
100
AcDbEntity
  8
DRAW2
100
AcDbLine
 10
-49.52497558242185
 20
394.0000300000001
 30
0.0
 11
-54.50000061094761
 21
394.0000300000003
 31
0.0
  0
LINE
  5
8B43
330
18
100
AcDbEntity
  8
DRAW2
100
AcDbLine
 10
-49.52491558242178
 20
394.0000300000001
 30
0.0
 11
-48.89985558242194
 21
393.3750300000001
 31
0.0
  0
LINE
  5
8B44
330
18
100
AcDbEntity
  8
DRAW2
100
AcDbLine
 10
-49.52497558242185
 20
274.0000299999999
 30
0.0
 11
-54.50000061094761
 21
274.0000300000001
 31
0.0
  0
LINE
  5
8B45
330
18
100
AcDbEntity
  8
DRAW3
100
AcDbLine
 10
-48.89997558242185
 20
273.3750299999999
 30
0.0
 11
-54.50000061094761
 21
273.37503
 31
0.0
  0
LINE
  5
8B46
330
18
100
AcDbEntity
  8
DRAW3
100
AcDbLine
 10
-48.89997558242185
 20
266.6250299999999
 30
0.0
 11
-54.50000061094761
 21
266.6250299999999
 31
0.0
  0
LINE
  5
8B47
330
18
100
AcDbEntity
  8
DRAW2
100
AcDbLine
 10
-49.52497558242185
 20
266.0000299999999
 30
0.0
 11
-54.50000061094761
 21
266.0000300000001
 31
0.0
  0
LINE
  5
8B48
330
18
100
AcDbEntity
  8
DRAW2
100
AcDbLine
 10
-49.52491558242178
 20
274.0000299999999
 30
0.0
 11
-48.89985558242194
 21
273.3750299999999
 31
0.0
  0
LINE
  5
8B49
330
18
100
AcDbEntity
  8
DRAW2
100
AcDbLine
 10
-48.89991558242178
 20
266.6250299999999
 30
0.0
 11
-49.52491558242178
 21
266.0000299999999
 31
0.0
  0
LINE
  5
8B4A
330
18
100
AcDbEntity
  8
DRAW2
100
AcDbLine
 10
-48.89997558242185
 20
273.3750299999999
 30
0.0
 11
-48.89997558242185
 21
266.6250299999999
 31
0.0
  0
LINE
  5
8B4B
330
18
100
AcDbEntity
  8
DRAW2
100
AcDbLine
 10
-49.52497558242185
 20
274.0000299999999
 30
0.0
 11
-49.52497558242185
 21
266.0000299999999
 31
0.0
  0
LINE
  5
8B4C
330
18
100
AcDbEntity
  8
DRAW2
100
AcDbLine
 10
-49.52497558242185
 20
314.0000300000001
 30
0.0
 11
-49.52497558242185
 21
306.0000300000001
 31
0.0
  0
LINE
  5
8B4D
330
18
100
AcDbEntity
  8
DRAW2
100
AcDbLine
 10
-48.89997558242185
 20
313.3750300000001
 30
0.0
 11
-48.89997558242185
 21
306.6250300000001
 31
0.0
  0
LINE
  5
8B4E
330
18
100
AcDbEntity
  8
DRAW2
100
AcDbLine
 10
-49.52497558242185
 20
306.0000300000001
 30
0.0
 11
-54.50000061094761
 21
306.0000300000004
 31
0.0
  0
LINE
  5
8B4F
330
18
100
AcDbEntity
  8
DRAW3
100
AcDbLine
 10
-48.89997558242185
 20
306.6250300000001
 30
0.0
 11
-54.50000061094761
 21
306.6250300000002
 31
0.0
  0
LINE
  5
8B50
330
18
100
AcDbEntity
  8
DRAW2
100
AcDbLine
 10
-48.89991558242178
 20
306.6250300000001
 30
0.0
 11
-49.52491558242178
 21
306.0000300000001
 31
0.0
  0
LINE
  5
8B51
330
18
100
AcDbEntity
  8
DRAW3
100
AcDbLine
 10
-48.89997558242185
 20
313.3750300000001
 30
0.0
 11
-54.50000061094761
 21
313.3750300000002
 31
0.0
  0
LINE
  5
8B52
330
18
100
AcDbEntity
  8
DRAW2
100
AcDbLine
 10
-49.52497558242185
 20
314.0000300000001
 30
0.0
 11
-54.50000061094761
 21
314.0000300000004
 31
0.0
  0
LINE
  5
8B53
330
18
100
AcDbEntity
  8
DRAW2
100
AcDbLine
 10
-49.52491558242178
 20
314.0000300000001
 30
0.0
 11
-48.89985558242194
 21
313.3750300000001
 31
0.0
  0
LINE
  5
8B54
330
18
100
AcDbEntity
  8
DRAW2
100
AcDbLine
 10
49.52497558242185
 20
394.0000300000001
 30
0.0
 11
54.50000061094761
 21
394.0000300000003
 31
0.0
  0
LINE
  5
8B55
330
18
100
AcDbEntity
  8
DRAW3
100
AcDbLine
 10
48.89997558242185
 20
393.3750300000001
 30
0.0
 11
54.50000061094761
 21
393.3750300000001
 31
0.0
  0
LINE
  5
8B56
330
18
100
AcDbEntity
  8
DRAW3
100
AcDbLine
 10
48.89997558242185
 20
386.6250300000001
 30
0.0
 11
54.50000061094761
 21
386.6250300000002
 31
0.0
  0
LINE
  5
8B57
330
18
100
AcDbEntity
  8
DRAW2
100
AcDbLine
 10
49.52497558242185
 20
386.0000300000001
 30
0.0
 11
54.50000061094761
 21
386.0000300000003
 31
0.0
  0
LINE
  5
8B58
330
18
100
AcDbEntity
  8
DRAW2
100
AcDbLine
 10
49.52491558242177
 20
394.0000300000001
 30
0.0
 11
48.89985558242192
 21
393.3750300000001
 31
0.0
  0
LINE
  5
8B59
330
18
100
AcDbEntity
  8
DRAW2
100
AcDbLine
 10
48.89991558242177
 20
386.6250300000001
 30
0.0
 11
49.52491558242177
 21
386.0000300000001
 31
0.0
  0
LINE
  5
8B5A
330
18
100
AcDbEntity
  8
DRAW2
100
AcDbLine
 10
48.89997558242185
 20
393.3750300000001
 30
0.0
 11
48.89997558242185
 21
386.6250300000001
 31
0.0
  0
LINE
  5
8B5B
330
18
100
AcDbEntity
  8
DRAW2
100
AcDbLine
 10
49.52497558242185
 20
394.0000300000001
 30
0.0
 11
49.52497558242185
 21
386.0000300000001
 31
0.0
  0
LINE
  5
8B5C
330
18
100
AcDbEntity
  8
DRAW2
100
AcDbLine
 10
49.52497558242185
 20
434.0000300000004
 30
0.0
 11
49.52497558242185
 21
426.0000300000004
 31
0.0
  0
LINE
  5
8B5D
330
18
100
AcDbEntity
  8
DRAW2
100
AcDbLine
 10
48.89997558242185
 20
433.3750300000003
 30
0.0
 11
48.89997558242185
 21
426.6250300000003
 31
0.0
  0
LINE
  5
8B5E
330
18
100
AcDbEntity
  8
DRAW2
100
AcDbLine
 10
49.52497558242185
 20
426.0000300000004
 30
0.0
 11
54.50000061094761
 21
426.0000300000005
 31
0.0
  0
LINE
  5
8B5F
330
18
100
AcDbEntity
  8
DRAW3
100
AcDbLine
 10
48.89997558242185
 20
426.6250300000003
 30
0.0
 11
54.50000061094761
 21
426.6250300000004
 31
0.0
  0
LINE
  5
8B60
330
18
100
AcDbEntity
  8
DRAW2
100
AcDbLine
 10
48.89991558242177
 20
426.6250300000003
 30
0.0
 11
49.52491558242177
 21
426.0000300000004
 31
0.0
  0
LINE
  5
8B61
330
18
100
AcDbEntity
  8
DRAW3
100
AcDbLine
 10
48.89997558242185
 20
433.3750300000003
 30
0.0
 11
54.50000061094761
 21
433.3750300000004
 31
0.0
  0
LINE
  5
8B62
330
18
100
AcDbEntity
  8
DRAW2
100
AcDbLine
 10
49.52497558242185
 20
434.0000300000004
 30
0.0
 11
54.50000061094761
 21
434.0000300000006
 31
0.0
  0
LINE
  5
8B63
330
18
100
AcDbEntity
  8
DRAW2
100
AcDbLine
 10
49.52491558242177
 20
434.0000300000004
 30
0.0
 11
48.89985558242192
 21
433.3750300000003
 31
0.0
  0
LINE
  5
8B64
330
18
100
AcDbEntity
  8
DRAW2
100
AcDbLine
 10
78.89997558242185
 20
422.5000000000002
 30
0.0
 11
77.29996948242187
 21
422.5000000000002
 31
0.0
  0
LINE
  5
8B65
330
18
100
AcDbEntity
  8
DRAW2
100
AcDbLine
 10
78.89997558242185
 20
429.7500000000002
 30
0.0
 11
77.29996948242187
 21
429.7500000000002
 31
0.0
  0
LINE
  5
8B66
330
18
100
AcDbEntity
  8
DRAW2
100
AcDbLine
 10
78.89997558242185
 20
430.2500000000001
 30
0.0
 11
77.29996948242187
 21
430.2500000000001
 31
0.0
  0
LINE
  5
8B67
330
18
100
AcDbEntity
  8
DRAW2
100
AcDbLine
 10
78.89997558242185
 20
437.5000000000002
 30
0.0
 11
77.29996948242187
 21
437.5000000000002
 31
0.0
  0
LINE
  5
8B68
330
18
100
AcDbEntity
  8
DRAW2
100
AcDbLine
 10
78.89997558242185
 20
437.5000000000002
 30
0.0
 11
78.89997558242185
 21
422.5000000000002
 31
0.0
  0
LINE
  5
8B69
330
18
100
AcDbEntity
  8
DRAW2
100
AcDbLine
 10
84.39997558242184
 20
436.5000000000001
 30
0.0
 11
84.39997558242184
 21
423.5000000000002
 31
0.0
  0
ARC
  5
8B6A
330
18
100
AcDbEntity
  8
DRAW2
100
AcDbCircle
 10
75.01250918242185
 20
433.2500000000002
 30
0.0
 40
9.3874664
100
AcDbArc
 50
339.7445510000013
 51
20.25546999999884
  0
ARC
  5
8B6D
330
18
100
AcDbEntity
  8
DRAW2
100
AcDbCircle
 10
75.01250918242185
 20
426.7500000000002
 30
0.0
 40
9.3874664
100
AcDbArc
 50
339.7445510000013
 51
20.25546999999884
  0
LINE
  5
8B6E
330
18
100
AcDbEntity
  8
DRAW2
100
AcDbLine
 10
84.39997558242184
 20
423.5000000000002
 30
0.0
 11
78.89997558242185
 21
423.5000000000002
 31
0.0
  0
LINE
  5
8B6F
330
18
100
AcDbEntity
  8
DRAW2
100
AcDbLine
 10
83.81943968242188
 20
430.0000000000002
 30
0.0
 11
78.89997558242185
 21
430.0000000000002
 31
0.0
  0
LINE
  5
8B71
330
18
100
AcDbEntity
  8
DRAW2
100
AcDbLine
 10
84.39997558242184
 20
436.5000000000001
 30
0.0
 11
78.89997558242185
 21
436.5000000000001
 31
0.0
  0
LINE
  5
8B74
330
18
100
AcDbEntity
  8
DRAW2
100
AcDbLine
 10
77.29996948242187
 20
437.5000000000002
 30
0.0
 11
77.29996948242187
 21
422.5000000000002
 31
0.0
  0
LINE
  5
8B75
330
18
100
AcDbEntity
  8
DRAW2
100
AcDbLine
 10
78.89997558242185
 20
389.7499999999999
 30
0.0
 11
77.29996948242187
 21
389.7499999999999
 31
0.0
  0
LINE
  5
8B76
330
18
100
AcDbEntity
  8
DRAW2
100
AcDbLine
 10
78.89997558242185
 20
382.5
 30
0.0
 11
77.29996948242187
 21
382.5
 31
0.0
  0
LINE
  5
8B77
330
18
100
AcDbEntity
  8
DRAW2
100
AcDbLine
 10
78.89997558242185
 20
397.5
 30
0.0
 11
77.29996948242187
 21
397.5
 31
0.0
  0
LINE
  5
8B78
330
18
100
AcDbEntity
  8
DRAW2
100
AcDbLine
 10
78.89997558242185
 20
390.25
 30
0.0
 11
77.29996948242187
 21
390.25
 31
0.0
  0
LINE
  5
8B7A
330
18
100
AcDbEntity
  8
DRAW2
100
AcDbLine
 10
84.39997558242184
 20
396.5
 30
0.0
 11
84.39997558242184
 21
383.4999999999999
 31
0.0
  0
LINE
  5
8B7B
330
18
100
AcDbEntity
  8
DRAW2
100
AcDbLine
 10
78.89997558242185
 20
397.5
 30
0.0
 11
78.89997558242185
 21
382.5
 31
0.0
  0
ARC
  5
8B7C
330
18
100
AcDbEntity
  8
DRAW2
100
AcDbCircle
 10
75.01250918242185
 20
386.75
 30
0.0
 40
9.3874664
100
AcDbArc
 50
339.7445510000013
 51
20.25546999999884
  0
LINE
  5
8B7E
330
18
100
AcDbEntity
  8
DRAW2
100
AcDbLine
 10
84.39997558242184
 20
383.4999999999999
 30
0.0
 11
78.89997558242185
 21
383.4999999999999
 31
0.0
  0
ARC
  5
8B80
330
18
100
AcDbEntity
  8
DRAW2
100
AcDbCircle
 10
75.01250918242185
 20
393.25
 30
0.0
 40
9.3874664
100
AcDbArc
 50
339.7445510000013
 51
20.25546999999884
  0
LINE
  5
8B81
330
18
100
AcDbEntity
  8
DRAW2
100
AcDbLine
 10
83.81943968242188
 20
390.0
 30
0.0
 11
78.89997558242185
 21
390.0
 31
0.0
  0
LINE
  5
8B84
330
18
100
AcDbEntity
  8
DRAW2
100
AcDbLine
 10
84.39997558242184
 20
396.5
 30
0.0
 11
78.89997558242185
 21
396.5
 31
0.0
  0
LINE
  5
8B85
330
18
100
AcDbEntity
  8
DRAW2
100
AcDbLine
 10
77.29996948242187
 20
397.5
 30
0.0
 11
77.29996948242187
 21
382.5
 31
0.0
  0
LINE
  5
8B86
330
18
100
AcDbEntity
  8
DRAW2
100
AcDbLine
 10
78.89997558242185
 20
302.4999999999999
 30
0.0
 11
77.29996948242187
 21
302.4999999999999
 31
0.0
  0
LINE
  5
8B87
330
18
100
AcDbEntity
  8
DRAW2
100
AcDbLine
 10
78.89997558242185
 20
309.75
 30
0.0
 11
77.29996948242187
 21
309.75
 31
0.0
  0
LINE
  5
8B88
330
18
100
AcDbEntity
  8
DRAW2
100
AcDbLine
 10
78.89997558242185
 20
310.25
 30
0.0
 11
77.29996948242187
 21
310.25
 31
0.0
  0
LINE
  5
8B89
330
18
100
AcDbEntity
  8
DRAW2
100
AcDbLine
 10
78.89997558242185
 20
317.5
 30
0.0
 11
77.29996948242187
 21
317.5
 31
0.0
  0
ARC
  5
8B8A
330
18
100
AcDbEntity
  8
DRAW2
100
AcDbCircle
 10
75.01250918242185
 20
306.7499999999999
 30
0.0
 40
9.3874664
100
AcDbArc
 50
339.7445510000013
 51
20.25546999999884
  0
LINE
  5
8B8B
330
18
100
AcDbEntity
  8
DRAW2
100
AcDbLine
 10
78.89997558242185
 20
317.5
 30
0.0
 11
78.89997558242185
 21
302.4999999999999
 31
0.0
  0
LINE
  5
8B8C
330
18
100
AcDbEntity
  8
DRAW2
100
AcDbLine
 10
84.39997558242184
 20
316.5
 30
0.0
 11
84.39997558242184
 21
303.5
 31
0.0
  0
LINE
  5
8B8F
330
18
100
AcDbEntity
  8
DRAW2
100
AcDbLine
 10
84.39997558242184
 20
303.5
 30
0.0
 11
78.89997558242185
 21
303.5
 31
0.0
  0
LINE
  5
8B91
330
18
100
AcDbEntity
  8
DRAW2
100
AcDbLine
 10
84.39997558242184
 20
316.5
 30
0.0
 11
78.89997558242185
 21
316.5
 31
0.0
  0
LINE
  5
8B94
330
18
100
AcDbEntity
  8
DRAW2
100
AcDbLine
 10
83.81943968242188
 20
310.0
 30
0.0
 11
78.89997558242185
 21
310.0
 31
0.0
  0
ARC
  5
8B95
330
18
100
AcDbEntity
  8
DRAW2
100
AcDbCircle
 10
75.01250918242185
 20
313.25
 30
0.0
 40
9.3874664
100
AcDbArc
 50
339.7445510000013
 51
20.25546999999884
  0
LINE
  5
8B96
330
18
100
AcDbEntity
  8
DRAW2
100
AcDbLine
 10
77.29996948242187
 20
317.5
 30
0.0
 11
77.29996948242187
 21
302.4999999999999
 31
0.0
  0
LINE
  5
8B97
330
18
100
AcDbEntity
  8
DRAW2
100
AcDbLine
 10
49.52497558242185
 20
314.0000300000001
 30
0.0
 11
54.50000061094761
 21
314.0000300000004
 31
0.0
  0
LINE
  5
8B98
330
18
100
AcDbEntity
  8
DRAW3
100
AcDbLine
 10
48.89997558242185
 20
313.3750300000001
 30
0.0
 11
54.50000061094761
 21
313.3750300000002
 31
0.0
  0
LINE
  5
8B99
330
18
100
AcDbEntity
  8
DRAW3
100
AcDbLine
 10
48.89997558242185
 20
306.6250300000001
 30
0.0
 11
54.50000061094761
 21
306.6250300000002
 31
0.0
  0
LINE
  5
8B9A
330
18
100
AcDbEntity
  8
DRAW2
100
AcDbLine
 10
49.52497558242185
 20
306.0000300000001
 30
0.0
 11
54.50000061094761
 21
306.0000300000004
 31
0.0
  0
LINE
  5
8B9B
330
18
100
AcDbEntity
  8
DRAW2
100
AcDbLine
 10
49.52491558242177
 20
314.0000300000001
 30
0.0
 11
48.89985558242192
 21
313.3750300000001
 31
0.0
  0
LINE
  5
8B9C
330
18
100
AcDbEntity
  8
DRAW2
100
AcDbLine
 10
48.89991558242177
 20
306.6250300000001
 30
0.0
 11
49.52491558242177
 21
306.0000300000001
 31
0.0
  0
LINE
  5
8B9D
330
18
100
AcDbEntity
  8
DRAW2
100
AcDbLine
 10
48.89997558242185
 20
313.3750300000001
 30
0.0
 11
48.89997558242185
 21
306.6250300000001
 31
0.0
  0
LINE
  5
8B9E
330
18
100
AcDbEntity
  8
DRAW2
100
AcDbLine
 10
49.52497558242185
 20
314.0000300000001
 30
0.0
 11
49.52497558242185
 21
306.0000300000001
 31
0.0
  0
LINE
  5
8B9F
330
18
100
AcDbEntity
  8
DRAW2
100
AcDbLine
 10
78.89997558242185
 20
262.4999999999995
 30
0.0
 11
77.29996948242187
 21
262.4999999999995
 31
0.0
  0
LINE
  5
8BA0
330
18
100
AcDbEntity
  8
DRAW2
100
AcDbLine
 10
78.89997558242185
 20
270.2499999999995
 30
0.0
 11
77.29996948242187
 21
270.2499999999995
 31
0.0
  0
LINE
  5
8BA1
330
18
100
AcDbEntity
  8
DRAW2
100
AcDbLine
 10
78.89997558242185
 20
269.7499999999995
 30
0.0
 11
77.29996948242187
 21
269.7499999999995
 31
0.0
  0
LINE
  5
8BA2
330
18
100
AcDbEntity
  8
DRAW2
100
AcDbLine
 10
78.89997558242185
 20
277.4999999999995
 30
0.0
 11
77.29996948242187
 21
277.4999999999995
 31
0.0
  0
LINE
  5
8BA3
330
18
100
AcDbEntity
  8
DRAW2
100
AcDbLine
 10
84.39997558242184
 20
276.4999999999995
 30
0.0
 11
84.39997558242184
 21
263.4999999999995
 31
0.0
  0
LINE
  5
8BA4
330
18
100
AcDbEntity
  8
DRAW2
100
AcDbLine
 10
78.89997558242185
 20
277.4999999999995
 30
0.0
 11
78.89997558242185
 21
262.4999999999995
 31
0.0
  0
ARC
  5
8BA5
330
18
100
AcDbEntity
  8
DRAW2
100
AcDbCircle
 10
75.01250918242185
 20
266.7499999999995
 30
0.0
 40
9.3874664
100
AcDbArc
 50
339.7445510000013
 51
20.25546999999884
  0
LINE
  5
8BA7
330
18
100
AcDbEntity
  8
DRAW2
100
AcDbLine
 10
84.39997558242184
 20
263.4999999999995
 30
0.0
 11
78.89997558242185
 21
263.4999999999995
 31
0.0
  0
ARC
  5
8BA9
330
18
100
AcDbEntity
  8
DRAW2
100
AcDbCircle
 10
75.01250918242185
 20
273.2499999999995
 30
0.0
 40
9.3874664
100
AcDbArc
 50
339.7445510000013
 51
20.25546999999884
  0
LINE
  5
8BAB
330
18
100
AcDbEntity
  8
DRAW2
100
AcDbLine
 10
83.81943968242188
 20
269.9999999999995
 30
0.0
 11
78.89997558242185
 21
269.9999999999995
 31
0.0
  0
LINE
  5
8BAE
330
18
100
AcDbEntity
  8
DRAW2
100
AcDbLine
 10
84.39997558242184
 20
276.4999999999995
 30
0.0
 11
78.89997558242185
 21
276.4999999999995
 31
0.0
  0
LINE
  5
8BAF
330
18
100
AcDbEntity
  8
DRAW2
100
AcDbLine
 10
77.29996948242187
 20
277.4999999999995
 30
0.0
 11
77.29996948242187
 21
262.4999999999995
 31
0.0
  0
LINE
  5
8BB0
330
18
100
AcDbEntity
  8
DRAW2
100
AcDbLine
 10
49.52497558242185
 20
274.0000299999999
 30
0.0
 11
49.52497558242185
 21
266.0000299999999
 31
0.0
  0
LINE
  5
8BB1
330
18
100
AcDbEntity
  8
DRAW2
100
AcDbLine
 10
48.89997558242185
 20
273.3750299999999
 30
0.0
 11
48.89997558242185
 21
266.6250299999999
 31
0.0
  0
LINE
  5
8BB2
330
18
100
AcDbEntity
  8
DRAW2
100
AcDbLine
 10
49.52497558242185
 20
266.0000299999999
 30
0.0
 11
54.50000061094761
 21
266.0000300000001
 31
0.0
  0
LINE
  5
8BB3
330
18
100
AcDbEntity
  8
DRAW3
100
AcDbLine
 10
48.89997558242185
 20
266.6250299999999
 30
0.0
 11
54.50000061094761
 21
266.6250299999999
 31
0.0
  0
LINE
  5
8BB4
330
18
100
AcDbEntity
  8
DRAW2
100
AcDbLine
 10
48.89991558242177
 20
266.6250299999999
 30
0.0
 11
49.52491558242177
 21
266.0000299999999
 31
0.0
  0
LINE
  5
8BB5
330
18
100
AcDbEntity
  8
DRAW3
100
AcDbLine
 10
48.89997558242185
 20
273.3750299999999
 30
0.0
 11
54.50000061094761
 21
273.37503
 31
0.0
  0
LINE
  5
8BB6
330
18
100
AcDbEntity
  8
DRAW2
100
AcDbLine
 10
49.52497558242185
 20
274.0000299999999
 30
0.0
 11
54.50000061094761
 21
274.0000300000001
 31
0.0
  0
LINE
  5
8BB7
330
18
100
AcDbEntity
  8
DRAW2
100
AcDbLine
 10
49.52491558242177
 20
274.0000299999999
 30
0.0
 11
48.89985558242192
 21
273.3750299999999
 31
0.0
  0
LINE
  5
8DD2
330
18
100
AcDbEntity
  8
DRAW2
100
AcDbLine
 10
122.2999150000001
 20
-151.0
 30
0.0
 11
119.9999550000001
 21
-151.0
 31
0.0
  0
LINE
  5
8DD3
330
18
100
AcDbEntity
  8
DRAW2
100
AcDbLine
 10
74.59990500000019
 20
-151.0
 30
0.0
 11
72.29991500000024
 21
-151.0
 31
0.0
  0
LINE
  5
8DD4
330
18
100
AcDbEntity
  8
DRAW2
100
AcDbLine
 10
-72.29996500000016
 20
-151.0
 30
0.0
 11
-74.59989500000029
 21
-151.0
 31
0.0
  0
LINE
  5
8DD5
330
18
100
AcDbEntity
  8
DRAW2
100
AcDbLine
 10
-119.9999750000001
 20
-151.0
 30
0.0
 11
-122.2999650000001
 21
-151.0
 31
0.0
  0
LINE
  5
8DE8
330
18
100
AcDbEntity
  8
DRAW2
100
AcDbLine
 10
-32.5
 20
295.0
 30
0.0
 11
-17.5
 21
294.9999999999999
 31
0.0
  0
LINE
  5
8DE9
330
18
100
AcDbEntity
  8
DRAW2
100
AcDbLine
 10
-24.75
 20
293.3999938999999
 30
0.0
 11
-24.75
 21
294.9999999999999
 31
0.0
  0
LINE
  5
8DEA
330
18
100
AcDbEntity
  8
DRAW2
100
AcDbLine
 10
-25.25
 20
293.3999938999999
 30
0.0
 11
-25.25
 21
294.9999999999999
 31
0.0
  0
LINE
  5
8DEB
330
18
100
AcDbEntity
  8
DRAW2
100
AcDbLine
 10
-32.5
 20
293.3999939
 30
0.0
 11
-32.5
 21
295.0
 31
0.0
  0
LINE
  5
8DEC
330
18
100
AcDbEntity
  8
DRAW2
100
AcDbLine
 10
-17.5
 20
293.3999938999999
 30
0.0
 11
-17.5
 21
294.9999999999999
 31
0.0
  0
LINE
  5
8DED
330
18
100
AcDbEntity
  8
DRAW2
100
AcDbLine
 10
-17.49444579999999
 20
293.3999938999999
 30
0.0
 11
-32.5055542
 21
293.3999939
 31
0.0
  0
LINE
  5
8DF1
330
18
100
AcDbEntity
  8
DRAW2
100
AcDbLine
 10
-18.5
 20
286.899994
 30
0.0
 11
-31.5
 21
286.899994
 31
0.0
  0
ARC
  5
8DF2
330
18
100
AcDbEntity
  8
DRAW2
100
AcDbCircle
 10
-21.75
 20
296.2874603299999
 30
0.0
 40
9.3874664
100
AcDbArc
 50
249.7445510000003
 51
290.2554700000005
  0
LINE
  5
8DF5
330
18
100
AcDbEntity
  8
DRAW2
100
AcDbLine
 10
-18.5
 20
286.899994
 30
0.0
 11
-18.5
 21
293.3999939
 31
0.0
  0
LINE
  5
8DF8
330
18
100
AcDbEntity
  8
DRAW2
100
AcDbLine
 10
-25.0
 20
287.4805298
 30
0.0
 11
-25.0
 21
293.3999939
 31
0.0
  0
LINE
  5
8DF9
330
18
100
AcDbEntity
  8
DRAW2
100
AcDbLine
 10
-31.5
 20
286.899994
 30
0.0
 11
-31.5
 21
293.3999939
 31
0.0
  0
ARC
  5
8E01
330
18
100
AcDbEntity
  8
DRAW2
100
AcDbCircle
 10
-28.25
 20
296.2874603299999
 30
0.0
 40
9.3874664
100
AcDbArc
 50
249.7445510000003
 51
290.2554700000005
  0
LINE
  5
8E02
330
18
100
AcDbEntity
  8
DRAW2
100
AcDbLine
 10
17.5
 20
295.0
 30
0.0
 11
32.5
 21
294.9999999999999
 31
0.0
  0
LINE
  5
8E03
330
18
100
AcDbEntity
  8
DRAW2
100
AcDbLine
 10
32.5055542
 20
293.3999938999999
 30
0.0
 11
17.49444579999999
 21
293.3999939
 31
0.0
  0
ARC
  5
8E04
330
18
100
AcDbEntity
  8
DRAW2
100
AcDbCircle
 10
28.25
 20
296.2874603299999
 30
0.0
 40
9.3874664
100
AcDbArc
 50
249.7445510000003
 51
290.2554700000005
  0
LINE
  5
8E05
330
18
100
AcDbEntity
  8
DRAW2
100
AcDbLine
 10
31.5
 20
286.899994
 30
0.0
 11
18.5
 21
286.899994
 31
0.0
  0
LINE
  5
8E06
330
18
100
AcDbEntity
  8
DRAW2
100
AcDbLine
 10
18.5
 20
286.899994
 30
0.0
 11
18.5
 21
293.3999939
 31
0.0
  0
LINE
  5
8E07
330
18
100
AcDbEntity
  8
DRAW2
100
AcDbLine
 10
25.0
 20
287.4805298
 30
0.0
 11
25.0
 21
293.3999939
 31
0.0
  0
ARC
  5
8E08
330
18
100
AcDbEntity
  8
DRAW2
100
AcDbCircle
 10
21.75
 20
296.2874603299999
 30
0.0
 40
9.3874664
100
AcDbArc
 50
249.7445510000003
 51
290.2554700000005
  0
LINE
  5
8E09
330
18
100
AcDbEntity
  8
DRAW2
100
AcDbLine
 10
17.5
 20
293.3999939
 30
0.0
 11
17.5
 21
295.0
 31
0.0
  0
LINE
  5
8E0A
330
18
100
AcDbEntity
  8
DRAW2
100
AcDbLine
 10
24.75
 20
293.3999938999999
 30
0.0
 11
24.75
 21
294.9999999999999
 31
0.0
  0
LINE
  5
8E0B
330
18
100
AcDbEntity
  8
DRAW2
100
AcDbLine
 10
25.25
 20
293.3999938999999
 30
0.0
 11
25.25
 21
294.9999999999999
 31
0.0
  0
LINE
  5
8E0C
330
18
100
AcDbEntity
  8
DRAW2
100
AcDbLine
 10
31.5
 20
286.899994
 30
0.0
 11
31.5
 21
293.3999939
 31
0.0
  0
LINE
  5
8E0D
330
18
100
AcDbEntity
  8
DRAW2
100
AcDbLine
 10
32.5
 20
293.3999938999999
 30
0.0
 11
32.5
 21
294.9999999999999
 31
0.0
  0
LINE
  5
9573
330
18
100
AcDbEntity
  8
DRAW2
100
AcDbLine
 10
371.75
 20
-143.0
 30
0.0
 11
388.25
 21
-143.0
 31
0.0
  0
LINE
  5
9574
330
18
100
AcDbEntity
  8
DRAW2
100
AcDbLine
 10
374.0
 20
-135.0
 30
0.0
 11
386.0
 21
-135.0
 31
0.0
  0
LINE
  5
9575
330
18
100
AcDbEntity
  8
DRAW2
100
AcDbLine
 10
371.2499999999999
 20
-142.0
 30
0.0
 11
388.75
 21
-142.0
 31
0.0
  0
ARC
  5
9576
330
18
100
AcDbEntity
  8
DRAW2
100
AcDbCircle
 10
383.0
 20
-149.0773239
 30
0.0
 40
8.665037199999998
100
AcDbArc
 50
69.74377900000053
 51
110.2562400000013
  0
ARC
  5
9577
330
18
100
AcDbEntity
  8
DRAW2
100
AcDbCircle
 10
383.0
 20
-143.66503906
 30
0.0
 40
8.665037199999998
100
AcDbArc
 50
69.74377900000053
 51
110.2562400000013
  0
LINE
  5
9578
330
18
100
AcDbEntity
  8
DRAW2
100
AcDbLine
 10
380.0
 20
-135.5359019999999
 30
0.0
 11
380.0
 21
-140.9481849999999
 31
0.0
  0
LINE
  5
9579
330
18
100
AcDbEntity
  8
DRAW2
100
AcDbLine
 10
374.0
 20
-135.0
 30
0.0
 11
374.0
 21
-140.9481849999999
 31
0.0
  0
ARC
  5
957A
330
18
100
AcDbEntity
  8
DRAW2
100
AcDbCircle
 10
377.0
 20
-149.0773239
 30
0.0
 40
8.665037199999998
100
AcDbArc
 50
69.74377900000053
 51
110.2562400000013
  0
LINE
  5
957B
330
18
100
AcDbEntity
  8
DRAW2
100
AcDbLine
 10
371.2499999999999
 20
-142.0
 30
0.0
 11
371.2499999999999
 21
-142.5
 31
0.0
  0
ARC
  5
957C
330
18
100
AcDbEntity
  8
DRAW2
100
AcDbCircle
 10
371.75
 20
-142.5
 30
0.0
 40
0.5
100
AcDbArc
 50
179.9999799999996
 51
270.0000299999997
  0
LINE
  5
957D
330
18
100
AcDbEntity
  8
DRAW2
100
AcDbLine
 10
371.2499989999999
 20
-142.0000018499999
 30
0.0
 11
373.999999
 21
-140.4122886999999
 31
0.0
  0
ARC
  5
957E
330
18
100
AcDbEntity
  8
DRAW2
100
AcDbCircle
 10
377.0
 20
-143.66503906
 30
0.0
 40
8.665037199999998
100
AcDbArc
 50
69.74377900000053
 51
110.2562400000013
  0
LINE
  5
957F
330
18
100
AcDbEntity
  8
DRAW2
100
AcDbLine
 10
386.0
 20
-135.0
 30
0.0
 11
386.0
 21
-140.9481849999999
 31
0.0
  0
LINE
  5
9580
330
18
100
AcDbEntity
  8
DRAW2
100
AcDbLine
 10
386.000001
 20
-140.4122886999999
 30
0.0
 11
388.750001
 21
-142.0000018499999
 31
0.0
  0
LINE
  5
9581
330
18
100
AcDbEntity
  8
DRAW2
100
AcDbLine
 10
388.75
 20
-142.0
 30
0.0
 11
388.75
 21
-142.5
 31
0.0
  0
ARC
  5
9582
330
18
100
AcDbEntity
  8
DRAW2
100
AcDbCircle
 10
388.25
 20
-142.5
 30
0.0
 40
0.5
100
AcDbArc
 50
270.0000199999987
 51
0.0
  0
LINE
  5
9584
330
18
100
AcDbEntity
  8
DRAW2
100
AcDbLine
 10
511.7499999999999
 20
-143.0
 30
0.0
 11
528.2499999999999
 21
-143.0
 31
0.0
  0
LINE
  5
9585
330
18
100
AcDbEntity
  8
DRAW2
100
AcDbLine
 10
514.0
 20
-135.0
 30
0.0
 11
526.0
 21
-135.0
 31
0.0
  0
LINE
  5
9586
330
18
100
AcDbEntity
  8
DRAW2
100
AcDbLine
 10
511.2499999999999
 20
-142.0
 30
0.0
 11
528.75
 21
-142.0
 31
0.0
  0
ARC
  5
9587
330
18
100
AcDbEntity
  8
DRAW2
100
AcDbCircle
 10
523.0
 20
-149.0773239
 30
0.0
 40
8.665037199999998
100
AcDbArc
 50
69.74377900000053
 51
110.2562400000013
  0
ARC
  5
9588
330
18
100
AcDbEntity
  8
DRAW2
100
AcDbCircle
 10
523.0
 20
-143.66503906
 30
0.0
 40
8.665037199999998
100
AcDbArc
 50
69.74377900000053
 51
110.2562400000013
  0
LINE
  5
9589
330
18
100
AcDbEntity
  8
DRAW2
100
AcDbLine
 10
520.0
 20
-135.5359019999999
 30
0.0
 11
520.0
 21
-140.9481849999999
 31
0.0
  0
LINE
  5
958A
330
18
100
AcDbEntity
  8
DRAW2
100
AcDbLine
 10
514.0
 20
-135.0
 30
0.0
 11
514.0
 21
-140.9481849999999
 31
0.0
  0
ARC
  5
958B
330
18
100
AcDbEntity
  8
DRAW2
100
AcDbCircle
 10
517.0
 20
-149.0773239
 30
0.0
 40
8.665037199999998
100
AcDbArc
 50
69.74377900000053
 51
110.2562400000013
  0
LINE
  5
958C
330
18
100
AcDbEntity
  8
DRAW2
100
AcDbLine
 10
511.2499999999999
 20
-142.0
 30
0.0
 11
511.2499999999999
 21
-142.5
 31
0.0
  0
ARC
  5
958D
330
18
100
AcDbEntity
  8
DRAW2
100
AcDbCircle
 10
511.7499999999999
 20
-142.5
 30
0.0
 40
0.5
100
AcDbArc
 50
179.9999799999996
 51
270.0000300000029
  0
LINE
  5
958E
330
18
100
AcDbEntity
  8
DRAW2
100
AcDbLine
 10
511.2499989999999
 20
-142.0000018499999
 30
0.0
 11
513.9999989999999
 21
-140.4122886999999
 31
0.0
  0
ARC
  5
958F
330
18
100
AcDbEntity
  8
DRAW2
100
AcDbCircle
 10
517.0
 20
-143.66503906
 30
0.0
 40
8.665037199999998
100
AcDbArc
 50
69.74377900000053
 51
110.2562400000013
  0
LINE
  5
9590
330
18
100
AcDbEntity
  8
DRAW2
100
AcDbLine
 10
526.0
 20
-135.0
 30
0.0
 11
526.0
 21
-140.9481849999999
 31
0.0
  0
LINE
  5
9591
330
18
100
AcDbEntity
  8
DRAW2
100
AcDbLine
 10
526.0000009999999
 20
-140.4122886999999
 30
0.0
 11
528.750001
 21
-142.0000018499999
 31
0.0
  0
LINE
  5
9592
330
18
100
AcDbEntity
  8
DRAW2
100
AcDbLine
 10
528.75
 20
-142.0
 30
0.0
 11
528.75
 21
-142.5
 31
0.0
  0
ARC
  5
9593
330
18
100
AcDbEntity
  8
DRAW2
100
AcDbCircle
 10
528.2499999999999
 20
-142.5
 30
0.0
 40
0.5
100
AcDbArc
 50
270.0000200000019
 51
0.0
  0
VIEWPORT
  5
BD5
330
15
100
AcDbEntity
 67
     1
  8
0
100
AcDbViewport
 10
296.9950122070312
 20
209.9950000476836
 30
0.0
 40
610.5791454797595
 41
423.157894736842
 68
     1
 69
     1
 12
296.9950122070312
 22
209.9950000476836
 13
0.0
 23
0.0
 14
10.0
 24
10.0
 15
10.0
 25
10.0
 16
0.0
 26
0.0
 36
1.0
 17
0.0
 27
0.0
 37
0.0
 42
50.0
 43
0.0
 44
0.0
 45
423.157894736842
 50
0.0
 51
0.0
 72
   100
 90
    32768
  1

281
     0
 71
     1
 74
     0
110
0.0
120
0.0
130
0.0
111
1.0
121
0.0
131
0.0
112
0.0
122
1.0
132
0.0
 79
     0
146
0.0
  0
ENDSEC
  0
SECTION
  2
OBJECTS
  0
DICTIONARY
  5
C
330
0
100
AcDbDictionary
281
     1
  3
ACAD_GROUP
350
D
  3
ACAD_LAYOUT
350
2C4D
  3
ACAD_MLINESTYLE
350
E
  3
ACAD_PLOTSETTINGS
350
2C4E
  3
ACAD_PLOTSTYLENAME
350
2C4B
  0
DICTIONARY
  5
2D04
330
2
100
AcDbDictionary
280
     1
281
     1
  3
ACAD_LAYERFILTERS
360
2D05
  0
DICTIONARY
  5
D
102
{ACAD_REACTORS
330
C
102
}
330
C
100
AcDbDictionary
281
     1
  3
*A1
350
8639
  0
DICTIONARY
  5
2C4D
102
{ACAD_REACTORS
330
C
102
}
330
C
100
AcDbDictionary
281
     1
  3
Model
350
2C4F
  3
ﾚｲｱｳﾄ1
350
2C50
  0
DICTIONARY
  5
E
102
{ACAD_REACTORS
330
C
102
}
330
C
100
AcDbDictionary
281
     1
  3
STANDARD
350
1B
  0
DICTIONARY
  5
2C4E
102
{ACAD_REACTORS
330
C
102
}
330
C
100
AcDbDictionary
281
     1
  3
AdobePDF_A2
350
2C56
  0
ACDBDICTIONARYWDFLT
  5
2C4B
102
{ACAD_REACTORS
330
C
102
}
330
C
100
AcDbDictionary
281
     1
  3
Normal
350
2C4C
100
AcDbDictionaryWithDefault
340
2C4C
  0
DICTIONARY
  5
2D05
102
{ACAD_REACTORS
330
2D04
102
}
330
2D04
100
AcDbDictionary
280
     1
281
     1
  3
0 画層
360
2D06
  3
06
360
2D07
  3
06siki
360
2D08
  3
06siki2
360
2D09
  3
2
360
2D0A
  3
A 画層
360
2D0B
  3
aaa
360
2D0C
  3
B 画層
360
2D0D
  3
E 画層
360
2D0E
  3
H 画層
360
2D0F
  3
L 画層
360
2D10
  3
sekkei
360
2D11
  3
一般画層
360
2D12
  3
開発画層
360
2D13
  3
外構一般画層
360
2D14
  3
建築一般画層
360
2D15
  3
座席のみ
360
2D16
  3
詳細一般画層
360
2D17
  3
全階平面図
360
2D18
  0
GROUP
  5
8639
102
{ACAD_REACTORS
330
D
102
}
330
D
100
AcDbGroup
300

 70
     1
 71
     1
  0
LAYOUT
  5
2C4F
102
{ACAD_REACTORS
330
2C4D
102
}
330
2C4D
100
AcDbPlotSettings
  1

  2
Acrobat Distiller
  4

  6

 40
0.0
 41
0.0
 42
0.0
 43
0.0
 44
0.0
 45
0.0
 46
0.0
 47
0.0
 48
0.0
 49
0.0
140
0.0
141
0.0
142
1.0
143
1.0
 70
  1712
 72
     0
 73
     0
 74
     0
  7

 75
     0
147
1.0
148
0.0
149
0.0
100
AcDbLayout
  1
Model
 70
     1
 71
     0
 10
0.0
 20
0.0
 11
12.0
 21
9.0
 12
0.0
 22
0.0
 32
0.0
 14
0.0
 24
0.0
 34
0.0
 15
0.0
 25
0.0
 35
0.0
146
0.0
 13
0.0
 23
0.0
 33
0.0
 16
1.0
 26
0.0
 36
0.0
 17
0.0
 27
1.0
 37
0.0
 76
     0
330
18
  0
LAYOUT
  5
2C50
102
{ACAD_REACTORS
330
2C4D
102
}
330
2C4D
100
AcDbPlotSettings
  1
AdobePDF_A2
  2
Adobe PDF
  4
User66
  6
A1
 40
3.174999952316284
 41
3.174999952316284
 42
3.17498779296875
 43
3.17498779296875
 44
420.0
 45
594.0
 46
-3.169999999999999
 47
-3.169999999999999
 48
0.0
 49
0.0
140
594.0
141
420.0
142
1.0
143
1.0
 70
   692
 72
     1
 73
     1
 74
     4
  7
LineScale_10.ctb
 75
    16
147
1.0
148
0.0
149
0.0
100
AcDbLayout
  1
ﾚｲｱｳﾄ1
 70
     1
 71
     1
 10
-0.0049877929687501
 20
-0.0049999523162843
 11
593.9950122070312
 21
419.9950000476837
 12
0.0
 22
0.0
 32
0.0
 14
1.000000000000000E+20
 24
1.000000000000000E+20
 34
1.000000000000000E+20
 15
-1.000000000000000E+20
 25
-1.000000000000000E+20
 35
-1.000000000000000E+20
146
0.0
 13
0.0
 23
0.0
 33
0.0
 16
1.0
 26
0.0
 36
0.0
 17
0.0
 27
1.0
 37
0.0
 76
     0
330
15
331
BD5
  0
MLINESTYLE
  5
1B
102
{ACAD_REACTORS
330
E
102
}
330
E
100
AcDbMlineStyle
  2
STANDARD
 70
     0
  3

 62
     0
 51
90.0
 52
90.0
 71
     2
 49
0.5
 62
   256
  6
BYLAYER
 49
-0.5
 62
   256
  6
BYLAYER
  0
PLOTSETTINGS
  5
2C56
102
{ACAD_REACTORS
330
2C4E
102
}
330
2C4E
100
AcDbPlotSettings
  1
AdobePDF_A2
  2
Adobe PDF
  4
User66
  6
A1
 40
3.174999952316284
 41
3.174999952316284
 42
3.17498779296875
 43
3.17498779296875
 44
420.0
 45
594.0
 46
-3.169999999999999
 47
-3.169999999999999
 48
0.0
 49
0.0
140
594.0
141
420.0
142
1.0
143
1.0
 70
   692
 72
     1
 73
     1
 74
     4
  7
LineScale_10.ctb
 75
    16
147
1.0
148
0.0
149
0.0
  0
ACDBPLACEHOLDER
  5
2C4C
102
{ACAD_REACTORS
330
2C4B
102
}
330
2C4B
  0
XRECORD
  5
2D06
102
{ACAD_REACTORS
330
2D05
102
}
330
2D05
100
AcDbXrecord
280
     1
  1
0 画層
  1
0*,*.
  1
*
  1
*
 70
     0
  1
*
  1
*
  0
XRECORD
  5
2D07
102
{ACAD_REACTORS
330
2D05
102
}
330
2D05
100
AcDbXrecord
280
     1
  1
06
  1
06*
  1
*
  1
*
 70
     0
  1
*
  1
*
  0
XRECORD
  5
2D08
102
{ACAD_REACTORS
330
2D05
102
}
330
2D05
100
AcDbXrecord
280
     1
  1
06siki
  1
06*siki*,sikiti,00waku,*|*
  1
*
  1
*
 70
     0
  1
*
  1
*
  0
XRECORD
  5
2D09
102
{ACAD_REACTORS
330
2D05
102
}
330
2D05
100
AcDbXrecord
280
     1
  1
06siki2
  1
06*siki*,sikiti,00waku,*|*
  1
*
  1
*
 70
     0
  1
*
  1
*
  0
XRECORD
  5
2D0A
102
{ACAD_REACTORS
330
2D05
102
}
330
2D05
100
AcDbXrecord
280
     1
  1
2
  1
2*
  1
*
  1
*
 70
     0
  1
*
  1
*
  0
XRECORD
  5
2D0B
102
{ACAD_REACTORS
330
2D05
102
}
330
2D05
100
AcDbXrecord
280
     1
  1
A 画層
  1
A*,*.
  1
*
  1
*
 70
     0
  1
*
  1
*
  0
XRECORD
  5
2D0C
102
{ACAD_REACTORS
330
2D05
102
}
330
2D05
100
AcDbXrecord
280
     1
  1
aaa
  1
*moji*
  1
*
  1
*
 70
     0
  1
*
  1
*
  0
XRECORD
  5
2D0D
102
{ACAD_REACTORS
330
2D05
102
}
330
2D05
100
AcDbXrecord
280
     1
  1
B 画層
  1
B*,*.
  1
*
  1
*
 70
     0
  1
*
  1
*
  0
XRECORD
  5
2D0E
102
{ACAD_REACTORS
330
2D05
102
}
330
2D05
100
AcDbXrecord
280
     1
  1
E 画層
  1
E*,*.
  1
*
  1
*
 70
     0
  1
*
  1
*
  0
XRECORD
  5
2D0F
102
{ACAD_REACTORS
330
2D05
102
}
330
2D05
100
AcDbXrecord
280
     1
  1
H 画層
  1
H*,*.
  1
*
  1
*
 70
     0
  1
*
  1
*
  0
XRECORD
  5
2D10
102
{ACAD_REACTORS
330
2D05
102
}
330
2D05
100
AcDbXrecord
280
     1
  1
L 画層
  1
L*,*.
  1
*
  1
*
 70
     0
  1
*
  1
*
  0
XRECORD
  5
2D11
102
{ACAD_REACTORS
330
2D05
102
}
330
2D05
100
AcDbXrecord
280
     1
  1
sekkei
  1
34
  1
*
  1
*
 70
     0
  1
*
  1
*
  0
XRECORD
  5
2D12
102
{ACAD_REACTORS
330
2D05
102
}
330
2D05
100
AcDbXrecord
280
     1
  1
一般画層
  1
.*
  1
*
  1
*
 70
     0
  1
*
  1
*
  0
XRECORD
  5
2D13
102
{ACAD_REACTORS
330
2D05
102
}
330
2D05
100
AcDbXrecord
280
     1
  1
開発画層
  1
L*,B*
  1
*
  1
*
 70
     0
  1
*
  1
*
  0
XRECORD
  5
2D14
102
{ACAD_REACTORS
330
2D05
102
}
330
2D05
100
AcDbXrecord
280
     1
  1
外構一般画層
  1
L*,B*
  1
*
  1
*
 70
     0
  1
*
  1
*
  0
XRECORD
  5
2D15
102
{ACAD_REACTORS
330
2D05
102
}
330
2D05
100
AcDbXrecord
280
     1
  1
建築一般画層
  1
B*,A*
  1
*
  1
*
 70
     0
  1
*
  1
*
  0
XRECORD
  5
2D16
102
{ACAD_REACTORS
330
2D05
102
}
330
2D05
100
AcDbXrecord
280
     1
  1
座席のみ
  1
*
  1
*
  1
*
 70
     0
  1
*
  1
*
  0
XRECORD
  5
2D17
102
{ACAD_REACTORS
330
2D05
102
}
330
2D05
100
AcDbXrecord
280
     1
  1
詳細一般画層
  1
B*,A*,D*
  1
*
  1
*
 70
     0
  1
*
  1
*
  0
XRECORD
  5
2D18
102
{ACAD_REACTORS
330
2D05
102
}
330
2D05
100
AcDbXrecord
280
     1
  1
全階平面図
  1
*
  1
*
  1
*
 70
     0
  1
*
  1
*
  0
ENDSEC
  0
EOF
