  0
SECTION
  2
HEADER
  9
$ACADVER
  1
AC1015
  9
$ACADMAINTVER
 70
     6
  9
$DWGCODEPAGE
  3
ANSI_932
  9
$INSBASE
 10
0.0
 20
0.0
 30
0.0
  9
$EXTMIN
 10
937.8033459844695
 20
23.41139680328865
 30
-0.0015258207003583
  9
$EXTMAX
 10
1506.348883716377
 20
673.9157407659493
 30
0.0000000349246037
  9
$LIMMIN
 10
0.0
 20
0.0
  9
$LIMMAX
 10
841.0
 20
594.0
  9
$ORTHOMODE
 70
     1
  9
$REGENMODE
 70
     1
  9
$FILLMODE
 70
     1
  9
$QTEXTMODE
 70
     0
  9
$MIRRTEXT
 70
     0
  9
$LTSCALE
 40
7.0
  9
$ATTMODE
 70
     1
  9
$TEXTSIZE
 40
3.2
  9
$TRACEWID
 40
0.05
  9
$TEXTSTYLE
  7
DIMFONT
  9
$CLAYER
  8
DRAW2
  9
$CELTYPE
  6
BYLAYER
  9
$CECOLOR
 62
   256
  9
$CELTSCALE
 40
1.0
  9
$DISPSILH
 70
     0
  9
$DIMSCALE
 40
2.0
  9
$DIMASZ
 40
3.0
  9
$DIMEXO
 40
0.0
  9
$DIMDLI
 40
10.0
  9
$DIMRND
 40
0.0
  9
$DIMDLE
 40
0.0
  9
$DIMEXE
 40
1.0
  9
$DIMTP
 40
0.5
  9
$DIMTM
 40
0.0
  9
$DIMTXT
 40
3.2
  9
$DIMCEN
 40
0.0
  9
$DIMTSZ
 40
0.0
  9
$DIMTOL
 70
     0
  9
$DIMLIM
 70
     0
  9
$DIMTIH
 70
     0
  9
$DIMTOH
 70
     0
  9
$DIMSE1
 70
     0
  9
$DIMSE2
 70
     0
  9
$DIMTAD
 70
     3
  9
$DIMZIN
 70
     8
  9
$DIMBLK
  1

  9
$DIMASO
 70
     1
  9
$DIMSHO
 70
     1
  9
$DIMPOST
  1

  9
$DIMAPOST
  1

  9
$DIMALT
 70
     0
  9
$DIMALTD
 70
     2
  9
$DIMALTF
 40
25.4
  9
$DIMLFAC
 40
1.0
  9
$DIMTOFL
 70
     1
  9
$DIMTVP
 40
0.0
  9
$DIMTIX
 70
     0
  9
$DIMSOXD
 70
     0
  9
$DIMSAH
 70
     1
  9
$DIMBLK1
  1
OPEN
  9
$DIMBLK2
  1
OPEN
  9
$DIMSTYLE
  2
1_2
  9
$DIMCLRD
 70
     0
  9
$DIMCLRE
 70
     0
  9
$DIMCLRT
 70
     0
  9
$DIMTFAC
 40
0.75
  9
$DIMGAP
 40
1.0
  9
$DIMJUST
 70
     0
  9
$DIMSD1
 70
     0
  9
$DIMSD2
 70
     0
  9
$DIMTOLJ
 70
     1
  9
$DIMTZIN
 70
     8
  9
$DIMALTZ
 70
     0
  9
$DIMALTTZ
 70
     0
  9
$DIMUPT
 70
     0
  9
$DIMDEC
 70
     3
  9
$DIMTDEC
 70
     3
  9
$DIMALTU
 70
     2
  9
$DIMALTTD
 70
     2
  9
$DIMTXSTY
  7
DIMFONT
  9
$DIMAUNIT
 70
     0
  9
$DIMADEC
 70
     0
  9
$DIMALTRND
 40
0.0
  9
$DIMAZIN
 70
     0
  9
$DIMDSEP
 70
    46
  9
$DIMATFIT
 70
     3
  9
$DIMFRAC
 70
     0
  9
$DIMLDRBLK
  1
OPEN
  9
$DIMLUNIT
 70
     2
  9
$DIMLWD
 70
    -2
  9
$DIMLWE
 70
    -2
  9
$DIMTMOVE
 70
     0
  9
$LUNITS
 70
     2
  9
$LUPREC
 70
     4
  9
$SKETCHINC
 40
0.1
  9
$FILLETRAD
 40
0.0
  9
$AUNITS
 70
     0
  9
$AUPREC
 70
     4
  9
$MENU
  1
acad
  9
$ELEVATION
 40
0.0
  9
$PELEVATION
 40
0.0
  9
$THICKNESS
 40
0.0
  9
$LIMCHECK
 70
     0
  9
$CHAMFERA
 40
0.0
  9
$CHAMFERB
 40
0.0
  9
$CHAMFERC
 40
0.0
  9
$CHAMFERD
 40
0.0
  9
$SKPOLY
 70
     0
  9
$TDCREATE
 40
2451368.635549167
  9
$TDUCREATE
 40
2451368.260549167
  9
$TDUPDATE
 40
2454972.698852176
  9
$TDUUPDATE
 40
2454972.323852175
  9
$TDINDWG
 40
0.0725037847
  9
$TDUSRTIMER
 40
0.0725037847
  9
$USRTIMER
 70
     1
  9
$ANGBASE
 50
0.0
  9
$ANGDIR
 70
     0
  9
$PDMODE
 70
    35
  9
$PDSIZE
 40
0.5
  9
$PLINEWID
 40
0.0
  9
$SPLFRAME
 70
     0
  9
$SPLINETYPE
 70
     6
  9
$SPLINESEGS
 70
     8
  9
$HANDSEED
  5
270C
  9
$SURFTAB1
 70
     6
  9
$SURFTAB2
 70
     6
  9
$SURFTYPE
 70
     6
  9
$SURFU
 70
     6
  9
$SURFV
 70
     6
  9
$UCSBASE
  2

  9
$UCSNAME
  2

  9
$UCSORG
 10
0.0
 20
0.0
 30
0.0
  9
$UCSXDIR
 10
1.0
 20
0.0
 30
0.0
  9
$UCSYDIR
 10
0.0
 20
1.0
 30
0.0
  9
$UCSORTHOREF
  2

  9
$UCSORTHOVIEW
 70
     0
  9
$UCSORGTOP
 10
0.0
 20
0.0
 30
0.0
  9
$UCSORGBOTTOM
 10
0.0
 20
0.0
 30
0.0
  9
$UCSORGLEFT
 10
0.0
 20
0.0
 30
0.0
  9
$UCSORGRIGHT
 10
0.0
 20
0.0
 30
0.0
  9
$UCSORGFRONT
 10
0.0
 20
0.0
 30
0.0
  9
$UCSORGBACK
 10
0.0
 20
0.0
 30
0.0
  9
$PUCSBASE
  2

  9
$PUCSNAME
  2

  9
$PUCSORG
 10
0.0
 20
0.0
 30
0.0
  9
$PUCSXDIR
 10
1.0
 20
0.0
 30
0.0
  9
$PUCSYDIR
 10
0.0
 20
1.0
 30
0.0
  9
$PUCSORTHOREF
  2

  9
$PUCSORTHOVIEW
 70
     0
  9
$PUCSORGTOP
 10
0.0
 20
0.0
 30
0.0
  9
$PUCSORGBOTTOM
 10
0.0
 20
0.0
 30
0.0
  9
$PUCSORGLEFT
 10
0.0
 20
0.0
 30
0.0
  9
$PUCSORGRIGHT
 10
0.0
 20
0.0
 30
0.0
  9
$PUCSORGFRONT
 10
0.0
 20
0.0
 30
0.0
  9
$PUCSORGBACK
 10
0.0
 20
0.0
 30
0.0
  9
$USERI1
 70
     0
  9
$USERI2
 70
     0
  9
$USERI3
 70
     0
  9
$USERI4
 70
     0
  9
$USERI5
 70
     0
  9
$USERR1
 40
0.0
  9
$USERR2
 40
0.0
  9
$USERR3
 40
0.0
  9
$USERR4
 40
0.0
  9
$USERR5
 40
0.0
  9
$WORLDVIEW
 70
     1
  9
$SHADEDGE
 70
     3
  9
$SHADEDIF
 70
    70
  9
$TILEMODE
 70
     1
  9
$MAXACTVP
 70
    16
  9
$PINSBASE
 10
0.0
 20
0.0
 30
0.0
  9
$PLIMCHECK
 70
     0
  9
$PEXTMIN
 10
1.000000000000000E+20
 20
1.000000000000000E+20
 30
1.000000000000000E+20
  9
$PEXTMAX
 10
-1.000000000000000E+20
 20
-1.000000000000000E+20
 30
-1.000000000000000E+20
  9
$PLIMMIN
 10
-0.0049877929687501
 20
-0.0049999523162843
  9
$PLIMMAX
 10
593.9950122070312
 20
419.9950000476837
  9
$UNITMODE
 70
     0
  9
$VISRETAIN
 70
     0
  9
$PLINEGEN
 70
     1
  9
$PSLTSCALE
 70
     1
  9
$TREEDEPTH
 70
  3020
  9
$CMLSTYLE
  2
STANDARD
  9
$CMLJUST
 70
     0
  9
$CMLSCALE
 40
1.0
  9
$PROXYGRAPHICS
 70
     1
  9
$MEASUREMENT
 70
     1
  9
$CELWEIGHT
370
    -1
  9
$ENDCAPS
280
     0
  9
$JOINSTYLE
280
     0
  9
$LWDISPLAY
290
     0
  9
$INSUNITS
 70
     0
  9
$HYPERLINKBASE
  1

  9
$STYLESHEET
  1

  9
$XEDIT
290
     1
  9
$CEPSNTYPE
380
     0
  9
$PSTYLEMODE
290
     1
  9
$FINGERPRINTGUID
  2
{6301C0F0-BB09-4D2B-BC9C-7F1AFF56632F}
  9
$VERSIONGUID
  2
{13594F30-B9B6-437D-9D12-7D3C05BF7D83}
  9
$EXTNAMES
290
     1
  9
$PSVPSCALE
 40
0.0
  9
$OLESTARTUP
290
     0
  0
ENDSEC
  0
SECTION
  2
CLASSES
  0
CLASS
  1
ACDBDICTIONARYWDFLT
  2
AcDbDictionaryWithDefault
  3
AutoCAD 2000
 90
        0
280
     0
281
     0
  0
CLASS
  1
ACDBPLACEHOLDER
  2
AcDbPlaceHolder
  3
AutoCAD 2000
 90
        0
280
     0
281
     0
  0
CLASS
  1
LAYOUT
  2
AcDbLayout
  3
AutoCAD 2000
 90
        0
280
     0
281
     0
  0
CLASS
  1
PLOTSETTINGS
  2
AcDbPlotSettings
  3
AutoCAD 2000
 90
        0
280
     0
281
     0
  0
ENDSEC
  0
SECTION
  2
TABLES
  0
TABLE
  2
VPORT
  5
8
330
0
100
AcDbSymbolTable
 70
     2
  0
VPORT
  5
270B
330
8
100
AcDbSymbolTableRecord
100
AcDbViewportTableRecord
  2
*Active
 70
     0
 10
0.0
 20
0.0
 11
1.0
 21
1.0
 12
1222.076114850423
 22
348.6635687846189
 13
0.0
 23
0.0
 14
5.0
 24
5.0
 15
10.0
 25
10.0
 16
0.0
 26
0.0
 36
1.0
 17
0.0
 27
0.0
 37
0.0
 40
655.4511450574336
 41
1.493654822335025
 42
50.0
 43
0.0
 44
0.0
 50
0.0
 51
0.0
 71
     0
 72
   100
 73
     1
 74
     0
 75
     0
 76
     0
 77
     0
 78
     0
281
     0
 65
     1
110
0.0
120
0.0
130
0.0
111
1.0
121
0.0
131
0.0
112
0.0
122
1.0
132
0.0
 79
     0
146
0.0
  0
ENDTAB
  0
TABLE
  2
LTYPE
  5
5
330
0
100
AcDbSymbolTable
 70
     3
  0
LTYPE
  5
12
330
5
100
AcDbSymbolTableRecord
100
AcDbLinetypeTableRecord
  2
BYBLOCK
 70
     0
  3

 72
    65
 73
     0
 40
0.0
  0
LTYPE
  5
13
330
5
100
AcDbSymbolTableRecord
100
AcDbLinetypeTableRecord
  2
BYLAYER
 70
     0
  3

 72
    65
 73
     0
 40
0.0
  0
LTYPE
  5
14
330
5
100
AcDbSymbolTableRecord
100
AcDbLinetypeTableRecord
  2
CONTINUOUS
 70
     0
  3
Solid line
 72
    65
 73
     0
 40
0.0
  0
ENDTAB
  0
TABLE
  2
LAYER
  5
2
330
0
100
AcDbSymbolTable
 70
    10
  0
LAYER
  5
F
330
2
100
AcDbSymbolTableRecord
100
AcDbLayerTableRecord
  2
0
 70
     0
 62
     7
  6
CONTINUOUS
370
    -3
390
1400
  0
LAYER
  5
30
330
2
100
AcDbSymbolTableRecord
100
AcDbLayerTableRecord
  2
DRAW2
 70
     0
 62
     4
  6
CONTINUOUS
370
    -3
390
1400
  0
LAYER
  5
B93
330
2
100
AcDbSymbolTableRecord
100
AcDbLayerTableRecord
  2
DRAW3
 70
     0
 62
     1
  6
CONTINUOUS
370
    -3
390
1400
  0
LAYER
  5
11B5
330
2
100
AcDbSymbolTableRecord
100
AcDbLayerTableRecord
  2
DEFPOINTS
 70
     0
 62
     7
  6
CONTINUOUS
290
     0
370
    -3
390
1400
  0
ENDTAB
  0
TABLE
  2
STYLE
  5
3
330
0
100
AcDbSymbolTable
 70
     4
  0
STYLE
  5
10
330
3
100
AcDbSymbolTableRecord
100
AcDbTextStyleTableRecord
  2
STANDARD
 70
     0
 40
0.0
 41
1.0
 50
0.0
 71
     0
 42
0.2
  3
ROMANS.SHX
  4

  0
STYLE
  5
20
330
3
100
AcDbSymbolTableRecord
100
AcDbTextStyleTableRecord
  2
DIMFONT
 70
     0
 40
0.0
 41
1.0
 50
10.0
 71
     0
 42
3.2
  3
romans.shx
  4
extfont.shx
  0
ENDTAB
  0
TABLE
  2
VIEW
  5
6
330
0
100
AcDbSymbolTable
 70
     4
  0
VIEW
  5
24
330
6
100
AcDbSymbolTableRecord
100
AcDbViewTableRecord
  2
OLE1
 70
     0
 40
300.0
 10
232.1482602118003
 20
150.0
 41
464.2965204236006
 11
0.0
 21
0.0
 31
1.0
 12
0.0
 22
0.0
 32
0.0
 42
50.0
 43
0.0
 44
0.0
 50
0.0
 71
     0
281
     0
 72
     0
  0
VIEW
  5
E0E
330
6
100
AcDbSymbolTableRecord
100
AcDbViewTableRecord
  2
A1
 70
     1
 40
660.0
 10
511.7119266055046
 20
297.0
 41
1137.137614678899
 11
0.0
 21
0.0
 31
1.0
 12
0.0
 22
0.0
 32
0.0
 42
50.0
 43
0.0
 44
0.0
 50
0.0
 71
     0
281
     0
 72
     0
  0
VIEW
  5
E0F
330
6
100
AcDbSymbolTableRecord
100
AcDbViewTableRecord
  2
A2
 70
     1
 40
466.6666666666666
 10
361.8165137614679
 20
210.0
 41
804.0366972477063
 11
0.0
 21
0.0
 31
1.0
 12
0.0
 22
0.0
 32
0.0
 42
50.0
 43
0.0
 44
0.0
 50
0.0
 71
     0
281
     0
 72
     0
  0
VIEW
  5
E10
330
6
100
AcDbSymbolTableRecord
100
AcDbViewTableRecord
  2
A3
 70
     1
 40
330.0
 10
255.8559633027523
 20
148.5
 41
568.5688073394495
 11
0.0
 21
0.0
 31
1.0
 12
0.0
 22
0.0
 32
0.0
 42
50.0
 43
0.0
 44
0.0
 50
0.0
 71
     0
281
     0
 72
     0
  0
ENDTAB
  0
TABLE
  2
UCS
  5
7
330
0
100
AcDbSymbolTable
 70
     0
  0
ENDTAB
  0
TABLE
  2
APPID
  5
9
330
0
100
AcDbSymbolTable
 70
     1
  0
APPID
  5
11
330
9
100
AcDbSymbolTableRecord
100
AcDbRegAppTableRecord
  2
ACAD
 70
     0
  0
ENDTAB
  0
TABLE
  2
DIMSTYLE
  5
A
330
0
100
AcDbSymbolTable
 70
     2
100
AcDbDimStyleTable
 71
     1
340
BA1
  0
DIMSTYLE
105
BA1
102
{ACAD_REACTORS
330
1379
330
1D9A
330
1385
330
1D7B
330
1378
330
137A
330
1DD4
330
1377
330
1FA6
102
}
330
A
100
AcDbSymbolTableRecord
100
AcDbDimStyleTableRecord
  2
1_2
 70
     0
 40
2.0
 41
3.0
 42
0.0
 43
10.0
 44
1.0
 47
0.5
 73
     0
 74
     0
 77
     3
 78
     8
140
3.2
141
0.0
146
0.75
147
1.0
172
     1
173
     1
271
     3
272
     3
284
     8
340
20
341
E20
343
E20
344
E20
  0
DIMSTYLE
105
11B8
330
A
100
AcDbSymbolTableRecord
100
AcDbDimStyleTableRecord
  2
STANDARD
 70
     0
340
10
  0
ENDTAB
  0
TABLE
  2
BLOCK_RECORD
  5
1
330
0
100
AcDbSymbolTable
 70
    12
  0
BLOCK_RECORD
  5
18
330
1
100
AcDbSymbolTableRecord
100
AcDbBlockTableRecord
  2
*MODEL_SPACE
340
1403
  0
BLOCK_RECORD
  5
15
330
1
100
AcDbSymbolTableRecord
100
AcDbBlockTableRecord
  2
*PAPER_SPACE
340
1404
  0
BLOCK_RECORD
  5
E20
330
1
100
AcDbSymbolTableRecord
100
AcDbBlockTableRecord
  2
_OPEN
340
0
102
{BLKREFS
331
2058
331
2059
331
2649
331
264A
331
265B
331
265C
331
2676
331
2677
331
2688
331
2689
331
26A3
331
26A4
331
26BE
331
26BF
331
26C9
331
26CA
331
26D2
331
26D3
102
}
  0
ENDTAB
  0
ENDSEC
  0
SECTION
  2
BLOCKS
  0
BLOCK
  5
36
330
18
100
AcDbEntity
  8
0
100
AcDbBlockBegin
  2
*MODEL_SPACE
 70
     0
 10
0.0
 20
0.0
 30
0.0
  3
*MODEL_SPACE
  1

  0
ENDBLK
  5
37
330
18
100
AcDbEntity
  8
0
100
AcDbBlockEnd
  0
BLOCK
  5
34
330
15
100
AcDbEntity
 67
     1
  8
0
100
AcDbBlockBegin
  2
*PAPER_SPACE
 70
     0
 10
0.0
 20
0.0
 30
0.0
  3
*PAPER_SPACE
  1

  0
ENDBLK
  5
35
330
15
100
AcDbEntity
 67
     1
  8
0
100
AcDbBlockEnd
  0
BLOCK
  5
E24
330
E20
100
AcDbEntity
  8
0
100
AcDbBlockBegin
  2
_OPEN
 70
     0
 10
0.0
 20
0.0
 30
0.0
  3
_OPEN
  1

  0
LINE
  5
E21
330
E20
100
AcDbEntity
  8
0
  6
ByBlock
 62
     0
100
AcDbLine
 10
-1.0
 20
0.1666666666666666
 30
0.0
 11
0.0
 21
0.0
 31
0.0
  0
LINE
  5
E22
330
E20
100
AcDbEntity
  8
0
  6
ByBlock
 62
     0
100
AcDbLine
 10
0.0
 20
0.0
 30
0.0
 11
-1.0
 21
-0.1666666666666666
 31
0.0
  0
LINE
  5
E23
330
E20
100
AcDbEntity
  8
0
  6
ByBlock
 62
     0
100
AcDbLine
 10
0.0
 20
0.0
 30
0.0
 11
-1.0
 21
0.0
 31
0.0
  0
ENDBLK
  5
E25
330
E20
100
AcDbEntity
  8
0
100
AcDbBlockEnd
  0
ENDSEC
  0
SECTION
  2
ENTITIES
  0
LINE
  5
20FA
330
18
100
AcDbEntity
  8
DRAW2
100
AcDbLine
 10
1286.270931098739
 20
137.7476041636287
 30
0.0
 11
1506.270931098739
 21
137.7476041636287
 31
0.0
  0
LINE
  5
20FB
330
18
100
AcDbEntity
  8
DRAW2
100
AcDbLine
 10
1506.270931098739
 20
308.7476041636286
 30
0.0
 11
1286.270931098739
 21
308.7476041636286
 31
0.0
  0
LINE
  5
20FC
330
18
100
AcDbEntity
  8
DRAW2
100
AcDbLine
 10
1506.270931098739
 20
305.7476041636287
 30
0.0
 11
1286.270931098739
 21
305.7476041636287
 31
0.0
  0
LINE
  5
20FD
330
18
100
AcDbEntity
  8
DRAW2
100
AcDbLine
 10
1506.270931098739
 20
177.7476041636286
 30
0.0
 11
1286.270931098739
 21
177.7476041636286
 31
0.0
  0
LINE
  5
2100
330
18
100
AcDbEntity
  8
DRAW2
100
AcDbLine
 10
1506.270931098739
 20
82.24760416362869
 30
0.0
 11
1286.270931098739
 21
82.24760416362869
 31
0.0
  0
LINE
  5
2101
330
18
100
AcDbEntity
  8
DRAW2
100
AcDbLine
 10
1506.270931098739
 20
136.2476041636286
 30
0.0
 11
1286.270931098739
 21
136.2476041636286
 31
0.0
  0
LINE
  5
2102
330
18
100
AcDbEntity
  8
DRAW2
100
AcDbLine
 10
1506.270931098739
 20
79.24760416362869
 30
0.0
 11
1286.270931098739
 21
79.24760416362869
 31
0.0
  0
LINE
  5
2105
330
18
100
AcDbEntity
  8
DRAW2
100
AcDbLine
 10
1060.316859398475
 20
326.5929036252495
 30
0.0
 11
1060.316859398475
 21
382.3975841636286
 31
0.0
  0
LINE
  5
2106
330
18
100
AcDbEntity
  8
DRAW2
100
AcDbLine
 10
1035.316859398475
 20
326.5929036252494
 30
0.0
 11
1035.316859398475
 21
382.3976441636286
 31
0.0
  0
LINE
  5
210A
330
18
100
AcDbEntity
  8
DRAW2
100
AcDbLine
 10
1060.112759398475
 20
347.8975841636286
 30
0.0
 11
1050.066919398475
 21
347.8975841636286
 31
0.0
  0
LINE
  5
210B
330
18
100
AcDbEntity
  8
DRAW2
100
AcDbLine
 10
1060.112759398475
 20
330.3975841636286
 30
0.0
 11
1050.066859398475
 21
330.3975841636286
 31
0.0
  0
LINE
  5
210C
330
18
100
AcDbEntity
  8
DRAW2
100
AcDbLine
 10
1060.112699398475
 20
343.8977641636287
 30
0.0
 11
1050.066859398475
 21
343.8977641636287
 31
0.0
  0
LINE
  5
210D
330
18
100
AcDbEntity
  8
DRAW2
100
AcDbLine
 10
1060.112759398475
 20
340.8976441636287
 30
0.0
 11
1050.066979398475
 21
340.8976441636287
 31
0.0
  0
LINE
  5
210E
330
18
100
AcDbEntity
  8
DRAW2
100
AcDbLine
 10
1060.112699398475
 20
336.8977041636286
 30
0.0
 11
1050.066859398475
 21
336.8977041636286
 31
0.0
  0
LINE
  5
210F
330
18
100
AcDbEntity
  8
DRAW2
100
AcDbLine
 10
1060.112699398475
 20
333.8977041636286
 30
0.0
 11
1050.066859398475
 21
333.8977041636286
 31
0.0
  0
LINE
  5
2110
330
18
100
AcDbEntity
  8
DRAW2
100
AcDbLine
 10
1060.112759398475
 20
327.3975841636286
 30
0.0
 11
1058.92311182214
 21
327.3975841636286
 31
0.0
  0
LINE
  5
2111
330
18
100
AcDbEntity
  8
DRAW2
100
AcDbLine
 10
1035.316859398475
 20
305.7476041636287
 30
0.0
 11
1060.316859398475
 21
305.7476041636287
 31
0.0
  0
LINE
  5
2112
330
18
100
AcDbEntity
  8
DRAW2
100
AcDbLine
 10
1058.316859398475
 20
327.7476041636286
 30
0.0
 11
1060.316859398475
 21
326.5929036252494
 31
0.0
  0
LINE
  5
2113
330
18
100
AcDbEntity
  8
DRAW2
100
AcDbLine
 10
937.8168593984755
 20
308.7476041636286
 30
0.0
 11
1157.816859398475
 21
308.7476041636286
 31
0.0
  0
LINE
  5
2114
330
18
100
AcDbEntity
  8
DRAW2
100
AcDbLine
 10
937.8168593984755
 20
305.7476041636287
 30
0.0
 11
1157.816859398475
 21
305.7476041636287
 31
0.0
  0
LINE
  5
2115
330
18
100
AcDbEntity
  8
DRAW2
100
AcDbLine
 10
937.8168593984755
 20
177.7476041636286
 30
0.0
 11
1157.816859398475
 21
177.7476041636286
 31
0.0
  0
LINE
  5
2116
330
18
100
AcDbEntity
  8
DRAW2
100
AcDbLine
 10
937.8168593984755
 20
137.7476041636287
 30
0.0
 11
1157.816859398475
 21
137.7476041636287
 31
0.0
  0
CIRCLE
  5
2119
330
18
100
AcDbEntity
  8
DRAW3
100
AcDbCircle
 10
1047.816859398475
 20
109.2476041636286
 30
0.0
 40
12.0
  0
CIRCLE
  5
211A
330
18
100
AcDbEntity
  8
DRAW2
100
AcDbCircle
 10
1047.816859398475
 20
109.2476041636286
 30
0.0
 40
13.0
  0
LINE
  5
211C
330
18
100
AcDbEntity
  8
DRAW2
100
AcDbLine
 10
947.8169193984754
 20
26.24760416362869
 30
0.0
 11
1147.816859398475
 21
26.24760416362869
 31
0.0
  0
LINE
  5
211D
330
18
100
AcDbEntity
  8
DRAW2
100
AcDbLine
 10
937.8168593984755
 20
136.2476041636286
 30
0.0
 11
1157.816859398475
 21
136.2476041636286
 31
0.0
  0
LINE
  5
211E
330
18
100
AcDbEntity
  8
DRAW2
100
AcDbLine
 10
937.8168593984755
 20
82.24760416362869
 30
0.0
 11
1157.816859398475
 21
82.24760416362869
 31
0.0
  0
LINE
  5
211F
330
18
100
AcDbEntity
  8
DRAW2
100
AcDbLine
 10
947.8169193984754
 20
77.24760416362869
 30
0.0
 11
1147.816859398475
 21
77.24760416362869
 31
0.0
  0
LINE
  5
2120
330
18
100
AcDbEntity
  8
DRAW2
100
AcDbLine
 10
937.8168593984755
 20
79.24760416362869
 30
0.0
 11
1157.816859398475
 21
79.24760416362869
 31
0.0
  0
LINE
  5
2121
330
18
100
AcDbEntity
  8
DRAW2
100
AcDbLine
 10
947.8169193984754
 20
24.24760416362869
 30
0.0
 11
1147.816859398475
 21
24.24760416362869
 31
0.0
  0
LINE
  5
2123
330
18
100
AcDbEntity
  8
DRAW2
100
AcDbLine
 10
937.8168593984755
 20
79.24760416362869
 30
0.0
 11
937.8168593984755
 21
136.2476041636286
 31
0.0
  0
LINE
  5
2124
330
18
100
AcDbEntity
  8
DRAW2
100
AcDbLine
 10
942.8168593984754
 20
79.24760416362869
 30
0.0
 11
942.8168593984754
 21
54.24760416362869
 31
0.0
  0
LINE
  5
2125
330
18
100
AcDbEntity
  8
DRAW2
100
AcDbLine
 10
947.8169193984754
 20
24.24760416362869
 30
0.0
 11
947.8169193984754
 21
79.24760416362869
 31
0.0
  0
LINE
  5
2126
330
18
100
AcDbEntity
  8
DRAW2
100
AcDbLine
 10
947.8169193984754
 20
52.24760416362869
 30
0.0
 11
944.8168593984755
 21
52.24760416362869
 31
0.0
  0
LINE
  5
2127
330
18
100
AcDbEntity
  8
DRAW2
100
AcDbLine
 10
947.8169193984754
 20
54.24760416362869
 30
0.0
 11
942.8168593984754
 21
54.24760416362869
 31
0.0
  0
LINE
  5
2128
330
18
100
AcDbEntity
  8
DRAW2
100
AcDbLine
 10
944.8168593984755
 20
52.24760416362869
 30
0.0
 11
942.8168593984754
 21
54.24760416362869
 31
0.0
  0
LINE
  5
2129
330
18
100
AcDbEntity
  8
DRAW2
100
AcDbLine
 10
952.8169193984753
 20
24.24760416362869
 30
0.0
 11
952.8169193984753
 21
26.24760416362869
 31
0.0
  0
LINE
  5
212B
330
18
100
AcDbEntity
  8
DRAW2
100
AcDbLine
 10
952.8169193984753
 20
77.24760416362869
 30
0.0
 11
952.8169193984753
 21
79.24760416362869
 31
0.0
  0
LINE
  5
212C
330
18
100
AcDbEntity
  8
DRAW2
100
AcDbLine
 10
1014.816859398475
 20
77.24760416362869
 30
0.0
 11
1014.816859398475
 21
52.24760416362869
 31
0.0
  0
LINE
  5
212D
330
18
100
AcDbEntity
  8
DRAW2
100
AcDbLine
 10
988.8168593984755
 20
77.24760416362869
 30
0.0
 11
988.8168593984755
 21
52.24760416362869
 31
0.0
  0
LINE
  5
212F
330
18
100
AcDbEntity
  8
DRAW2
100
AcDbLine
 10
1014.816859398475
 20
52.24760416362869
 30
0.0
 11
988.8168593984755
 21
52.24760416362869
 31
0.0
  0
LINE
  5
2130
330
18
100
AcDbEntity
  8
DRAW2
100
AcDbLine
 10
1012.816859398475
 20
50.2476041636287
 30
0.0
 11
990.8168593984754
 21
50.2476041636287
 31
0.0
  0
LINE
  5
2131
330
18
100
AcDbEntity
  8
DRAW2
100
AcDbLine
 10
990.8168593984754
 20
50.2476441636287
 30
0.0
 11
988.8168593984755
 21
52.2476441636287
 31
0.0
  0
LINE
  5
2132
330
18
100
AcDbEntity
  8
DRAW2
100
AcDbLine
 10
1014.816919398475
 20
52.24756416362868
 30
0.0
 11
1012.816919398475
 21
50.24756416362868
 31
0.0
  0
CIRCLE
  5
2133
330
18
100
AcDbEntity
  8
DRAW2
100
AcDbCircle
 10
1047.816859398475
 20
109.2476041636286
 30
0.0
 40
10.000001
  0
LINE
  5
2134
330
18
100
AcDbEntity
  8
DRAW2
100
AcDbLine
 10
937.8168593984755
 20
308.7476041636286
 30
0.0
 11
937.8168593984755
 21
137.7476041636287
 31
0.0
  0
LINE
  5
2135
330
18
100
AcDbEntity
  8
DRAW2
100
AcDbLine
 10
963.3168593984754
 20
136.2476041636286
 30
0.0
 11
963.3168593984754
 21
137.7476041636287
 31
0.0
  0
LINE
  5
2136
330
18
100
AcDbEntity
  8
DRAW2
100
AcDbLine
 10
966.8168593984754
 20
335.7476041636286
 30
0.0
 11
944.8168593984755
 21
335.7476041636286
 31
0.0
  0
LINE
  5
2137
330
18
100
AcDbEntity
  8
DRAW2
100
AcDbLine
 10
968.8169193984753
 20
333.7476041636286
 30
0.0
 11
942.8168593984754
 21
333.7476041636286
 31
0.0
  0
LINE
  5
2138
330
18
100
AcDbEntity
  8
DRAW2
100
AcDbLine
 10
942.8168593984754
 20
308.7476041636286
 30
0.0
 11
942.8168593984754
 21
333.7476041636286
 31
0.0
  0
LINE
  5
2139
330
18
100
AcDbEntity
  8
DRAW2
100
AcDbLine
 10
944.8168593984755
 20
335.7476641636287
 30
0.0
 11
942.8168593984754
 21
333.7476641636287
 31
0.0
  0
LINE
  5
213A
330
18
100
AcDbEntity
  8
DRAW2
100
AcDbLine
 10
968.8168593984753
 20
308.7476041636286
 30
0.0
 11
968.8168593984753
 21
333.7476041636286
 31
0.0
  0
LINE
  5
213C
330
18
100
AcDbEntity
  8
DRAW2
100
AcDbLine
 10
968.8168593984753
 20
333.7476641636287
 30
0.0
 11
966.8168593984754
 21
335.7476041636286
 31
0.0
  0
LINE
  5
213F
330
18
100
AcDbEntity
  8
DRAW2
100
AcDbLine
 10
988.8168593984755
 20
308.7476041636286
 30
0.0
 11
988.8168593984755
 21
333.7476041636286
 31
0.0
  0
LINE
  5
2140
330
18
100
AcDbEntity
  8
DRAW2
100
AcDbLine
 10
1014.816859398475
 20
308.7476041636286
 30
0.0
 11
1014.816859398475
 21
333.7476041636286
 31
0.0
  0
LINE
  5
2141
330
18
100
AcDbEntity
  8
DRAW2
100
AcDbLine
 10
1012.816859398475
 20
335.7476041636286
 30
0.0
 11
990.8168593984754
 21
335.7476041636286
 31
0.0
  0
LINE
  5
2142
330
18
100
AcDbEntity
  8
DRAW2
100
AcDbLine
 10
1014.816859398475
 20
333.7476041636286
 30
0.0
 11
988.8168593984755
 21
333.7476041636286
 31
0.0
  0
LINE
  5
2143
330
18
100
AcDbEntity
  8
DRAW2
100
AcDbLine
 10
990.8169193984754
 20
335.7476041636286
 30
0.0
 11
988.8169193984754
 21
333.7476041636286
 31
0.0
  0
LINE
  5
2144
330
18
100
AcDbEntity
  8
DRAW2
100
AcDbLine
 10
1014.816859398475
 20
333.7476041636286
 30
0.0
 11
1012.816919398475
 21
335.7475441636287
 31
0.0
  0
LINE
  5
2145
330
18
100
AcDbEntity
  8
DRAW2
100
AcDbLine
 10
1055.326661799213
 20
308.7476041636286
 30
0.0
 11
1055.326661799213
 21
326.5929036252494
 31
0.0
  0
LINE
  5
2146
330
18
100
AcDbEntity
  8
DRAW2
100
AcDbLine
 10
1052.715838884042
 20
308.7476041636286
 30
0.0
 11
1052.715838884042
 21
326.5929036252494
 31
0.0
  0
LINE
  5
2147
330
18
100
AcDbEntity
  8
DRAW2
100
AcDbLine
 10
1042.917879912909
 20
308.7476041636286
 30
0.0
 11
1042.917879912909
 21
326.5929036252494
 31
0.0
  0
LINE
  5
2148
330
18
100
AcDbEntity
  8
DRAW2
100
AcDbLine
 10
1040.307056997737
 20
308.7476041636286
 30
0.0
 11
1040.307056997737
 21
326.5929036252494
 31
0.0
  0
LINE
  5
2149
330
18
100
AcDbEntity
  8
DRAW2
100
AcDbLine
 10
1035.316859398475
 20
326.5929036252494
 30
0.0
 11
1035.316859398475
 21
308.7476041636286
 31
0.0
  0
LINE
  5
214A
330
18
100
AcDbEntity
  8
DRAW2
100
AcDbLine
 10
1035.521079398475
 20
347.8976441636286
 30
0.0
 11
1045.566919398475
 21
347.8976441636286
 31
0.0
  0
LINE
  5
214B
330
18
100
AcDbEntity
  8
DRAW2
100
AcDbLine
 10
1045.566859398475
 20
330.3975841636286
 30
0.0
 11
1035.521079398475
 21
330.3975841636286
 31
0.0
  0
LINE
  5
214C
330
18
100
AcDbEntity
  8
DRAW2
100
AcDbLine
 10
1035.521079398475
 20
343.8976441636286
 30
0.0
 11
1045.566919398475
 21
343.8976441636286
 31
0.0
  0
LINE
  5
214D
330
18
100
AcDbEntity
  8
DRAW2
100
AcDbLine
 10
1035.521079398475
 20
340.8975841636286
 30
0.0
 11
1045.566919398475
 21
340.8975841636286
 31
0.0
  0
LINE
  5
214E
330
18
100
AcDbEntity
  8
DRAW2
100
AcDbLine
 10
1035.521079398475
 20
336.8977041636286
 30
0.0
 11
1045.566859398475
 21
336.8977041636286
 31
0.0
  0
LINE
  5
214F
330
18
100
AcDbEntity
  8
DRAW2
100
AcDbLine
 10
1035.521079398475
 20
333.8977041636286
 30
0.0
 11
1045.566859398475
 21
333.8977041636286
 31
0.0
  0
LINE
  5
2150
330
18
100
AcDbEntity
  8
DRAW2
100
AcDbLine
 10
1042.917879912909
 20
326.5929036252495
 30
0.0
 11
1040.307056997737
 21
326.5929036252495
 31
0.0
  0
LINE
  5
2151
330
18
100
AcDbEntity
  8
DRAW2
100
AcDbLine
 10
1037.316859398475
 20
327.7476041636286
 30
0.0
 11
1058.316859398475
 21
327.7476041636286
 31
0.0
  0
LINE
  5
2152
330
18
100
AcDbEntity
  8
DRAW2
100
AcDbLine
 10
1035.521079398475
 20
330.3975841636286
 30
0.0
 11
1035.521079398475
 21
333.8976441636286
 31
0.0
  0
LINE
  5
2153
330
18
100
AcDbEntity
  8
DRAW2
100
AcDbLine
 10
1038.073259398475
 20
330.3975841636286
 30
0.0
 11
1038.073259398475
 21
333.8975841636286
 31
0.0
  0
LINE
  5
2154
330
18
100
AcDbEntity
  8
DRAW2
100
AcDbLine
 10
1035.521079398475
 20
327.3975841636286
 30
0.0
 11
1035.521079398475
 21
326.7108100972233
 31
0.0
  0
LINE
  5
2155
330
18
100
AcDbEntity
  8
DRAW2
100
AcDbLine
 10
1036.71060697481
 20
327.3975841636286
 30
0.0
 11
1035.521079398475
 21
327.3975841636286
 31
0.0
  0
ARC
  5
2156
330
18
100
AcDbEntity
  8
DRAW2
100
AcDbCircle
 10
1035.408077512171
 20
318.3556084370597
 30
0.0
 40
9.583998748819553
100
AcDbArc
 50
59.25871451937664
 51
78.51195811590206
  0
LINE
  5
2157
330
18
100
AcDbEntity
  8
DRAW2
100
AcDbLine
 10
1037.316859398475
 20
327.7476041636286
 30
0.0
 11
1035.316859398475
 21
326.5929036252494
 31
0.0
  0
LINE
  5
2158
330
18
100
AcDbEntity
  8
DRAW2
100
AcDbLine
 10
1035.521079398475
 20
343.8976441636286
 30
0.0
 11
1035.521079398475
 21
347.8976441636286
 31
0.0
  0
LINE
  5
2159
330
18
100
AcDbEntity
  8
DRAW2
100
AcDbLine
 10
1038.073259398475
 20
343.8975841636286
 30
0.0
 11
1038.073259398475
 21
347.8975841636286
 31
0.0
  0
LINE
  5
215A
330
18
100
AcDbEntity
  8
DRAW2
100
AcDbLine
 10
1035.521079398475
 20
336.8976441636287
 30
0.0
 11
1035.521079398475
 21
340.8976441636287
 31
0.0
  0
LINE
  5
215B
330
18
100
AcDbEntity
  8
DRAW2
100
AcDbLine
 10
1038.073259398475
 20
336.8975841636286
 30
0.0
 11
1038.073259398475
 21
340.8975841636286
 31
0.0
  0
ARC
  5
215C
330
18
100
AcDbEntity
  8
DRAW2
100
AcDbCircle
 10
1047.816859398475
 20
316.7779490490257
 30
0.0
 40
10.96965511460298
100
AcDbArc
 50
63.47464798339032
 51
116.5253520166096
  0
LINE
  5
215D
330
18
100
AcDbEntity
  8
DRAW2
100
AcDbLine
 10
1050.066859398475
 20
330.3975841636286
 30
0.0
 11
1050.066859398475
 21
333.8976441636286
 31
0.0
  0
LINE
  5
215E
330
18
100
AcDbEntity
  8
DRAW2
100
AcDbLine
 10
1045.566859398475
 20
330.3975841636286
 30
0.0
 11
1045.566859398475
 21
333.8975841636286
 31
0.0
  0
LINE
  5
215F
330
18
100
AcDbEntity
  8
DRAW2
100
AcDbLine
 10
1057.560259398475
 20
330.3975841636286
 30
0.0
 11
1057.560259398475
 21
333.8977041636286
 31
0.0
  0
ARC
  5
2160
330
18
100
AcDbEntity
  8
DRAW2
100
AcDbCircle
 10
1060.225641284779
 20
318.3556084370597
 30
0.0
 40
9.583998748819553
100
AcDbArc
 50
101.4880418840979
 51
120.7412854806233
  0
LINE
  5
2161
330
18
100
AcDbEntity
  8
DRAW2
100
AcDbLine
 10
1055.326661799213
 20
326.5929036252494
 30
0.0
 11
1052.715838884042
 21
326.5929036252495
 31
0.0
  0
LINE
  5
2162
330
18
100
AcDbEntity
  8
DRAW2
100
AcDbLine
 10
1050.066859398475
 20
343.8975841636286
 30
0.0
 11
1050.066859398475
 21
347.8975841636286
 31
0.0
  0
LINE
  5
2163
330
18
100
AcDbEntity
  8
DRAW2
100
AcDbLine
 10
1045.566859398475
 20
343.8975841636286
 30
0.0
 11
1045.566859398475
 21
347.8975841636286
 31
0.0
  0
LINE
  5
2164
330
18
100
AcDbEntity
  8
DRAW2
100
AcDbLine
 10
1045.566859398475
 20
336.8975841636286
 30
0.0
 11
1045.566859398475
 21
340.8975841636286
 31
0.0
  0
LINE
  5
2165
330
18
100
AcDbEntity
  8
DRAW2
100
AcDbLine
 10
1050.066859398475
 20
336.8975841636286
 30
0.0
 11
1050.066859398475
 21
340.8975841636286
 31
0.0
  0
LINE
  5
2166
330
18
100
AcDbEntity
  8
DRAW2
100
AcDbLine
 10
1057.560879398475
 20
343.8976441636286
 30
0.0
 11
1057.560879398475
 21
347.8977041636286
 31
0.0
  0
LINE
  5
2167
330
18
100
AcDbEntity
  8
DRAW2
100
AcDbLine
 10
1057.560139398475
 20
336.8975841636286
 30
0.0
 11
1057.560139398475
 21
340.8976441636287
 31
0.0
  0
LINE
  5
2168
330
18
100
AcDbEntity
  8
DRAW2
100
AcDbLine
 10
1157.816859398475
 20
79.24760416362869
 30
0.0
 11
1157.816859398475
 21
136.2476041636286
 31
0.0
  0
LINE
  5
2169
330
18
100
AcDbEntity
  8
DRAW2
100
AcDbLine
 10
1286.270931098739
 20
79.24760416362869
 30
0.0
 11
1286.270931098739
 21
136.2476041636286
 31
0.0
  0
LINE
  5
216C
330
18
100
AcDbEntity
  8
DRAW2
100
AcDbLine
 10
1106.816859398475
 20
77.24760416362869
 30
0.0
 11
1106.816859398475
 21
52.24760416362869
 31
0.0
  0
LINE
  5
216D
330
18
100
AcDbEntity
  8
DRAW2
100
AcDbLine
 10
1080.816859398475
 20
77.24760416362869
 30
0.0
 11
1080.816859398475
 21
52.24760416362869
 31
0.0
  0
LINE
  5
216F
330
18
100
AcDbEntity
  8
DRAW2
100
AcDbLine
 10
1080.816859398475
 20
52.24760416362869
 30
0.0
 11
1106.816859398475
 21
52.24760416362869
 31
0.0
  0
LINE
  5
2170
330
18
100
AcDbEntity
  8
DRAW2
100
AcDbLine
 10
1082.816859398475
 20
50.2476041636287
 30
0.0
 11
1104.816859398475
 21
50.2476041636287
 31
0.0
  0
LINE
  5
2171
330
18
100
AcDbEntity
  8
DRAW2
100
AcDbLine
 10
1080.816859398475
 20
52.24756416362868
 30
0.0
 11
1082.816859398475
 21
50.24756416362868
 31
0.0
  0
LINE
  5
2173
330
18
100
AcDbEntity
  8
DRAW2
100
AcDbLine
 10
1104.816859398475
 20
50.2476041636287
 30
0.0
 11
1106.816859398475
 21
52.24760416362869
 31
0.0
  0
LINE
  5
2174
330
18
100
AcDbEntity
  8
DRAW2
100
AcDbLine
 10
1152.816859398475
 20
79.24760416362869
 30
0.0
 11
1152.816859398475
 21
54.24760416362869
 31
0.0
  0
LINE
  5
2175
330
18
100
AcDbEntity
  8
DRAW2
100
AcDbLine
 10
1147.816859398475
 20
24.24760416362869
 30
0.0
 11
1147.816859398475
 21
79.24760416362869
 31
0.0
  0
LINE
  5
2177
330
18
100
AcDbEntity
  8
DRAW2
100
AcDbLine
 10
1142.816859398475
 20
24.24760416362869
 30
0.0
 11
1142.816859398475
 21
26.24760416362869
 31
0.0
  0
LINE
  5
2178
330
18
100
AcDbEntity
  8
DRAW2
100
AcDbLine
 10
1150.816859398475
 20
52.24756416362868
 30
0.0
 11
1152.816919398475
 21
54.24756416362868
 31
0.0
  0
LINE
  5
2179
330
18
100
AcDbEntity
  8
DRAW2
100
AcDbLine
 10
1147.816859398475
 20
52.24760416362869
 30
0.0
 11
1150.816859398475
 21
52.24760416362869
 31
0.0
  0
LINE
  5
217A
330
18
100
AcDbEntity
  8
DRAW2
100
AcDbLine
 10
1147.816859398475
 20
54.24760416362869
 30
0.0
 11
1152.816859398475
 21
54.24760416362869
 31
0.0
  0
LINE
  5
217B
330
18
100
AcDbEntity
  8
DRAW2
100
AcDbLine
 10
1142.816859398475
 20
77.24760416362869
 30
0.0
 11
1142.816859398475
 21
79.24760416362869
 31
0.0
  0
LINE
  5
2185
330
18
100
AcDbEntity
  8
DRAW2
100
AcDbLine
 10
1329.596611098739
 20
77.24760416362869
 30
0.0
 11
1329.596611098739
 21
52.24760416362869
 31
0.0
  0
LINE
  5
2186
330
18
100
AcDbEntity
  8
DRAW2
100
AcDbLine
 10
1303.596611098739
 20
77.24760416362869
 30
0.0
 11
1303.596611098739
 21
52.24760416362869
 31
0.0
  0
LINE
  5
2187
330
18
100
AcDbEntity
  8
DRAW2
100
AcDbLine
 10
1331.596611098739
 20
75.2476041636287
 30
0.0
 11
1331.596611098739
 21
28.24760416362869
 31
0.0
  0
LINE
  5
2188
330
18
100
AcDbEntity
  8
DRAW2
100
AcDbLine
 10
1333.596611098739
 20
75.2476041636287
 30
0.0
 11
1333.596611098739
 21
28.24760416362869
 31
0.0
  0
LINE
  5
218A
330
18
100
AcDbEntity
  8
DRAW2
100
AcDbLine
 10
1329.596611098739
 20
52.24760416362869
 30
0.0
 11
1303.596611098739
 21
52.24760416362869
 31
0.0
  0
LINE
  5
218B
330
18
100
AcDbEntity
  8
DRAW2
100
AcDbLine
 10
1327.596611098739
 20
50.2476041636287
 30
0.0
 11
1305.596611098739
 21
50.2476041636287
 31
0.0
  0
LINE
  5
218C
330
18
100
AcDbEntity
  8
DRAW2
100
AcDbLine
 10
1329.596611098739
 20
26.24760416362869
 30
0.0
 11
1302.596611098739
 21
26.24760416362869
 31
0.0
  0
LINE
  5
218D
330
18
100
AcDbEntity
  8
DRAW2
100
AcDbLine
 10
1329.596611098739
 20
24.24760416362869
 30
0.0
 11
1302.596611098739
 21
24.24760416362869
 31
0.0
  0
LINE
  5
218E
330
18
100
AcDbEntity
  8
DRAW2
100
AcDbLine
 10
1302.596611098739
 20
26.24760416362869
 30
0.0
 11
1302.596611098739
 21
24.24760416362869
 31
0.0
  0
LINE
  5
218F
330
18
100
AcDbEntity
  8
DRAW2
100
AcDbLine
 10
1305.596611098739
 20
50.24756416362868
 30
0.0
 11
1303.596611098739
 21
52.24756416362868
 31
0.0
  0
ARC
  5
2190
330
18
100
AcDbEntity
  8
DRAW2
100
AcDbCircle
 10
1329.596611098739
 20
28.24760416362869
 30
0.0
 40
2.0
100
AcDbArc
 50
270.0
 51
0.0000086514214
  0
ARC
  5
2191
330
18
100
AcDbEntity
  8
DRAW2
100
AcDbCircle
 10
1329.596611098739
 20
28.24760416362869
 30
0.0
 40
4.0
100
AcDbArc
 50
270.0
 51
0.0000086514222
  0
LINE
  5
2192
330
18
100
AcDbEntity
  8
DRAW2
100
AcDbLine
 10
1329.596611098739
 20
52.24756416362868
 30
0.0
 11
1327.596611098739
 21
50.24756416362868
 31
0.0
  0
LINE
  5
2193
330
18
100
AcDbEntity
  8
DRAW2
100
AcDbLine
 10
1329.596611098739
 20
77.24760416362869
 30
0.0
 11
1302.596611098739
 21
77.24760416362869
 31
0.0
  0
LINE
  5
2194
330
18
100
AcDbEntity
  8
DRAW2
100
AcDbLine
 10
1302.596611098739
 20
79.24760416362869
 30
0.0
 11
1302.596611098739
 21
77.24760416362869
 31
0.0
  0
ARC
  5
2195
330
18
100
AcDbEntity
  8
DRAW2
100
AcDbCircle
 10
1329.596611098739
 20
75.2476041636287
 30
0.0
 40
2.0
100
AcDbArc
 50
359.9999899999999
 51
89.999996
  0
ARC
  5
2196
330
18
100
AcDbEntity
  8
DRAW2
100
AcDbCircle
 10
1329.596611098739
 20
75.2476041636287
 30
0.0
 40
4.0
100
AcDbArc
 50
359.9999899999999
 51
89.999996
  0
LINE
  5
2197
330
18
100
AcDbEntity
  8
DRAW2
100
AcDbLine
 10
1157.816859398475
 20
308.7476041636286
 30
0.0
 11
1157.816859398475
 21
137.7476041636287
 31
0.0
  0
LINE
  5
2198
330
18
100
AcDbEntity
  8
DRAW2
100
AcDbLine
 10
1132.316859398475
 20
136.2476041636286
 30
0.0
 11
1132.316859398475
 21
137.7476041636287
 31
0.0
  0
LINE
  5
2199
330
18
100
AcDbEntity
  8
DRAW2
100
AcDbLine
 10
1128.816859398475
 20
335.7476041636286
 30
0.0
 11
1150.816859398475
 21
335.7476041636286
 31
0.0
  0
LINE
  5
219A
330
18
100
AcDbEntity
  8
DRAW2
100
AcDbLine
 10
1126.816859398475
 20
333.7476041636286
 30
0.0
 11
1152.816859398475
 21
333.7476041636286
 31
0.0
  0
LINE
  5
219B
330
18
100
AcDbEntity
  8
DRAW2
100
AcDbLine
 10
1082.816859398475
 20
335.7476041636286
 30
0.0
 11
1104.816859398475
 21
335.7476041636286
 31
0.0
  0
LINE
  5
219C
330
18
100
AcDbEntity
  8
DRAW2
100
AcDbLine
 10
1080.816859398475
 20
333.7476041636286
 30
0.0
 11
1106.816859398475
 21
333.7476041636286
 31
0.0
  0
LINE
  5
219D
330
18
100
AcDbEntity
  8
DRAW2
100
AcDbLine
 10
1060.316859398475
 20
326.5929036252494
 30
0.0
 11
1060.316859398475
 21
308.7476041636286
 31
0.0
  0
LINE
  5
219F
330
18
100
AcDbEntity
  8
DRAW2
100
AcDbLine
 10
1080.816859398475
 20
308.7476041636286
 30
0.0
 11
1080.816859398475
 21
333.7476041636286
 31
0.0
  0
LINE
  5
21A0
330
18
100
AcDbEntity
  8
DRAW2
100
AcDbLine
 10
1060.112759398475
 20
330.3975841636286
 30
0.0
 11
1060.112759398475
 21
333.8975841636286
 31
0.0
  0
LINE
  5
21A1
330
18
100
AcDbEntity
  8
DRAW2
100
AcDbLine
 10
1060.112759398475
 20
327.3975841636286
 30
0.0
 11
1060.112759398475
 21
326.7107408151911
 31
0.0
  0
LINE
  5
21A2
330
18
100
AcDbEntity
  8
DRAW2
100
AcDbLine
 10
1060.112999398475
 20
343.8975841636286
 30
0.0
 11
1060.112999398475
 21
347.8975841636286
 31
0.0
  0
LINE
  5
21A3
330
18
100
AcDbEntity
  8
DRAW2
100
AcDbLine
 10
1060.112639398475
 20
336.8975841636286
 30
0.0
 11
1060.112639398475
 21
340.8977041636286
 31
0.0
  0
LINE
  5
21A4
330
18
100
AcDbEntity
  8
DRAW2
100
AcDbLine
 10
1080.816859398475
 20
333.7476041636286
 30
0.0
 11
1082.816859398475
 21
335.7476041636286
 31
0.0
  0
LINE
  5
21A5
330
18
100
AcDbEntity
  8
DRAW2
100
AcDbLine
 10
1126.816859398475
 20
308.7476041636286
 30
0.0
 11
1126.816859398475
 21
333.7476041636286
 31
0.0
  0
LINE
  5
21A6
330
18
100
AcDbEntity
  8
DRAW2
100
AcDbLine
 10
1106.816859398475
 20
308.7476041636286
 30
0.0
 11
1106.816859398475
 21
333.7476041636286
 31
0.0
  0
LINE
  5
21A7
330
18
100
AcDbEntity
  8
DRAW2
100
AcDbLine
 10
1104.816859398475
 20
335.7476041636286
 30
0.0
 11
1106.816859398475
 21
333.7476041636286
 31
0.0
  0
LINE
  5
21A8
330
18
100
AcDbEntity
  8
DRAW2
100
AcDbLine
 10
1126.816859398475
 20
333.7476041636286
 30
0.0
 11
1128.816919398475
 21
335.7476041636286
 31
0.0
  0
LINE
  5
21A9
330
18
100
AcDbEntity
  8
DRAW2
100
AcDbLine
 10
1152.816859398475
 20
308.7476041636286
 30
0.0
 11
1152.816859398475
 21
333.7476041636286
 31
0.0
  0
LINE
  5
21AB
330
18
100
AcDbEntity
  8
DRAW2
100
AcDbLine
 10
1150.816919398475
 20
335.7476041636286
 30
0.0
 11
1152.816919398475
 21
333.7476041636286
 31
0.0
  0
LINE
  5
21AC
330
18
100
AcDbEntity
  8
DRAW2
100
AcDbLine
 10
1286.270931098739
 20
308.7476041636286
 30
0.0
 11
1286.270931098739
 21
137.7476041636287
 31
0.0
  0
LINE
  5
21AD
330
18
100
AcDbEntity
  8
DRAW2
100
AcDbLine
 10
1311.770931098739
 20
136.2476041636286
 30
0.0
 11
1311.770931098739
 21
137.7476041636287
 31
0.0
  0
LINE
  5
21AE
330
18
100
AcDbEntity
  8
DRAW2
100
AcDbLine
 10
1327.596611098739
 20
335.7476041636286
 30
0.0
 11
1305.596611098739
 21
335.7476041636286
 31
0.0
  0
LINE
  5
21AF
330
18
100
AcDbEntity
  8
DRAW2
100
AcDbLine
 10
1329.596611098739
 20
333.7476041636286
 30
0.0
 11
1303.596611098739
 21
333.7476041636286
 31
0.0
  0
LINE
  5
21B1
330
18
100
AcDbEntity
  8
DRAW2
100
AcDbLine
 10
1303.596611098739
 20
308.7476041636286
 30
0.0
 11
1303.596611098739
 21
333.7476041636286
 31
0.0
  0
LINE
  5
21B2
330
18
100
AcDbEntity
  8
DRAW2
100
AcDbLine
 10
1305.596611098739
 20
335.7476041636286
 30
0.0
 11
1303.596611098739
 21
333.7476041636286
 31
0.0
  0
LINE
  5
21B3
330
18
100
AcDbEntity
  8
DRAW2
100
AcDbLine
 10
1329.596611098739
 20
308.7476041636286
 30
0.0
 11
1329.596611098739
 21
333.7476041636286
 31
0.0
  0
LINE
  5
21B4
330
18
100
AcDbEntity
  8
DRAW2
100
AcDbLine
 10
1329.596611098739
 20
333.7476641636287
 30
0.0
 11
1327.596611098739
 21
335.7476641636287
 31
0.0
  0
LINE
  5
21B5
330
18
100
AcDbEntity
  8
DRAW2
100
AcDbLine
 10
1060.316859398475
 20
382.3975241636286
 30
0.0
 11
1059.316799398475
 21
383.3975841636286
 31
0.0
  0
LINE
  5
21B6
330
18
100
AcDbEntity
  8
DRAW2
100
AcDbLine
 10
1035.316859398475
 20
382.3977041636286
 30
0.0
 11
1060.316859398475
 21
382.3977041636286
 31
0.0
  0
LINE
  5
21B7
330
18
100
AcDbEntity
  8
DRAW2
100
AcDbLine
 10
1060.112759398475
 20
375.8975241636286
 30
0.0
 11
1050.066919398475
 21
375.8975241636286
 31
0.0
  0
LINE
  5
21B8
330
18
100
AcDbEntity
  8
DRAW2
100
AcDbLine
 10
1060.112759398475
 20
371.8976441636286
 30
0.0
 11
1050.066919398475
 21
371.8976441636286
 31
0.0
  0
LINE
  5
21B9
330
18
100
AcDbEntity
  8
DRAW2
100
AcDbLine
 10
1060.112759398475
 20
368.8976441636286
 30
0.0
 11
1050.066919398475
 21
368.8976441636286
 31
0.0
  0
LINE
  5
21BA
330
18
100
AcDbEntity
  8
DRAW2
100
AcDbLine
 10
1060.112759398475
 20
364.8977041636286
 30
0.0
 11
1050.066919398475
 21
364.8977041636286
 31
0.0
  0
LINE
  5
21BB
330
18
100
AcDbEntity
  8
DRAW2
100
AcDbLine
 10
1060.112699398475
 20
361.8977641636287
 30
0.0
 11
1050.066859398475
 21
361.8977641636287
 31
0.0
  0
LINE
  5
21BC
330
18
100
AcDbEntity
  8
DRAW2
100
AcDbLine
 10
1060.112759398475
 20
357.8975241636286
 30
0.0
 11
1050.066919398475
 21
357.8975241636286
 31
0.0
  0
LINE
  5
21BD
330
18
100
AcDbEntity
  8
DRAW2
100
AcDbLine
 10
1060.112759398475
 20
354.8975841636285
 30
0.0
 11
1050.066859398475
 21
354.8975841636285
 31
0.0
  0
LINE
  5
21BE
330
18
100
AcDbEntity
  8
DRAW2
100
AcDbLine
 10
1060.112759398475
 20
350.8976441636286
 30
0.0
 11
1050.066919398475
 21
350.8976441636286
 31
0.0
  0
ARC
  5
21C0
330
18
100
AcDbEntity
  8
DRAW2
100
AcDbCircle
 10
1047.816859398475
 20
607.8742734691509
 30
0.0
 40
12.500001
100
AcDbArc
 50
90.0
 51
270.000010000001
  0
ARC
  5
21C1
330
18
100
AcDbEntity
  8
DRAW2
100
AcDbCircle
 10
1047.816859398475
 20
607.8742734691509
 30
0.0
 40
15.0
100
AcDbArc
 50
90.0
 51
270.000010000001
  0
ARC
  5
21C2
330
18
100
AcDbEntity
  8
DRAW2
100
AcDbCircle
 10
1047.816859398475
 20
607.8742734691509
 30
0.0
 40
12.500001
100
AcDbArc
 50
269.999989999999
 51
90.0
  0
ARC
  5
21C3
330
18
100
AcDbEntity
  8
DRAW2
100
AcDbCircle
 10
1047.816859398475
 20
607.8742734691509
 30
0.0
 40
15.0
100
AcDbArc
 50
269.999989999999
 51
90.0
  0
ARC
  5
21C4
330
18
100
AcDbEntity
  8
DRAW2
100
AcDbCircle
 10
1047.816859398475
 20
563.8742734691509
 30
0.0
 40
15.0
100
AcDbArc
 50
90.0
 51
270.000010000001
  0
ARC
  5
21C5
330
18
100
AcDbEntity
  8
DRAW2
100
AcDbCircle
 10
1047.816859398475
 20
563.8742734691509
 30
0.0
 40
15.0
100
AcDbArc
 50
269.999989999999
 51
90.0
  0
ARC
  5
21C8
330
18
100
AcDbEntity
  8
DRAW2
100
AcDbCircle
 10
1047.816859398475
 20
563.8742734691509
 30
0.0
 40
110.000008
100
AcDbArc
 50
90.0
 51
270.000010000001
  0
ARC
  5
21CA
330
18
100
AcDbEntity
  8
DRAW2
100
AcDbCircle
 10
1047.816859398475
 20
563.8742734691509
 30
0.0
 40
110.000008
100
AcDbArc
 50
269.999989999999
 51
90.0
  0
LINE
  5
21CF
330
18
100
AcDbEntity
  8
DRAW2
100
AcDbLine
 10
1035.521079398475
 20
375.8977041636286
 30
0.0
 11
1045.566919398475
 21
375.8977041636286
 31
0.0
  0
LINE
  5
21D0
330
18
100
AcDbEntity
  8
DRAW2
100
AcDbLine
 10
1035.521019398475
 20
371.8977041636286
 30
0.0
 11
1045.566859398475
 21
371.8977041636286
 31
0.0
  0
LINE
  5
21D1
330
18
100
AcDbEntity
  8
DRAW2
100
AcDbLine
 10
1035.521079398475
 20
368.8975841636286
 30
0.0
 11
1045.566919398475
 21
368.8975841636286
 31
0.0
  0
LINE
  5
21D2
330
18
100
AcDbEntity
  8
DRAW2
100
AcDbLine
 10
1035.521019398475
 20
364.8976441636286
 30
0.0
 11
1045.566859398475
 21
364.8976441636286
 31
0.0
  0
LINE
  5
21D3
330
18
100
AcDbEntity
  8
DRAW2
100
AcDbLine
 10
1035.521079398475
 20
361.8977041636286
 30
0.0
 11
1045.566859398475
 21
361.8977041636286
 31
0.0
  0
LINE
  5
21D4
330
18
100
AcDbEntity
  8
DRAW2
100
AcDbLine
 10
1035.521019398475
 20
357.8976441636287
 30
0.0
 11
1045.566919398475
 21
357.8976441636287
 31
0.0
  0
LINE
  5
21D5
330
18
100
AcDbEntity
  8
DRAW2
100
AcDbLine
 10
1035.521079398475
 20
354.8976441636286
 30
0.0
 11
1045.566919398475
 21
354.8976441636286
 31
0.0
  0
LINE
  5
21D6
330
18
100
AcDbEntity
  8
DRAW2
100
AcDbLine
 10
1035.521079398475
 20
350.8977041636286
 30
0.0
 11
1045.566859398475
 21
350.8977041636286
 31
0.0
  0
LINE
  5
21D7
330
18
100
AcDbEntity
  8
DRAW2
100
AcDbLine
 10
1035.521079398475
 20
357.8976441636287
 30
0.0
 11
1035.521079398475
 21
361.8976441636287
 31
0.0
  0
LINE
  5
21D8
330
18
100
AcDbEntity
  8
DRAW2
100
AcDbLine
 10
1038.073259398475
 20
357.8975841636286
 30
0.0
 11
1038.073259398475
 21
361.8975841636286
 31
0.0
  0
LINE
  5
21D9
330
18
100
AcDbEntity
  8
DRAW2
100
AcDbLine
 10
1035.521079398475
 20
350.8976441636286
 30
0.0
 11
1035.521079398475
 21
354.8976441636286
 31
0.0
  0
LINE
  5
21DA
330
18
100
AcDbEntity
  8
DRAW2
100
AcDbLine
 10
1038.073259398475
 20
350.8975841636285
 30
0.0
 11
1038.073259398475
 21
354.8975841636285
 31
0.0
  0
LINE
  5
21DB
330
18
100
AcDbEntity
  8
DRAW2
100
AcDbLine
 10
1035.521079398475
 20
364.8975841636286
 30
0.0
 11
1035.521079398475
 21
368.8975841636286
 31
0.0
  0
LINE
  5
21DC
330
18
100
AcDbEntity
  8
DRAW2
100
AcDbLine
 10
1038.073259398475
 20
364.8975841636286
 30
0.0
 11
1038.073259398475
 21
368.8975841636286
 31
0.0
  0
LINE
  5
21DD
330
18
100
AcDbEntity
  8
DRAW2
100
AcDbLine
 10
1038.073259398475
 20
371.8975841636286
 30
0.0
 11
1038.073259398475
 21
375.8975841636285
 31
0.0
  0
LINE
  5
21DE
330
18
100
AcDbEntity
  8
DRAW2
100
AcDbLine
 10
1035.521079398475
 20
371.8976441636286
 30
0.0
 11
1035.521079398475
 21
375.8975841636285
 31
0.0
  0
LINE
  5
21DF
330
18
100
AcDbEntity
  8
DRAW2
100
AcDbLine
 10
1050.066859398475
 20
357.8975841636286
 30
0.0
 11
1050.066859398475
 21
361.8975841636286
 31
0.0
  0
LINE
  5
21E0
330
18
100
AcDbEntity
  8
DRAW2
100
AcDbLine
 10
1045.566859398475
 20
357.8975841636286
 30
0.0
 11
1045.566859398475
 21
361.8975841636286
 31
0.0
  0
LINE
  5
21E1
330
18
100
AcDbEntity
  8
DRAW2
100
AcDbLine
 10
1045.566859398475
 20
350.8975841636285
 30
0.0
 11
1045.566859398475
 21
354.8975841636285
 31
0.0
  0
LINE
  5
21E2
330
18
100
AcDbEntity
  8
DRAW2
100
AcDbLine
 10
1050.066859398475
 20
350.8975841636285
 30
0.0
 11
1050.066859398475
 21
354.8975841636285
 31
0.0
  0
LINE
  5
21E3
330
18
100
AcDbEntity
  8
DRAW2
100
AcDbLine
 10
1057.560639398475
 20
357.8977041636286
 30
0.0
 11
1057.560639398475
 21
361.8975841636286
 31
0.0
  0
LINE
  5
21E4
330
18
100
AcDbEntity
  8
DRAW2
100
AcDbLine
 10
1057.560519398475
 20
350.8977041636286
 30
0.0
 11
1057.560519398475
 21
354.8977041636286
 31
0.0
  0
LINE
  5
21E5
330
18
100
AcDbEntity
  8
DRAW2
100
AcDbLine
 10
1045.566859398475
 20
364.8975841636286
 30
0.0
 11
1045.566859398475
 21
368.8975841636286
 31
0.0
  0
LINE
  5
21E6
330
18
100
AcDbEntity
  8
DRAW2
100
AcDbLine
 10
1050.066859398475
 20
364.8976441636286
 30
0.0
 11
1050.066859398475
 21
368.8976441636286
 31
0.0
  0
LINE
  5
21E7
330
18
100
AcDbEntity
  8
DRAW2
100
AcDbLine
 10
1045.566859398475
 20
371.8975841636286
 30
0.0
 11
1045.566859398475
 21
375.8975841636285
 31
0.0
  0
LINE
  5
21E8
330
18
100
AcDbEntity
  8
DRAW2
100
AcDbLine
 10
1050.066859398475
 20
371.8976441636286
 30
0.0
 11
1050.066859398475
 21
375.8976441636286
 31
0.0
  0
LINE
  5
21E9
330
18
100
AcDbEntity
  8
DRAW2
100
AcDbLine
 10
1057.560399398475
 20
364.8976441636286
 30
0.0
 11
1057.560399398475
 21
368.8975841636286
 31
0.0
  0
LINE
  5
21EA
330
18
100
AcDbEntity
  8
DRAW2
100
AcDbLine
 10
1057.560399398475
 20
371.8975841636286
 30
0.0
 11
1057.560399398475
 21
375.8976441636286
 31
0.0
  0
LINE
  5
21EB
330
18
100
AcDbEntity
  8
DRAW2
100
AcDbLine
 10
1036.316859398475
 20
383.3975841636286
 30
0.0
 11
1059.316859398475
 21
383.3975841636286
 31
0.0
  0
LINE
  5
21EC
330
18
100
AcDbEntity
  8
DRAW2
100
AcDbLine
 10
1035.316859398475
 20
382.3975841636286
 30
0.0
 11
1036.316919398475
 21
383.3976441636286
 31
0.0
  0
LINE
  5
21EE
330
18
100
AcDbEntity
  8
DRAW2
100
AcDbLine
 10
952.8168593984755
 20
470.1999534691509
 30
0.0
 11
990.1530393984755
 21
470.1999534691509
 31
0.0
  0
LINE
  5
21F0
330
18
100
AcDbEntity
  8
DRAW2
100
AcDbLine
 10
947.8168593984754
 20
501.1999334691508
 30
0.0
 11
947.8168593984754
 21
475.1999534691509
 31
0.0
  0
LINE
  5
21F1
330
18
100
AcDbEntity
  8
DRAW2
100
AcDbLine
 10
952.8168593984755
 20
470.1998934691509
 30
0.0
 11
947.8168593984754
 21
475.199893469151
 31
0.0
  0
ARC
  5
21F3
330
18
100
AcDbEntity
  8
DRAW2
100
AcDbCircle
 10
972.8168593984756
 20
484.1999534691509
 30
0.0
 40
4.499999599999999
100
AcDbArc
 50
142.9540640000004
 51
310.5079200000026
  0
LINE
  5
21F4
330
18
100
AcDbEntity
  8
DRAW2
100
AcDbLine
 10
947.8168593984754
 20
501.1999334691508
 30
0.0
 11
957.4180993984754
 21
501.1999334691508
 31
0.0
  0
CIRCLE
  5
21F5
330
18
100
AcDbEntity
  8
DRAW2
100
AcDbCircle
 10
955.8169193984754
 20
563.8742734691509
 30
0.0
 40
11.0
  0
CIRCLE
  5
21F6
330
18
100
AcDbEntity
  8
DRAW2
100
AcDbCircle
 10
955.8169193984754
 20
563.8742734691509
 30
0.0
 40
13.0
  0
CIRCLE
  5
21F7
330
18
100
AcDbEntity
  8
DRAW2
100
AcDbCircle
 10
1001.816859398475
 20
484.1999534691509
 30
0.0
 40
11.0
  0
CIRCLE
  5
21F8
330
18
100
AcDbEntity
  8
DRAW2
100
AcDbCircle
 10
1001.816859398475
 20
484.1999534691509
 30
0.0
 40
13.0
  0
LINE
  5
21FB
330
18
100
AcDbEntity
  8
DRAW2
100
AcDbLine
 10
1046.309519398475
 20
576.2830334691509
 30
0.0
 11
1037.824239398475
 21
571.3840334691508
 31
0.0
  0
LINE
  5
21FC
330
18
100
AcDbEntity
  8
DRAW2
100
AcDbLine
 10
1046.309519398475
 20
551.4655134691508
 30
0.0
 11
1037.824239398475
 21
556.364513469151
 31
0.0
  0
ARC
  5
21FD
330
18
100
AcDbEntity
  8
DRAW2
100
AcDbCircle
 10
1047.816859398475
 20
563.8742734691509
 30
0.0
 40
11.50000099999999
100
AcDbArc
 50
90.0
 51
270.000010000001
  0
ARC
  5
21FE
330
18
100
AcDbEntity
  8
DRAW2
100
AcDbCircle
 10
1047.816859398475
 20
563.8742734691509
 30
0.0
 40
11.50000099999999
100
AcDbArc
 50
269.999989999999
 51
90.0
  0
LINE
  5
21FF
330
18
100
AcDbEntity
  8
DRAW2
100
AcDbLine
 10
1036.316919398475
 20
568.7732534691508
 30
0.0
 11
1036.316919398475
 21
558.9752934691509
 31
0.0
  0
ARC
  5
2200
330
18
100
AcDbEntity
  8
DRAW2
100
AcDbCircle
 10
1047.816859398475
 20
563.8742734691509
 30
0.0
 40
12.500001
100
AcDbArc
 50
203.0739199999998
 51
216.9260900000002
  0
ARC
  5
2201
330
18
100
AcDbEntity
  8
DRAW2
100
AcDbCircle
 10
1047.816859398475
 20
563.8742734691509
 30
0.0
 40
12.500001
100
AcDbArc
 50
143.0739129999962
 51
156.92608
  0
ARC
  5
2202
330
18
100
AcDbEntity
  8
DRAW3
100
AcDbCircle
 10
1047.816859398475
 20
563.8742734691509
 30
0.0
 40
6.5
100
AcDbArc
 50
90.0
 51
270.000010000001
  0
ARC
  5
2203
330
18
100
AcDbEntity
  8
DRAW2
100
AcDbCircle
 10
1047.816859398475
 20
563.8742734691509
 30
0.0
 40
5.5
100
AcDbArc
 50
90.0
 51
270.000010000001
  0
ARC
  5
2204
330
18
100
AcDbEntity
  8
DRAW3
100
AcDbCircle
 10
1047.816859398475
 20
563.8742734691509
 30
0.0
 40
6.5
100
AcDbArc
 50
269.999989999999
 51
90.0
  0
ARC
  5
2205
330
18
100
AcDbEntity
  8
DRAW2
100
AcDbCircle
 10
1047.816859398475
 20
563.8742734691509
 30
0.0
 40
5.5
100
AcDbArc
 50
269.999989999999
 51
90.0
  0
LINE
  5
2206
330
18
100
AcDbEntity
  8
DRAW2
100
AcDbLine
 10
1059.316799398475
 20
568.7732534691508
 30
0.0
 11
1059.316799398475
 21
558.9752934691509
 31
0.0
  0
LINE
  5
2207
330
18
100
AcDbEntity
  8
DRAW2
100
AcDbLine
 10
1049.324199398475
 20
551.4655134691508
 30
0.0
 11
1057.809479398475
 21
556.364513469151
 31
0.0
  0
ARC
  5
2208
330
18
100
AcDbEntity
  8
DRAW2
100
AcDbCircle
 10
1047.816859398475
 20
563.8742734691509
 30
0.0
 40
12.500001
100
AcDbArc
 50
263.073920000003
 51
270.000010000001
  0
ARC
  5
2209
330
18
100
AcDbEntity
  8
DRAW2
100
AcDbCircle
 10
1047.816859398475
 20
563.8742734691509
 30
0.0
 40
12.500001
100
AcDbArc
 50
269.999989999999
 51
276.9260799999969
  0
ARC
  5
220A
330
18
100
AcDbEntity
  8
DRAW2
100
AcDbCircle
 10
1047.816859398475
 20
563.8742734691509
 30
0.0
 40
12.500001
100
AcDbArc
 50
323.0739099999997
 51
336.92608
  0
LINE
  5
220B
330
18
100
AcDbEntity
  8
DRAW2
100
AcDbLine
 10
1049.324199398475
 20
576.2830334691509
 30
0.0
 11
1057.809479398475
 21
571.3840334691508
 31
0.0
  0
ARC
  5
220C
330
18
100
AcDbEntity
  8
DRAW2
100
AcDbCircle
 10
1047.816859398475
 20
563.8742734691509
 30
0.0
 40
12.500001
100
AcDbArc
 50
89.99998999999901
 51
96.92607989999711
  0
ARC
  5
220D
330
18
100
AcDbEntity
  8
DRAW2
100
AcDbCircle
 10
1047.816859398475
 20
563.8742734691509
 30
0.0
 40
12.500001
100
AcDbArc
 50
83.07392010000292
 51
90.00001000000102
  0
ARC
  5
220E
330
18
100
AcDbEntity
  8
DRAW2
100
AcDbCircle
 10
1047.816859398475
 20
563.8742734691509
 30
0.0
 40
12.500001
100
AcDbArc
 50
23.07391999999994
 51
36.9260870000037
  0
LINE
  5
220F
330
18
100
AcDbEntity
  8
DRAW2
100
AcDbLine
 10
952.8168593984755
 20
657.548593469151
 30
0.0
 11
990.1530393984755
 21
657.548593469151
 31
0.0
  0
LINE
  5
2210
330
18
100
AcDbEntity
  8
DRAW2
100
AcDbLine
 10
947.8168593984754
 20
626.5485934691509
 30
0.0
 11
947.8168593984754
 21
652.5485934691509
 31
0.0
  0
LINE
  5
2211
330
18
100
AcDbEntity
  8
DRAW2
100
AcDbLine
 10
947.8168593984754
 20
626.5485934691509
 30
0.0
 11
957.4180993984754
 21
626.5485934691509
 31
0.0
  0
LINE
  5
2213
330
18
100
AcDbEntity
  8
DRAW2
100
AcDbLine
 10
947.8168593984754
 20
652.5486134691509
 30
0.0
 11
952.8168593984755
 21
657.548593469151
 31
0.0
  0
ARC
  5
2215
330
18
100
AcDbEntity
  8
DRAW2
100
AcDbCircle
 10
972.8168593984756
 20
643.5485934691509
 30
0.0
 40
4.499999599999999
100
AcDbArc
 50
49.49207999999735
 51
217.0459399999992
  0
CIRCLE
  5
2217
330
18
100
AcDbEntity
  8
DRAW2
100
AcDbCircle
 10
1001.816859398475
 20
643.5485934691509
 30
0.0
 40
11.0
  0
CIRCLE
  5
2218
330
18
100
AcDbEntity
  8
DRAW2
100
AcDbCircle
 10
1001.816859398475
 20
643.5485934691509
 30
0.0
 40
13.0
  0
ARC
  5
221A
330
18
100
AcDbEntity
  8
DRAW2
100
AcDbCircle
 10
1047.816859398475
 20
607.8742734691509
 30
0.0
 40
11.50000099999999
100
AcDbArc
 50
90.0
 51
270.000010000001
  0
ARC
  5
221B
330
18
100
AcDbEntity
  8
DRAW2
100
AcDbCircle
 10
1047.816859398475
 20
607.8742734691509
 30
0.0
 40
11.50000099999999
100
AcDbArc
 50
269.999989999999
 51
90.0
  0
LINE
  5
2220
330
18
100
AcDbEntity
  8
DRAW2
100
AcDbLine
 10
1060.112639398475
 20
357.8976441636287
 30
0.0
 11
1060.112639398475
 21
361.8975841636286
 31
0.0
  0
LINE
  5
2221
330
18
100
AcDbEntity
  8
DRAW2
100
AcDbLine
 10
1060.112639398475
 20
350.8977041636286
 30
0.0
 11
1060.112639398475
 21
354.8977041636286
 31
0.0
  0
LINE
  5
2222
330
18
100
AcDbEntity
  8
DRAW2
100
AcDbLine
 10
1060.112639398475
 20
364.8975841636286
 30
0.0
 11
1060.112639398475
 21
368.8977041636286
 31
0.0
  0
LINE
  5
2223
330
18
100
AcDbEntity
  8
DRAW2
100
AcDbLine
 10
1060.112639398475
 20
371.8975841636286
 30
0.0
 11
1060.112639398475
 21
375.8975841636285
 31
0.0
  0
CIRCLE
  5
2225
330
18
100
AcDbEntity
  8
DRAW2
100
AcDbCircle
 10
1139.816799398475
 20
563.8742734691509
 30
0.0
 40
11.0
  0
CIRCLE
  5
2226
330
18
100
AcDbEntity
  8
DRAW2
100
AcDbCircle
 10
1139.816799398475
 20
563.8742734691509
 30
0.0
 40
13.0
  0
LINE
  5
2227
330
18
100
AcDbEntity
  8
DRAW2
100
AcDbLine
 10
1142.816859398475
 20
470.1999534691509
 30
0.0
 11
1105.480679398475
 21
470.1999534691509
 31
0.0
  0
CIRCLE
  5
2228
330
18
100
AcDbEntity
  8
DRAW2
100
AcDbCircle
 10
1093.816859398475
 20
484.1999534691509
 30
0.0
 40
11.0
  0
CIRCLE
  5
2229
330
18
100
AcDbEntity
  8
DRAW2
100
AcDbCircle
 10
1093.816859398475
 20
484.1999534691509
 30
0.0
 40
13.0
  0
ARC
  5
222D
330
18
100
AcDbEntity
  8
DRAW2
100
AcDbCircle
 10
1122.816859398475
 20
484.1999534691509
 30
0.0
 40
4.499999599999999
100
AcDbArc
 50
229.4920799999973
 51
37.04593599999951
  0
LINE
  5
222E
330
18
100
AcDbEntity
  8
DRAW2
100
AcDbLine
 10
1147.816859398475
 20
501.1999334691508
 30
0.0
 11
1147.816859398475
 21
475.1999534691509
 31
0.0
  0
LINE
  5
222F
330
18
100
AcDbEntity
  8
DRAW2
100
AcDbLine
 10
1142.816859398475
 20
470.1998934691509
 30
0.0
 11
1147.816859398475
 21
475.199893469151
 31
0.0
  0
LINE
  5
2230
330
18
100
AcDbEntity
  8
DRAW2
100
AcDbLine
 10
1147.816859398475
 20
501.1999334691508
 30
0.0
 11
1138.215619398475
 21
501.1999334691508
 31
0.0
  0
LINE
  5
2235
330
18
100
AcDbEntity
  8
DRAW2
100
AcDbLine
 10
1142.816859398475
 20
657.548593469151
 30
0.0
 11
1105.480679398475
 21
657.548593469151
 31
0.0
  0
CIRCLE
  5
2238
330
18
100
AcDbEntity
  8
DRAW2
100
AcDbCircle
 10
1093.816859398475
 20
643.5485934691509
 30
0.0
 40
11.0
  0
CIRCLE
  5
2239
330
18
100
AcDbEntity
  8
DRAW2
100
AcDbCircle
 10
1093.816859398475
 20
643.5485934691509
 30
0.0
 40
13.0
  0
ARC
  5
223C
330
18
100
AcDbEntity
  8
DRAW2
100
AcDbCircle
 10
1122.816859398475
 20
643.5485934691509
 30
0.0
 40
4.499999599999999
100
AcDbArc
 50
322.9540600000007
 51
130.5079200000026
  0
LINE
  5
223D
330
18
100
AcDbEntity
  8
DRAW2
100
AcDbLine
 10
1147.816859398475
 20
626.5485934691509
 30
0.0
 11
1147.816859398475
 21
652.5485934691509
 31
0.0
  0
LINE
  5
223E
330
18
100
AcDbEntity
  8
DRAW2
100
AcDbLine
 10
1147.816859398475
 20
626.5485934691509
 30
0.0
 11
1138.215619398475
 21
626.5485934691509
 31
0.0
  0
LINE
  5
223F
330
18
100
AcDbEntity
  8
DRAW2
100
AcDbLine
 10
1147.816859398475
 20
652.5486134691509
 30
0.0
 11
1142.816859398475
 21
657.548593469151
 31
0.0
  0
LINE
  5
2245
330
18
100
AcDbEntity
  8
DRAW2
100
AcDbLine
 10
1452.770931098739
 20
313.3975841636285
 30
0.0
 11
1452.770931098739
 21
382.3975841636286
 31
0.0
  0
LINE
  5
2247
330
18
100
AcDbEntity
  8
DRAW2
100
AcDbLine
 10
1427.770931098739
 20
313.3975841636285
 30
0.0
 11
1427.770931098739
 21
382.3976441636286
 31
0.0
  0
LINE
  5
2248
330
18
100
AcDbEntity
  8
DRAW2
100
AcDbLine
 10
1506.270931098739
 20
79.24760416362869
 30
0.0
 11
1506.270931098739
 21
136.2476041636286
 31
0.0
  0
LINE
  5
224B
330
18
100
AcDbEntity
  8
DRAW2
100
AcDbLine
 10
1409.270931098739
 20
79.24760416362869
 30
0.0
 11
1409.270931098739
 21
54.24760416362869
 31
0.0
  0
LINE
  5
224C
330
18
100
AcDbEntity
  8
DRAW2
100
AcDbLine
 10
1383.270931098739
 20
79.24760416362869
 30
0.0
 11
1383.270931098739
 21
54.24760416362869
 31
0.0
  0
LINE
  5
224D
330
18
100
AcDbEntity
  8
DRAW2
100
AcDbLine
 10
1407.270931098739
 20
52.24760416362869
 30
0.0
 11
1385.270931098739
 21
52.24760416362869
 31
0.0
  0
LINE
  5
224E
330
18
100
AcDbEntity
  8
DRAW2
100
AcDbLine
 10
1409.270931098739
 20
54.24760416362869
 30
0.0
 11
1383.270931098739
 21
54.24760416362869
 31
0.0
  0
LINE
  5
224F
330
18
100
AcDbEntity
  8
DRAW2
100
AcDbLine
 10
1385.270931098739
 20
52.24760416362869
 30
0.0
 11
1383.270931098739
 21
54.24760416362869
 31
0.0
  0
LINE
  5
2250
330
18
100
AcDbEntity
  8
DRAW2
100
AcDbLine
 10
1409.270971098739
 20
54.24756416362868
 30
0.0
 11
1407.270971098739
 21
52.24760416362869
 31
0.0
  0
LINE
  5
2251
330
18
100
AcDbEntity
  8
DRAW2
100
AcDbLine
 10
1488.945251098739
 20
77.24760416362869
 30
0.0
 11
1488.945251098739
 21
52.24760416362869
 31
0.0
  0
LINE
  5
2252
330
18
100
AcDbEntity
  8
DRAW2
100
AcDbLine
 10
1462.945271098739
 20
77.24760416362869
 30
0.0
 11
1462.945271098739
 21
52.24760416362869
 31
0.0
  0
LINE
  5
2253
330
18
100
AcDbEntity
  8
DRAW2
100
AcDbLine
 10
1460.945311098739
 20
75.2476041636287
 30
0.0
 11
1460.945311098739
 21
28.24760416362869
 31
0.0
  0
LINE
  5
2254
330
18
100
AcDbEntity
  8
DRAW2
100
AcDbLine
 10
1458.945251098739
 20
75.2476041636287
 30
0.0
 11
1458.945251098739
 21
28.24760416362869
 31
0.0
  0
LINE
  5
2256
330
18
100
AcDbEntity
  8
DRAW2
100
AcDbLine
 10
1462.945271098739
 20
52.24760416362869
 30
0.0
 11
1488.945251098739
 21
52.24760416362869
 31
0.0
  0
LINE
  5
2257
330
18
100
AcDbEntity
  8
DRAW2
100
AcDbLine
 10
1464.945251098739
 20
50.2476041636287
 30
0.0
 11
1486.945251098739
 21
50.2476041636287
 31
0.0
  0
LINE
  5
2258
330
18
100
AcDbEntity
  8
DRAW2
100
AcDbLine
 10
1462.945271098739
 20
26.24760416362869
 30
0.0
 11
1489.945251098739
 21
26.24760416362869
 31
0.0
  0
LINE
  5
2259
330
18
100
AcDbEntity
  8
DRAW2
100
AcDbLine
 10
1462.945271098739
 20
24.24760416362869
 30
0.0
 11
1489.945251098739
 21
24.24760416362869
 31
0.0
  0
ARC
  5
225A
330
18
100
AcDbEntity
  8
DRAW2
100
AcDbCircle
 10
1462.945271098739
 20
28.24760416362869
 30
0.0
 40
2.0
100
AcDbArc
 50
179.9999899999999
 51
270.0
  0
ARC
  5
225B
330
18
100
AcDbEntity
  8
DRAW2
100
AcDbCircle
 10
1462.945271098739
 20
28.24760416362869
 30
0.0
 40
4.0
100
AcDbArc
 50
179.9999899999999
 51
270.0
  0
LINE
  5
225C
330
18
100
AcDbEntity
  8
DRAW2
100
AcDbLine
 10
1462.945271098739
 20
52.24760416362869
 30
0.0
 11
1464.945251098739
 21
50.2476441636287
 31
0.0
  0
LINE
  5
225D
330
18
100
AcDbEntity
  8
DRAW2
100
AcDbLine
 10
1489.945251098739
 20
26.24760416362869
 30
0.0
 11
1489.945251098739
 21
24.24760416362869
 31
0.0
  0
LINE
  5
225E
330
18
100
AcDbEntity
  8
DRAW2
100
AcDbLine
 10
1486.945271098739
 20
50.2476041636287
 30
0.0
 11
1488.945311098739
 21
52.24760416362869
 31
0.0
  0
LINE
  5
225F
330
18
100
AcDbEntity
  8
DRAW2
100
AcDbLine
 10
1462.945271098739
 20
77.24760416362869
 30
0.0
 11
1489.945251098739
 21
77.24760416362869
 31
0.0
  0
ARC
  5
2260
330
18
100
AcDbEntity
  8
DRAW2
100
AcDbCircle
 10
1462.945271098739
 20
75.2476041636287
 30
0.0
 40
2.0
100
AcDbArc
 50
89.999996
 51
180.00001
  0
ARC
  5
2261
330
18
100
AcDbEntity
  8
DRAW2
100
AcDbCircle
 10
1462.945271098739
 20
75.2476041636287
 30
0.0
 40
4.0
100
AcDbArc
 50
89.999996
 51
180.00001
  0
LINE
  5
2262
330
18
100
AcDbEntity
  8
DRAW2
100
AcDbLine
 10
1489.945251098739
 20
79.24760416362869
 30
0.0
 11
1489.945251098739
 21
77.24760416362869
 31
0.0
  0
LINE
  5
226C
330
18
100
AcDbEntity
  8
DRAW2
100
AcDbLine
 10
1506.270931098739
 20
308.7476041636286
 30
0.0
 11
1506.270931098739
 21
137.7476041636287
 31
0.0
  0
LINE
  5
226D
330
18
100
AcDbEntity
  8
DRAW2
100
AcDbLine
 10
1480.770931098739
 20
136.2476041636286
 30
0.0
 11
1480.770931098739
 21
137.7476041636287
 31
0.0
  0
LINE
  5
226E
330
18
100
AcDbEntity
  8
DRAW2
100
AcDbLine
 10
1427.975151098739
 20
347.8976441636286
 30
0.0
 11
1438.020991098739
 21
347.8976441636286
 31
0.0
  0
LINE
  5
226F
330
18
100
AcDbEntity
  8
DRAW2
100
AcDbLine
 10
1427.975131098739
 20
343.8976441636286
 30
0.0
 11
1438.020991098739
 21
343.8976441636286
 31
0.0
  0
LINE
  5
2270
330
18
100
AcDbEntity
  8
DRAW2
100
AcDbLine
 10
1427.975151098739
 20
340.8975841636286
 30
0.0
 11
1438.020991098739
 21
340.8975841636286
 31
0.0
  0
LINE
  5
2271
330
18
100
AcDbEntity
  8
DRAW2
100
AcDbLine
 10
1427.975131098739
 20
336.8977041636286
 30
0.0
 11
1438.020931098739
 21
336.8977041636286
 31
0.0
  0
LINE
  5
2272
330
18
100
AcDbEntity
  8
DRAW2
100
AcDbLine
 10
1427.975131098739
 20
333.8977041636286
 30
0.0
 11
1438.020931098739
 21
333.8977041636286
 31
0.0
  0
LINE
  5
2273
330
18
100
AcDbEntity
  8
DRAW2
100
AcDbLine
 10
1427.975151098739
 20
329.8976441636286
 30
0.0
 11
1438.020991098739
 21
329.8976441636286
 31
0.0
  0
LINE
  5
2274
330
18
100
AcDbEntity
  8
DRAW2
100
AcDbLine
 10
1434.333791098739
 20
323.3977041636286
 30
0.0
 11
1446.208151098739
 21
323.3977041636286
 31
0.0
  0
LINE
  5
2275
330
18
100
AcDbEntity
  8
DRAW2
100
AcDbLine
 10
1427.770931098739
 20
313.3977041636286
 30
0.0
 11
1452.770931098739
 21
313.3977041636286
 31
0.0
  0
LINE
  5
2276
330
18
100
AcDbEntity
  8
DRAW2
100
AcDbLine
 10
1431.833611098739
 20
311.3977041636286
 30
0.0
 11
1448.777651098739
 21
311.3977041636286
 31
0.0
  0
LINE
  5
2277
330
18
100
AcDbEntity
  8
DRAW2
100
AcDbLine
 10
1407.270931098739
 20
335.7476041636286
 30
0.0
 11
1385.270931098739
 21
335.7476041636286
 31
0.0
  0
LINE
  5
2278
330
18
100
AcDbEntity
  8
DRAW2
100
AcDbLine
 10
1409.270931098739
 20
333.7476041636286
 30
0.0
 11
1383.270931098739
 21
333.7476041636286
 31
0.0
  0
LINE
  5
2279
330
18
100
AcDbEntity
  8
DRAW2
100
AcDbLine
 10
1383.270931098739
 20
308.7476041636286
 30
0.0
 11
1383.270931098739
 21
333.7476041636286
 31
0.0
  0
LINE
  5
227A
330
18
100
AcDbEntity
  8
DRAW2
100
AcDbLine
 10
1385.270971098739
 20
335.7476641636287
 30
0.0
 11
1383.270971098739
 21
333.7476641636287
 31
0.0
  0
LINE
  5
227B
330
18
100
AcDbEntity
  8
DRAW2
100
AcDbLine
 10
1434.333731098739
 20
313.3975841636285
 30
0.0
 11
1434.333731098739
 21
323.3975841636286
 31
0.0
  0
LINE
  5
227C
330
18
100
AcDbEntity
  8
DRAW2
100
AcDbLine
 10
1433.713191098739
 20
313.3975841636285
 30
0.0
 11
1433.713191098739
 21
323.3975841636286
 31
0.0
  0
LINE
  5
227D
330
18
100
AcDbEntity
  8
DRAW2
100
AcDbLine
 10
1409.270931098739
 20
308.7476041636286
 30
0.0
 11
1409.270931098739
 21
333.7476041636286
 31
0.0
  0
LINE
  5
227E
330
18
100
AcDbEntity
  8
DRAW3
100
AcDbLine
 10
1432.739031098739
 20
308.7476041636286
 30
0.0
 11
1432.688631098739
 21
311.3976441636286
 31
0.0
  0
LINE
  5
227F
330
18
100
AcDbEntity
  8
DRAW3
100
AcDbLine
 10
1432.688591098739
 20
311.3976441636286
 30
0.0
 11
1431.804431098739
 21
312.9290041636286
 31
0.0
  0
LINE
  5
2280
330
18
100
AcDbEntity
  8
DRAW2
100
AcDbLine
 10
1431.884051098739
 20
308.7476041636286
 30
0.0
 11
1431.795591098739
 21
313.3975841636285
 31
0.0
  0
LINE
  5
2281
330
18
100
AcDbEntity
  8
DRAW2
100
AcDbLine
 10
1409.270971098739
 20
333.7476641636287
 30
0.0
 11
1407.270931098739
 21
335.7476641636287
 31
0.0
  0
LINE
  5
2282
330
18
100
AcDbEntity
  8
DRAW2
100
AcDbLine
 10
1427.975131098739
 20
329.8976441636286
 30
0.0
 11
1427.975131098739
 21
333.8976441636286
 31
0.0
  0
LINE
  5
2283
330
18
100
AcDbEntity
  8
DRAW2
100
AcDbLine
 10
1430.527331098739
 20
329.8975841636285
 30
0.0
 11
1430.527331098739
 21
333.8975841636286
 31
0.0
  0
LINE
  5
2284
330
18
100
AcDbEntity
  8
DRAW2
100
AcDbLine
 10
1427.770931098739
 20
323.3977041636286
 30
0.0
 11
1433.713231098739
 21
323.3977041636286
 31
0.0
  0
LINE
  5
2285
330
18
100
AcDbEntity
  8
DRAW2
100
AcDbLine
 10
1427.975131098739
 20
343.8976441636286
 30
0.0
 11
1427.975131098739
 21
347.8976441636286
 31
0.0
  0
LINE
  5
2286
330
18
100
AcDbEntity
  8
DRAW2
100
AcDbLine
 10
1430.527331098739
 20
343.8975841636286
 30
0.0
 11
1430.527331098739
 21
347.8975841636286
 31
0.0
  0
LINE
  5
2287
330
18
100
AcDbEntity
  8
DRAW2
100
AcDbLine
 10
1427.975131098739
 20
336.8976441636287
 30
0.0
 11
1427.975131098739
 21
340.8976441636287
 31
0.0
  0
LINE
  5
2288
330
18
100
AcDbEntity
  8
DRAW2
100
AcDbLine
 10
1430.527331098739
 20
336.8975841636286
 30
0.0
 11
1430.527331098739
 21
340.8975841636286
 31
0.0
  0
LINE
  5
2289
330
18
100
AcDbEntity
  8
DRAW2
100
AcDbLine
 10
1486.945251098739
 20
335.7476041636286
 30
0.0
 11
1464.945251098739
 21
335.7476041636286
 31
0.0
  0
LINE
  5
228A
330
18
100
AcDbEntity
  8
DRAW2
100
AcDbLine
 10
1488.945251098739
 20
333.7476041636286
 30
0.0
 11
1462.945271098739
 21
333.7476041636286
 31
0.0
  0
LINE
  5
228B
330
18
100
AcDbEntity
  8
DRAW2
100
AcDbLine
 10
1446.828731098739
 20
313.3975841636285
 30
0.0
 11
1446.828731098739
 21
323.3976441636286
 31
0.0
  0
LINE
  5
228C
330
18
100
AcDbEntity
  8
DRAW2
100
AcDbLine
 10
1446.208131098739
 20
313.3976441636286
 30
0.0
 11
1446.208131098739
 21
323.3976441636286
 31
0.0
  0
LINE
  5
228D
330
18
100
AcDbEntity
  8
DRAW2
100
AcDbLine
 10
1462.945271098739
 20
308.7476041636286
 30
0.0
 11
1462.945271098739
 21
333.7476041636286
 31
0.0
  0
LINE
  5
228E
330
18
100
AcDbEntity
  8
DRAW3
100
AcDbLine
 10
1447.839831098739
 20
308.7476041636286
 30
0.0
 11
1447.922671098739
 21
311.3975841636285
 31
0.0
  0
LINE
  5
228F
330
18
100
AcDbEntity
  8
DRAW3
100
AcDbLine
 10
1447.922611098739
 20
311.3976441636286
 30
0.0
 11
1448.826591098739
 21
312.9633641636287
 31
0.0
  0
LINE
  5
2290
330
18
100
AcDbEntity
  8
DRAW2
100
AcDbLine
 10
1448.694951098739
 20
308.7476041636286
 30
0.0
 11
1448.840231098739
 21
313.3976441636286
 31
0.0
  0
LINE
  5
2291
330
18
100
AcDbEntity
  8
DRAW2
100
AcDbLine
 10
1452.566771098739
 20
333.8977041636286
 30
0.0
 11
1442.520931098739
 21
333.8977041636286
 31
0.0
  0
LINE
  5
2292
330
18
100
AcDbEntity
  8
DRAW2
100
AcDbLine
 10
1452.566771098739
 20
329.8977041636286
 30
0.0
 11
1442.520931098739
 21
329.8977041636286
 31
0.0
  0
LINE
  5
2293
330
18
100
AcDbEntity
  8
DRAW2
100
AcDbLine
 10
1442.520931098739
 20
329.8975841636285
 30
0.0
 11
1442.520931098739
 21
333.8976441636286
 31
0.0
  0
LINE
  5
2294
330
18
100
AcDbEntity
  8
DRAW2
100
AcDbLine
 10
1438.020891098739
 20
329.8975841636285
 30
0.0
 11
1438.020891098739
 21
333.8975841636286
 31
0.0
  0
LINE
  5
2295
330
18
100
AcDbEntity
  8
DRAW2
100
AcDbLine
 10
1452.566831098739
 20
329.8977041636286
 30
0.0
 11
1452.566831098739
 21
333.8975841636286
 31
0.0
  0
LINE
  5
2296
330
18
100
AcDbEntity
  8
DRAW2
100
AcDbLine
 10
1450.014371098739
 20
329.8977041636286
 30
0.0
 11
1450.014371098739
 21
333.8977041636286
 31
0.0
  0
LINE
  5
2297
330
18
100
AcDbEntity
  8
DRAW2
100
AcDbLine
 10
1452.770991098739
 20
323.3975841636286
 30
0.0
 11
1446.828731098739
 21
323.3975841636286
 31
0.0
  0
LINE
  5
2298
330
18
100
AcDbEntity
  8
DRAW2
100
AcDbLine
 10
1452.566771098739
 20
347.8975841636286
 30
0.0
 11
1442.520991098739
 21
347.8975841636286
 31
0.0
  0
LINE
  5
2299
330
18
100
AcDbEntity
  8
DRAW2
100
AcDbLine
 10
1452.566771098739
 20
343.8977641636287
 30
0.0
 11
1442.520931098739
 21
343.8977641636287
 31
0.0
  0
LINE
  5
229A
330
18
100
AcDbEntity
  8
DRAW2
100
AcDbLine
 10
1452.566831098739
 20
340.8976441636287
 30
0.0
 11
1442.521031098739
 21
340.8976441636287
 31
0.0
  0
LINE
  5
229B
330
18
100
AcDbEntity
  8
DRAW2
100
AcDbLine
 10
1452.566771098739
 20
336.8977041636286
 30
0.0
 11
1442.520971098739
 21
336.8977041636286
 31
0.0
  0
LINE
  5
229C
330
18
100
AcDbEntity
  8
DRAW2
100
AcDbLine
 10
1442.520931098739
 20
343.8975841636286
 30
0.0
 11
1442.520931098739
 21
347.8975841636286
 31
0.0
  0
LINE
  5
229D
330
18
100
AcDbEntity
  8
DRAW2
100
AcDbLine
 10
1438.020891098739
 20
343.8975841636286
 30
0.0
 11
1438.020891098739
 21
347.8975841636286
 31
0.0
  0
LINE
  5
229E
330
18
100
AcDbEntity
  8
DRAW2
100
AcDbLine
 10
1438.020891098739
 20
336.8975841636286
 30
0.0
 11
1438.020891098739
 21
340.8975841636286
 31
0.0
  0
LINE
  5
229F
330
18
100
AcDbEntity
  8
DRAW2
100
AcDbLine
 10
1442.520931098739
 20
336.8975841636286
 30
0.0
 11
1442.520931098739
 21
340.8975841636286
 31
0.0
  0
LINE
  5
22A0
330
18
100
AcDbEntity
  8
DRAW2
100
AcDbLine
 10
1452.567071098739
 20
343.8975841636286
 30
0.0
 11
1452.567071098739
 21
347.8975841636286
 31
0.0
  0
LINE
  5
22A1
330
18
100
AcDbEntity
  8
DRAW2
100
AcDbLine
 10
1450.014951098739
 20
343.8976441636286
 30
0.0
 11
1450.014951098739
 21
347.8977041636286
 31
0.0
  0
LINE
  5
22A2
330
18
100
AcDbEntity
  8
DRAW2
100
AcDbLine
 10
1452.566731098739
 20
336.8975841636286
 30
0.0
 11
1452.566731098739
 21
340.8977041636286
 31
0.0
  0
LINE
  5
22A3
330
18
100
AcDbEntity
  8
DRAW2
100
AcDbLine
 10
1450.014211098739
 20
336.8975841636286
 30
0.0
 11
1450.014211098739
 21
340.8976441636287
 31
0.0
  0
LINE
  5
22A4
330
18
100
AcDbEntity
  8
DRAW2
100
AcDbLine
 10
1464.945271098739
 20
335.7476641636287
 30
0.0
 11
1462.945271098739
 21
333.7476641636287
 31
0.0
  0
LINE
  5
22A6
330
18
100
AcDbEntity
  8
DRAW2
100
AcDbLine
 10
1488.945251098739
 20
308.7476041636286
 30
0.0
 11
1488.945251098739
 21
333.7476041636286
 31
0.0
  0
LINE
  5
22A7
330
18
100
AcDbEntity
  8
DRAW2
100
AcDbLine
 10
1488.945311098739
 20
333.7476041636286
 30
0.0
 11
1486.945311098739
 21
335.7476041636286
 31
0.0
  0
LINE
  5
22A8
330
18
100
AcDbEntity
  8
DRAW2
100
AcDbLine
 10
1427.975151098739
 20
375.8977041636286
 30
0.0
 11
1438.020971098739
 21
375.8977041636286
 31
0.0
  0
LINE
  5
22A9
330
18
100
AcDbEntity
  8
DRAW2
100
AcDbLine
 10
1427.975091098739
 20
371.8977041636286
 30
0.0
 11
1438.020891098739
 21
371.8977041636286
 31
0.0
  0
LINE
  5
22AA
330
18
100
AcDbEntity
  8
DRAW2
100
AcDbLine
 10
1427.975151098739
 20
368.8975841636286
 30
0.0
 11
1438.020971098739
 21
368.8975841636286
 31
0.0
  0
LINE
  5
22AB
330
18
100
AcDbEntity
  8
DRAW2
100
AcDbLine
 10
1427.975091098739
 20
364.8976441636286
 30
0.0
 11
1438.020931098739
 21
364.8976441636286
 31
0.0
  0
LINE
  5
22AC
330
18
100
AcDbEntity
  8
DRAW2
100
AcDbLine
 10
1427.975151098739
 20
361.8977041636286
 30
0.0
 11
1438.020931098739
 21
361.8977041636286
 31
0.0
  0
LINE
  5
22AD
330
18
100
AcDbEntity
  8
DRAW2
100
AcDbLine
 10
1427.975091098739
 20
357.8976441636287
 30
0.0
 11
1438.020971098739
 21
357.8976441636287
 31
0.0
  0
LINE
  5
22AE
330
18
100
AcDbEntity
  8
DRAW2
100
AcDbLine
 10
1427.975151098739
 20
354.8976441636286
 30
0.0
 11
1438.020991098739
 21
354.8976441636286
 31
0.0
  0
LINE
  5
22AF
330
18
100
AcDbEntity
  8
DRAW2
100
AcDbLine
 10
1427.975131098739
 20
350.8977041636286
 30
0.0
 11
1438.020931098739
 21
350.8977041636286
 31
0.0
  0
LINE
  5
22B0
330
18
100
AcDbEntity
  8
DRAW2
100
AcDbLine
 10
1427.770931098739
 20
382.3977041636286
 30
0.0
 11
1452.770931098739
 21
382.3977041636286
 31
0.0
  0
LINE
  5
22B1
330
18
100
AcDbEntity
  8
DRAW2
100
AcDbLine
 10
1428.770931098739
 20
383.3975841636286
 30
0.0
 11
1451.770931098739
 21
383.3975841636286
 31
0.0
  0
LINE
  5
22B2
330
18
100
AcDbEntity
  8
DRAW2
100
AcDbLine
 10
1427.975131098739
 20
357.8976441636287
 30
0.0
 11
1427.975131098739
 21
361.8976441636287
 31
0.0
  0
LINE
  5
22B3
330
18
100
AcDbEntity
  8
DRAW2
100
AcDbLine
 10
1430.527331098739
 20
357.8975841636286
 30
0.0
 11
1430.527331098739
 21
361.8975841636286
 31
0.0
  0
LINE
  5
22B4
330
18
100
AcDbEntity
  8
DRAW2
100
AcDbLine
 10
1427.975131098739
 20
350.8976441636286
 30
0.0
 11
1427.975131098739
 21
354.8976441636286
 31
0.0
  0
LINE
  5
22B5
330
18
100
AcDbEntity
  8
DRAW2
100
AcDbLine
 10
1430.527331098739
 20
350.8975841636285
 30
0.0
 11
1430.527331098739
 21
354.8975841636285
 31
0.0
  0
LINE
  5
22B6
330
18
100
AcDbEntity
  8
DRAW2
100
AcDbLine
 10
1430.527331098739
 20
371.8975841636286
 30
0.0
 11
1430.527331098739
 21
375.8975841636285
 31
0.0
  0
LINE
  5
22B7
330
18
100
AcDbEntity
  8
DRAW2
100
AcDbLine
 10
1427.975131098739
 20
371.8976441636286
 30
0.0
 11
1427.975131098739
 21
375.8975841636285
 31
0.0
  0
LINE
  5
22B8
330
18
100
AcDbEntity
  8
DRAW2
100
AcDbLine
 10
1427.975131098739
 20
364.8975841636286
 30
0.0
 11
1427.975131098739
 21
368.8975841636286
 31
0.0
  0
LINE
  5
22B9
330
18
100
AcDbEntity
  8
DRAW2
100
AcDbLine
 10
1430.527331098739
 20
364.8975841636286
 30
0.0
 11
1430.527331098739
 21
368.8975841636286
 31
0.0
  0
LINE
  5
22BA
330
18
100
AcDbEntity
  8
DRAW2
100
AcDbLine
 10
1427.770931098739
 20
382.3976441636286
 30
0.0
 11
1428.770971098739
 21
383.3976441636286
 31
0.0
  0
LINE
  5
22BB
330
18
100
AcDbEntity
  8
DRAW2
100
AcDbLine
 10
1452.566771098739
 20
361.8977641636287
 30
0.0
 11
1442.520931098739
 21
361.8977641636287
 31
0.0
  0
LINE
  5
22BC
330
18
100
AcDbEntity
  8
DRAW2
100
AcDbLine
 10
1452.566831098739
 20
357.8975241636286
 30
0.0
 11
1442.520991098739
 21
357.8975241636286
 31
0.0
  0
LINE
  5
22BD
330
18
100
AcDbEntity
  8
DRAW2
100
AcDbLine
 10
1452.566791098739
 20
354.8975841636285
 30
0.0
 11
1442.520971098739
 21
354.8975841636285
 31
0.0
  0
LINE
  5
22BE
330
18
100
AcDbEntity
  8
DRAW2
100
AcDbLine
 10
1452.566831098739
 20
350.8976441636286
 30
0.0
 11
1442.520991098739
 21
350.8976441636286
 31
0.0
  0
LINE
  5
22BF
330
18
100
AcDbEntity
  8
DRAW2
100
AcDbLine
 10
1442.520931098739
 20
357.8975841636286
 30
0.0
 11
1442.520931098739
 21
361.8975841636286
 31
0.0
  0
LINE
  5
22C0
330
18
100
AcDbEntity
  8
DRAW2
100
AcDbLine
 10
1438.020891098739
 20
357.8975841636286
 30
0.0
 11
1438.020891098739
 21
361.8975841636286
 31
0.0
  0
LINE
  5
22C1
330
18
100
AcDbEntity
  8
DRAW2
100
AcDbLine
 10
1438.020891098739
 20
350.8975841636285
 30
0.0
 11
1438.020891098739
 21
354.8975841636285
 31
0.0
  0
LINE
  5
22C2
330
18
100
AcDbEntity
  8
DRAW2
100
AcDbLine
 10
1442.520931098739
 20
350.8975841636285
 30
0.0
 11
1442.520931098739
 21
354.8975841636285
 31
0.0
  0
LINE
  5
22C3
330
18
100
AcDbEntity
  8
DRAW2
100
AcDbLine
 10
1452.566651098739
 20
357.8976441636287
 30
0.0
 11
1452.566651098739
 21
361.8975841636286
 31
0.0
  0
LINE
  5
22C4
330
18
100
AcDbEntity
  8
DRAW2
100
AcDbLine
 10
1450.014671098739
 20
357.8977041636286
 30
0.0
 11
1450.014671098739
 21
361.8975841636286
 31
0.0
  0
LINE
  5
22C5
330
18
100
AcDbEntity
  8
DRAW2
100
AcDbLine
 10
1452.566671098739
 20
350.8977041636286
 30
0.0
 11
1452.566671098739
 21
354.8977041636286
 31
0.0
  0
LINE
  5
22C6
330
18
100
AcDbEntity
  8
DRAW2
100
AcDbLine
 10
1450.014591098739
 20
350.8977041636286
 30
0.0
 11
1450.014591098739
 21
354.8977041636286
 31
0.0
  0
LINE
  5
22C7
330
18
100
AcDbEntity
  8
DRAW2
100
AcDbLine
 10
1452.566831098739
 20
375.8975241636286
 30
0.0
 11
1442.520991098739
 21
375.8975241636286
 31
0.0
  0
LINE
  5
22C8
330
18
100
AcDbEntity
  8
DRAW2
100
AcDbLine
 10
1452.566791098739
 20
371.8976441636286
 30
0.0
 11
1442.520991098739
 21
371.8976441636286
 31
0.0
  0
LINE
  5
22C9
330
18
100
AcDbEntity
  8
DRAW2
100
AcDbLine
 10
1452.566831098739
 20
368.8976441636286
 30
0.0
 11
1442.520991098739
 21
368.8976441636286
 31
0.0
  0
LINE
  5
22CA
330
18
100
AcDbEntity
  8
DRAW2
100
AcDbLine
 10
1452.566831098739
 20
364.8977041636286
 30
0.0
 11
1442.520991098739
 21
364.8977041636286
 31
0.0
  0
LINE
  5
22CB
330
18
100
AcDbEntity
  8
DRAW2
100
AcDbLine
 10
1438.020891098739
 20
371.8975841636286
 30
0.0
 11
1438.020891098739
 21
375.8975841636285
 31
0.0
  0
LINE
  5
22CC
330
18
100
AcDbEntity
  8
DRAW2
100
AcDbLine
 10
1442.520931098739
 20
371.8976441636286
 30
0.0
 11
1442.520931098739
 21
375.8976441636286
 31
0.0
  0
LINE
  5
22CD
330
18
100
AcDbEntity
  8
DRAW2
100
AcDbLine
 10
1438.020891098739
 20
364.8975841636286
 30
0.0
 11
1438.020891098739
 21
368.8975841636286
 31
0.0
  0
LINE
  5
22CE
330
18
100
AcDbEntity
  8
DRAW2
100
AcDbLine
 10
1442.520931098739
 20
364.8976441636286
 30
0.0
 11
1442.520931098739
 21
368.8976441636286
 31
0.0
  0
LINE
  5
22CF
330
18
100
AcDbEntity
  8
DRAW2
100
AcDbLine
 10
1452.566731098739
 20
371.8975841636286
 30
0.0
 11
1452.566731098739
 21
375.8975841636285
 31
0.0
  0
LINE
  5
22D0
330
18
100
AcDbEntity
  8
DRAW2
100
AcDbLine
 10
1450.014491098739
 20
371.8975841636286
 30
0.0
 11
1450.014491098739
 21
375.8976441636286
 31
0.0
  0
LINE
  5
22D1
330
18
100
AcDbEntity
  8
DRAW2
100
AcDbLine
 10
1452.566711098739
 20
364.8975841636286
 30
0.0
 11
1452.566711098739
 21
368.8977041636286
 31
0.0
  0
LINE
  5
22D2
330
18
100
AcDbEntity
  8
DRAW2
100
AcDbLine
 10
1450.014471098739
 20
364.8976441636286
 30
0.0
 11
1450.014471098739
 21
368.8975841636286
 31
0.0
  0
LINE
  5
22D3
330
18
100
AcDbEntity
  8
DRAW2
100
AcDbLine
 10
1452.770891098739
 20
382.3975841636286
 30
0.0
 11
1451.770871098739
 21
383.3975841636286
 31
0.0
  0
VIEWPORT
  5
BD5
330
15
100
AcDbEntity
 67
     1
  8
0
100
AcDbViewport
 10
296.9950122070312
 20
209.9950000476836
 30
0.0
 40
632.1056339387388
 41
423.1939163498098
 68
     1
 69
     1
 12
296.9950122070312
 22
209.9950000476836
 13
0.0
 23
0.0
 14
10.0
 24
10.0
 15
10.0
 25
10.0
 16
0.0
 26
0.0
 36
1.0
 17
0.0
 27
0.0
 37
0.0
 42
50.0
 43
0.0
 44
0.0
 45
423.1939163498098
 50
0.0
 51
0.0
 72
   100
 90
    32768
  1

281
     0
 71
     1
 74
     0
110
0.0
120
0.0
130
0.0
111
1.0
121
0.0
131
0.0
112
0.0
122
1.0
132
0.0
 79
     0
146
0.0
  0
ENDSEC
  0
SECTION
  2
OBJECTS
  0
DICTIONARY
  5
C
330
0
100
AcDbDictionary
281
     1
  3
ACAD_GROUP
350
D
  3
ACAD_LAYOUT
350
1401
  3
ACAD_MLINESTYLE
350
E
  3
ACAD_PLOTSETTINGS
350
1402
  3
ACAD_PLOTSTYLENAME
350
13FF
  0
DICTIONARY
  5
D
102
{ACAD_REACTORS
330
C
102
}
330
C
100
AcDbDictionary
281
     1
  3
*A1
350
1C66
  0
DICTIONARY
  5
1401
102
{ACAD_REACTORS
330
C
102
}
330
C
100
AcDbDictionary
281
     1
  3
Model
350
1403
  3
ﾚｲｱｳﾄ1
350
1404
  0
DICTIONARY
  5
E
102
{ACAD_REACTORS
330
C
102
}
330
C
100
AcDbDictionary
281
     1
  3
STANDARD
350
1B
  0
DICTIONARY
  5
1402
102
{ACAD_REACTORS
330
C
102
}
330
C
100
AcDbDictionary
281
     1
  3
AdobePDF_A2
350
140A
  0
ACDBDICTIONARYWDFLT
  5
13FF
102
{ACAD_REACTORS
330
C
102
}
330
C
100
AcDbDictionary
281
     1
  3
Normal
350
1400
100
AcDbDictionaryWithDefault
340
1400
  0
GROUP
  5
1C66
102
{ACAD_REACTORS
330
D
102
}
330
D
100
AcDbGroup
300

 70
     1
 71
     1
  0
LAYOUT
  5
1403
102
{ACAD_REACTORS
330
1401
102
}
330
1401
100
AcDbPlotSettings
  1

  2
Acrobat Distiller
  4

  6

 40
0.0
 41
0.0
 42
0.0
 43
0.0
 44
0.0
 45
0.0
 46
0.0
 47
0.0
 48
0.0
 49
0.0
140
0.0
141
0.0
142
1.0
143
1.0
 70
  1712
 72
     0
 73
     0
 74
     0
  7

 75
     0
147
1.0
148
0.0
149
0.0
100
AcDbLayout
  1
Model
 70
     1
 71
     0
 10
0.0
 20
0.0
 11
12.0
 21
9.0
 12
0.0
 22
0.0
 32
0.0
 14
0.0
 24
0.0
 34
0.0
 15
0.0
 25
0.0
 35
0.0
146
0.0
 13
0.0
 23
0.0
 33
0.0
 16
1.0
 26
0.0
 36
0.0
 17
0.0
 27
1.0
 37
0.0
 76
     0
330
18
  0
LAYOUT
  5
1404
102
{ACAD_REACTORS
330
1401
102
}
330
1401
100
AcDbPlotSettings
  1
AdobePDF_A2
  2
Adobe PDF
  4
User66
  6
A1
 40
3.174999952316284
 41
3.174999952316284
 42
3.17498779296875
 43
3.17498779296875
 44
420.0
 45
594.0
 46
-3.169999999999999
 47
-3.169999999999999
 48
0.0
 49
0.0
140
594.0
141
420.0
142
1.0
143
1.0
 70
   692
 72
     1
 73
     1
 74
     4
  7
LineScale_10.ctb
 75
    16
147
1.0
148
0.0
149
0.0
100
AcDbLayout
  1
ﾚｲｱｳﾄ1
 70
     1
 71
     1
 10
-0.0049877929687501
 20
-0.0049999523162843
 11
593.9950122070312
 21
419.9950000476837
 12
0.0
 22
0.0
 32
0.0
 14
1.000000000000000E+20
 24
1.000000000000000E+20
 34
1.000000000000000E+20
 15
-1.000000000000000E+20
 25
-1.000000000000000E+20
 35
-1.000000000000000E+20
146
0.0
 13
0.0
 23
0.0
 33
0.0
 16
1.0
 26
0.0
 36
0.0
 17
0.0
 27
1.0
 37
0.0
 76
     0
330
15
331
BD5
  0
MLINESTYLE
  5
1B
102
{ACAD_REACTORS
330
E
102
}
330
E
100
AcDbMlineStyle
  2
STANDARD
 70
     0
  3

 62
     0
 51
90.0
 52
90.0
 71
     2
 49
0.5
 62
   256
  6
BYLAYER
 49
-0.5
 62
   256
  6
BYLAYER
  0
PLOTSETTINGS
  5
140A
102
{ACAD_REACTORS
330
1402
102
}
330
1402
100
AcDbPlotSettings
  1
AdobePDF_A2
  2
Adobe PDF
  4
User66
  6
A1
 40
3.174999952316284
 41
3.174999952316284
 42
3.17498779296875
 43
3.17498779296875
 44
420.0
 45
594.0
 46
-3.169999999999999
 47
-3.169999999999999
 48
0.0
 49
0.0
140
594.0
141
420.0
142
1.0
143
1.0
 70
   692
 72
     1
 73
     1
 74
     4
  7
LineScale_10.ctb
 75
    16
147
1.0
148
0.0
149
0.0
  0
ACDBPLACEHOLDER
  5
1400
102
{ACAD_REACTORS
330
13FF
102
}
330
13FF
  0
ENDSEC
  0
EOF
