  0
SECTION
  2
HEADER
  9
$ACADVER
  1
AC1015
  9
$ACADMAINTVER
 70
     6
  9
$DWGCODEPAGE
  3
ANSI_932
  9
$INSBASE
 10
0.0
 20
0.0
 30
0.0
  9
$EXTMIN
 10
1717.572478392049
 20
80.90989860897252
 30
-0.0015258207003583
  9
$EXTMAX
 10
2689.306956891682
 20
989.8649974074979
 30
0.0000000349246037
  9
$LIMMIN
 10
0.0
 20
0.0
  9
$LIMMAX
 10
841.0
 20
594.0
  9
$ORTHOMODE
 70
     1
  9
$REGENMODE
 70
     1
  9
$FILLMODE
 70
     1
  9
$QTEXTMODE
 70
     0
  9
$MIRRTEXT
 70
     0
  9
$LTSCALE
 40
7.0
  9
$ATTMODE
 70
     1
  9
$TEXTSIZE
 40
3.2
  9
$TRACEWID
 40
0.05
  9
$TEXTSTYLE
  7
DIMFONT
  9
$CLAYER
  8
DRAW2
  9
$CELTYPE
  6
BYLAYER
  9
$CECOLOR
 62
   256
  9
$CELTSCALE
 40
1.0
  9
$DISPSILH
 70
     0
  9
$DIMSCALE
 40
2.5
  9
$DIMASZ
 40
3.0
  9
$DIMEXO
 40
0.0
  9
$DIMDLI
 40
10.0
  9
$DIMRND
 40
0.0
  9
$DIMDLE
 40
0.0
  9
$DIMEXE
 40
1.0
  9
$DIMTP
 40
0.5
  9
$DIMTM
 40
0.0
  9
$DIMTXT
 40
3.2
  9
$DIMCEN
 40
0.0
  9
$DIMTSZ
 40
0.0
  9
$DIMTOL
 70
     0
  9
$DIMLIM
 70
     0
  9
$DIMTIH
 70
     0
  9
$DIMTOH
 70
     0
  9
$DIMSE1
 70
     0
  9
$DIMSE2
 70
     1
  9
$DIMTAD
 70
     3
  9
$DIMZIN
 70
     8
  9
$DIMBLK
  1

  9
$DIMASO
 70
     1
  9
$DIMSHO
 70
     1
  9
$DIMPOST
  1

  9
$DIMAPOST
  1

  9
$DIMALT
 70
     0
  9
$DIMALTD
 70
     2
  9
$DIMALTF
 40
25.4
  9
$DIMLFAC
 40
1.0
  9
$DIMTOFL
 70
     1
  9
$DIMTVP
 40
0.0
  9
$DIMTIX
 70
     0
  9
$DIMSOXD
 70
     0
  9
$DIMSAH
 70
     1
  9
$DIMBLK1
  1
OPEN
  9
$DIMBLK2
  1
NONE
  9
$DIMSTYLE
  2
２44５
  9
$DIMCLRD
 70
     0
  9
$DIMCLRE
 70
     0
  9
$DIMCLRT
 70
     0
  9
$DIMTFAC
 40
0.75
  9
$DIMGAP
 40
1.0
  9
$DIMJUST
 70
     0
  9
$DIMSD1
 70
     0
  9
$DIMSD2
 70
     1
  9
$DIMTOLJ
 70
     1
  9
$DIMTZIN
 70
     8
  9
$DIMALTZ
 70
     0
  9
$DIMALTTZ
 70
     0
  9
$DIMUPT
 70
     0
  9
$DIMDEC
 70
     0
  9
$DIMTDEC
 70
     3
  9
$DIMALTU
 70
     2
  9
$DIMALTTD
 70
     2
  9
$DIMTXSTY
  7
DIMFONT
  9
$DIMAUNIT
 70
     0
  9
$DIMADEC
 70
     0
  9
$DIMALTRND
 40
0.0
  9
$DIMAZIN
 70
     0
  9
$DIMDSEP
 70
    46
  9
$DIMATFIT
 70
     3
  9
$DIMFRAC
 70
     0
  9
$DIMLDRBLK
  1
OPEN
  9
$DIMLUNIT
 70
     2
  9
$DIMLWD
 70
    -2
  9
$DIMLWE
 70
    -2
  9
$DIMTMOVE
 70
     0
  9
$LUNITS
 70
     2
  9
$LUPREC
 70
     4
  9
$SKETCHINC
 40
0.1
  9
$FILLETRAD
 40
1.0
  9
$AUNITS
 70
     0
  9
$AUPREC
 70
     4
  9
$MENU
  1
acad
  9
$ELEVATION
 40
0.0
  9
$PELEVATION
 40
0.0
  9
$THICKNESS
 40
0.0
  9
$LIMCHECK
 70
     0
  9
$CHAMFERA
 40
0.0
  9
$CHAMFERB
 40
0.0
  9
$CHAMFERC
 40
0.0
  9
$CHAMFERD
 40
0.0
  9
$SKPOLY
 70
     0
  9
$TDCREATE
 40
2451359.367578333
  9
$TDUCREATE
 40
2451358.992578333
  9
$TDUPDATE
 40
2454972.709417129
  9
$TDUUPDATE
 40
2454972.334417129
  9
$TDINDWG
 40
0.0585054051
  9
$TDUSRTIMER
 40
0.0585054051
  9
$USRTIMER
 70
     1
  9
$ANGBASE
 50
0.0
  9
$ANGDIR
 70
     0
  9
$PDMODE
 70
    35
  9
$PDSIZE
 40
0.5
  9
$PLINEWID
 40
0.0
  9
$SPLFRAME
 70
     0
  9
$SPLINETYPE
 70
     6
  9
$SPLINESEGS
 70
     8
  9
$HANDSEED
  5
85F7
  9
$SURFTAB1
 70
     6
  9
$SURFTAB2
 70
     6
  9
$SURFTYPE
 70
     6
  9
$SURFU
 70
     6
  9
$SURFV
 70
     6
  9
$UCSBASE
  2

  9
$UCSNAME
  2

  9
$UCSORG
 10
0.0
 20
0.0
 30
0.0
  9
$UCSXDIR
 10
1.0
 20
0.0
 30
0.0
  9
$UCSYDIR
 10
0.0
 20
1.0
 30
0.0
  9
$UCSORTHOREF
  2

  9
$UCSORTHOVIEW
 70
     0
  9
$UCSORGTOP
 10
0.0
 20
0.0
 30
0.0
  9
$UCSORGBOTTOM
 10
0.0
 20
0.0
 30
0.0
  9
$UCSORGLEFT
 10
0.0
 20
0.0
 30
0.0
  9
$UCSORGRIGHT
 10
0.0
 20
0.0
 30
0.0
  9
$UCSORGFRONT
 10
0.0
 20
0.0
 30
0.0
  9
$UCSORGBACK
 10
0.0
 20
0.0
 30
0.0
  9
$PUCSBASE
  2

  9
$PUCSNAME
  2

  9
$PUCSORG
 10
0.0
 20
0.0
 30
0.0
  9
$PUCSXDIR
 10
1.0
 20
0.0
 30
0.0
  9
$PUCSYDIR
 10
0.0
 20
1.0
 30
0.0
  9
$PUCSORTHOREF
  2

  9
$PUCSORTHOVIEW
 70
     0
  9
$PUCSORGTOP
 10
0.0
 20
0.0
 30
0.0
  9
$PUCSORGBOTTOM
 10
0.0
 20
0.0
 30
0.0
  9
$PUCSORGLEFT
 10
0.0
 20
0.0
 30
0.0
  9
$PUCSORGRIGHT
 10
0.0
 20
0.0
 30
0.0
  9
$PUCSORGFRONT
 10
0.0
 20
0.0
 30
0.0
  9
$PUCSORGBACK
 10
0.0
 20
0.0
 30
0.0
  9
$USERI1
 70
     0
  9
$USERI2
 70
     0
  9
$USERI3
 70
     0
  9
$USERI4
 70
     0
  9
$USERI5
 70
     0
  9
$USERR1
 40
0.0
  9
$USERR2
 40
0.0
  9
$USERR3
 40
0.0
  9
$USERR4
 40
0.0
  9
$USERR5
 40
0.0
  9
$WORLDVIEW
 70
     1
  9
$SHADEDGE
 70
     3
  9
$SHADEDIF
 70
    70
  9
$TILEMODE
 70
     1
  9
$MAXACTVP
 70
    16
  9
$PINSBASE
 10
0.0
 20
0.0
 30
0.0
  9
$PLIMCHECK
 70
     0
  9
$PEXTMIN
 10
1.000000000000000E+20
 20
1.000000000000000E+20
 30
1.000000000000000E+20
  9
$PEXTMAX
 10
-1.000000000000000E+20
 20
-1.000000000000000E+20
 30
-1.000000000000000E+20
  9
$PLIMMIN
 10
-0.0049877929687501
 20
-0.0049999523162843
  9
$PLIMMAX
 10
593.9950122070312
 20
419.9950000476837
  9
$UNITMODE
 70
     0
  9
$VISRETAIN
 70
     0
  9
$PLINEGEN
 70
     1
  9
$PSLTSCALE
 70
     1
  9
$TREEDEPTH
 70
  3020
  9
$CMLSTYLE
  2
STANDARD
  9
$CMLJUST
 70
     0
  9
$CMLSCALE
 40
1.0
  9
$PROXYGRAPHICS
 70
     1
  9
$MEASUREMENT
 70
     1
  9
$CELWEIGHT
370
    -1
  9
$ENDCAPS
280
     0
  9
$JOINSTYLE
280
     0
  9
$LWDISPLAY
290
     0
  9
$INSUNITS
 70
     0
  9
$HYPERLINKBASE
  1

  9
$STYLESHEET
  1

  9
$XEDIT
290
     1
  9
$CEPSNTYPE
380
     0
  9
$PSTYLEMODE
290
     1
  9
$FINGERPRINTGUID
  2
{ACCCEF9C-5232-44A9-972F-18619C690BD9}
  9
$VERSIONGUID
  2
{E31F3872-F349-4458-9F86-CCA5C3916BF4}
  9
$EXTNAMES
290
     1
  9
$PSVPSCALE
 40
0.0
  9
$OLESTARTUP
290
     0
  0
ENDSEC
  0
SECTION
  2
CLASSES
  0
CLASS
  1
ACDBDICTIONARYWDFLT
  2
AcDbDictionaryWithDefault
  3
AutoCAD 2000
 90
        0
280
     0
281
     0
  0
CLASS
  1
ACDBPLACEHOLDER
  2
AcDbPlaceHolder
  3
AutoCAD 2000
 90
        0
280
     0
281
     0
  0
CLASS
  1
LAYOUT
  2
AcDbLayout
  3
AutoCAD 2000
 90
        0
280
     0
281
     0
  0
CLASS
  1
PLOTSETTINGS
  2
AcDbPlotSettings
  3
AutoCAD 2000
 90
        0
280
     0
281
     0
  0
ENDSEC
  0
SECTION
  2
TABLES
  0
TABLE
  2
VPORT
  5
8
330
0
100
AcDbSymbolTable
 70
     2
  0
VPORT
  5
85F6
330
8
100
AcDbSymbolTableRecord
100
AcDbViewportTableRecord
  2
*Active
 70
     0
 10
0.0
 20
0.0
 11
1.0
 21
1.0
 12
2203.439717641866
 22
535.3874480082351
 13
0.0
 23
0.0
 14
5.0
 24
5.0
 15
10.0
 25
10.0
 16
0.0
 26
0.0
 36
1.0
 17
0.0
 27
0.0
 37
0.0
 40
915.8673048730388
 41
1.493654822335025
 42
50.0
 43
0.0
 44
0.0
 50
0.0
 51
0.0
 71
     0
 72
   100
 73
     1
 74
     0
 75
     0
 76
     0
 77
     0
 78
     0
281
     0
 65
     1
110
0.0
120
0.0
130
0.0
111
1.0
121
0.0
131
0.0
112
0.0
122
1.0
132
0.0
 79
     0
146
0.0
  0
ENDTAB
  0
TABLE
  2
LTYPE
  5
5
330
0
100
AcDbSymbolTable
 70
    12
  0
LTYPE
  5
12
330
5
100
AcDbSymbolTableRecord
100
AcDbLinetypeTableRecord
  2
BYBLOCK
 70
     0
  3

 72
    65
 73
     0
 40
0.0
  0
LTYPE
  5
13
330
5
100
AcDbSymbolTableRecord
100
AcDbLinetypeTableRecord
  2
BYLAYER
 70
     0
  3

 72
    65
 73
     0
 40
0.0
  0
LTYPE
  5
14
330
5
100
AcDbSymbolTableRecord
100
AcDbLinetypeTableRecord
  2
CONTINUOUS
 70
     0
  3
Solid line
 72
    65
 73
     0
 40
0.0
  0
ENDTAB
  0
TABLE
  2
LAYER
  5
2
102
{ACAD_XDICTIONARY
360
7C33
102
}
330
0
100
AcDbSymbolTable
 70
    18
  0
LAYER
  5
F
330
2
100
AcDbSymbolTableRecord
100
AcDbLayerTableRecord
  2
0
 70
     0
 62
     7
  6
CONTINUOUS
370
    -3
390
6B4E
  0
LAYER
  5
30
330
2
100
AcDbSymbolTableRecord
100
AcDbLayerTableRecord
  2
DRAW2
 70
     0
 62
     4
  6
CONTINUOUS
370
    -3
390
6B4E
  0
LAYER
  5
B93
330
2
100
AcDbSymbolTableRecord
100
AcDbLayerTableRecord
  2
DRAW3
 70
     0
 62
     1
  6
CONTINUOUS
370
    -3
390
6B4E
  0
LAYER
  5
6260
330
2
100
AcDbSymbolTableRecord
100
AcDbLayerTableRecord
  2
DEFPOINTS
 70
     0
 62
     7
  6
CONTINUOUS
290
     0
370
    -3
390
6B4E
  0
ENDTAB
  0
TABLE
  2
STYLE
  5
3
330
0
100
AcDbSymbolTable
 70
     4
  0
STYLE
  5
10
330
3
100
AcDbSymbolTableRecord
100
AcDbTextStyleTableRecord
  2
STANDARD
 70
     0
 40
0.0
 41
1.0
 50
0.0
 71
     0
 42
0.2
  3
ROMANS.SHX
  4

  0
STYLE
  5
20
330
3
100
AcDbSymbolTableRecord
100
AcDbTextStyleTableRecord
  2
DIMFONT
 70
     0
 40
0.0
 41
1.0
 50
10.0
 71
     0
 42
3.2
  3
romans.shx
  4
extfont.shx
  0
ENDTAB
  0
TABLE
  2
VIEW
  5
6
330
0
100
AcDbSymbolTable
 70
     4
  0
VIEW
  5
24
330
6
100
AcDbSymbolTableRecord
100
AcDbViewTableRecord
  2
OLE1
 70
     0
 40
300.0
 10
232.1482602118003
 20
150.0
 41
464.2965204236006
 11
0.0
 21
0.0
 31
1.0
 12
0.0
 22
0.0
 32
0.0
 42
50.0
 43
0.0
 44
0.0
 50
0.0
 71
     0
281
     0
 72
     0
  0
VIEW
  5
E0E
330
6
100
AcDbSymbolTableRecord
100
AcDbViewTableRecord
  2
A1
 70
     1
 40
660.0
 10
511.7119266055046
 20
297.0
 41
1137.137614678899
 11
0.0
 21
0.0
 31
1.0
 12
0.0
 22
0.0
 32
0.0
 42
50.0
 43
0.0
 44
0.0
 50
0.0
 71
     0
281
     0
 72
     0
  0
VIEW
  5
E0F
330
6
100
AcDbSymbolTableRecord
100
AcDbViewTableRecord
  2
A2
 70
     1
 40
466.6666666666666
 10
361.8165137614679
 20
210.0
 41
804.0366972477063
 11
0.0
 21
0.0
 31
1.0
 12
0.0
 22
0.0
 32
0.0
 42
50.0
 43
0.0
 44
0.0
 50
0.0
 71
     0
281
     0
 72
     0
  0
VIEW
  5
E10
330
6
100
AcDbSymbolTableRecord
100
AcDbViewTableRecord
  2
A3
 70
     1
 40
330.0
 10
255.8559633027523
 20
148.5
 41
568.5688073394495
 11
0.0
 21
0.0
 31
1.0
 12
0.0
 22
0.0
 32
0.0
 42
50.0
 43
0.0
 44
0.0
 50
0.0
 71
     0
281
     0
 72
     0
  0
ENDTAB
  0
TABLE
  2
UCS
  5
7
330
0
100
AcDbSymbolTable
 70
     0
  0
ENDTAB
  0
TABLE
  2
APPID
  5
9
330
0
100
AcDbSymbolTable
 70
     1
  0
APPID
  5
11
330
9
100
AcDbSymbolTableRecord
100
AcDbRegAppTableRecord
  2
ACAD
 70
     0
  0
ENDTAB
  0
TABLE
  2
DIMSTYLE
  5
A
330
0
100
AcDbSymbolTable
 70
    11
100
AcDbDimStyleTable
 71
     1
340
6265
  0
DIMSTYLE
105
6263
330
A
100
AcDbSymbolTableRecord
100
AcDbDimStyleTableRecord
  2
STANDARD
 70
     0
340
10
  0
DIMSTYLE
105
6265
102
{ACAD_REACTORS
330
6A3E
330
6A3B
330
6A2E
330
6A2D
330
6A2A
330
6A29
330
6A28
330
6A2C
330
6A2B
330
7B91
330
6A27
330
6A37
330
7B84
102
}
330
A
100
AcDbSymbolTableRecord
100
AcDbDimStyleTableRecord
  2
２44５
 70
     0
 40
2.5
 41
3.0
 42
0.0
 43
10.0
 44
1.0
 47
0.5
 73
     0
 74
     0
 76
     1
 77
     3
 78
     8
140
3.2
141
0.0
146
0.75
147
1.0
172
     1
173
     1
271
     0
272
     3
282
     1
284
     8
340
20
341
EAC
343
EAC
344
1102
  0
ENDTAB
  0
TABLE
  2
BLOCK_RECORD
  5
1
330
0
100
AcDbSymbolTable
 70
   347
  0
BLOCK_RECORD
  5
18
330
1
100
AcDbSymbolTableRecord
100
AcDbBlockTableRecord
  2
*MODEL_SPACE
340
6B51
  0
BLOCK_RECORD
  5
15
330
1
100
AcDbSymbolTableRecord
100
AcDbBlockTableRecord
  2
*PAPER_SPACE
340
6B52
  0
BLOCK_RECORD
  5
EAC
330
1
100
AcDbSymbolTableRecord
100
AcDbBlockTableRecord
  2
_OPEN
340
0
102
{BLKREFS
331
3104
331
3105
331
3110
331
3111
331
311C
331
311D
331
3128
331
3129
331
3134
331
3135
331
3140
331
3141
331
314B
331
3155
331
316B
331
316C
331
3831
331
3832
331
7F7F
331
7F80
331
7F94
331
7FAE
331
7FAF
331
7FC4
331
7FCD
331
7FDF
331
7FE7
331
7FE8
331
7FF0
331
7FF1
331
7FF9
331
7FFA
331
8002
331
8003
331
800B
331
800C
331
801D
331
801E
331
8026
331
8027
331
802F
331
8030
331
8038
331
8039
331
8041
331
8042
331
804D
331
8055
331
8056
331
8577
331
8578
331
8580
331
8581
331
8589
331
858A
331
8592
331
8593
331
859B
331
859C
331
85A4
331
85A5
331
85AD
331
85AE
331
85B6
331
85B7
331
85BF
331
85C0
331
85C8
331
85C9
331
85D1
331
85D2
331
85DA
331
85DB
331
85E3
331
85E4
102
}
  0
BLOCK_RECORD
  5
1102
330
1
100
AcDbSymbolTableRecord
100
AcDbBlockTableRecord
  2
_NONE
340
0
  0
ENDTAB
  0
ENDSEC
  0
SECTION
  2
BLOCKS
  0
BLOCK
  5
36
330
18
100
AcDbEntity
  8
0
100
AcDbBlockBegin
  2
*MODEL_SPACE
 70
     0
 10
0.0
 20
0.0
 30
0.0
  3
*MODEL_SPACE
  1

  0
ENDBLK
  5
37
330
18
100
AcDbEntity
  8
0
100
AcDbBlockEnd
  0
BLOCK
  5
34
330
15
100
AcDbEntity
 67
     1
  8
0
100
AcDbBlockBegin
  2
*PAPER_SPACE
 70
     0
 10
0.0
 20
0.0
 30
0.0
  3
*PAPER_SPACE
  1

  0
ENDBLK
  5
35
330
15
100
AcDbEntity
 67
     1
  8
0
100
AcDbBlockEnd
  0
BLOCK
  5
EB0
330
EAC
100
AcDbEntity
  8
0
100
AcDbBlockBegin
  2
_OPEN
 70
     0
 10
0.0
 20
0.0
 30
0.0
  3
_OPEN
  1

  0
LINE
  5
EAD
330
EAC
100
AcDbEntity
  8
0
  6
ByBlock
 62
     0
100
AcDbLine
 10
-1.0
 20
0.1666666666666666
 30
0.0
 11
0.0
 21
0.0
 31
0.0
  0
LINE
  5
EAE
330
EAC
100
AcDbEntity
  8
0
  6
ByBlock
 62
     0
100
AcDbLine
 10
0.0
 20
0.0
 30
0.0
 11
-1.0
 21
-0.1666666666666666
 31
0.0
  0
LINE
  5
EAF
330
EAC
100
AcDbEntity
  8
0
  6
ByBlock
 62
     0
100
AcDbLine
 10
0.0
 20
0.0
 30
0.0
 11
-1.0
 21
0.0
 31
0.0
  0
ENDBLK
  5
EB1
330
EAC
100
AcDbEntity
  8
0
100
AcDbBlockEnd
  0
BLOCK
  5
1104
330
1102
100
AcDbEntity
  8
0
100
AcDbBlockBegin
  2
_NONE
 70
     0
 10
0.0
 20
0.0
 30
0.0
  3
_NONE
  1

  0
CIRCLE
  5
1103
330
1102
100
AcDbEntity
  8
0
  6
ByBlock
 62
     0
100
AcDbCircle
 10
0.0
 20
0.0
 30
0.0
 40
0.25
  0
ENDBLK
  5
1105
330
1102
100
AcDbEntity
  8
0
100
AcDbBlockEnd
  0
ENDSEC
  0
SECTION
  2
ENTITIES
  0
TEXT
  5
6266
330
18
100
AcDbEntity
  8
0
100
AcDbText
 10
338.6765186030352
 20
200.8059015933533
 30
0.0
 40
3.2
  1

 51
10.0
  7
DIMFONT
100
AcDbText
  0
TEXT
  5
6267
330
18
100
AcDbEntity
  8
0
100
AcDbText
 10
281.5596257700369
 20
339.0583298581392
 30
0.0
 40
3.2
  1

 51
10.0
  7
DIMFONT
100
AcDbText
  0
TEXT
  5
6268
330
18
100
AcDbEntity
  8
0
100
AcDbText
 10
280.0852357150527
 20
337.0939882877213
 30
0.0
 40
6.4
  1

 51
10.0
  7
DIMFONT
100
AcDbText
  0
MTEXT
  5
62CD
330
18
100
AcDbEntity
  8
0
100
AcDbMText
 10
2736.045580034871
 20
1227.484060428428
 30
0.0
 40
4.5248
 41
0.0
 71
     9
 72
     5
  1

  7
DIMFONT
 73
     1
 44
1.0
  0
MTEXT
  5
62CE
330
18
100
AcDbEntity
  8
0
100
AcDbMText
 10
1594.758686072413
 20
1415.130744035751
 30
0.0
 40
4.5248
 41
0.0
 71
     9
 72
     5
  1

  7
DIMFONT
 73
     1
 44
1.0
  0
TEXT
  5
62CF
330
18
100
AcDbEntity
  8
0
100
AcDbText
 10
1352.342523398773
 20
270.3674241405383
 30
0.0
 40
3.2
  1

 51
10.0
  7
DIMFONT
100
AcDbText
  0
TEXT
  5
62D0
330
18
100
AcDbEntity
  8
0
100
AcDbText
 10
1295.225630565774
 20
408.6198524053242
 30
0.0
 40
3.2
  1

 51
10.0
  7
DIMFONT
100
AcDbText
  0
TEXT
  5
62D1
330
18
100
AcDbEntity
  8
0
100
AcDbText
 10
1293.75124051079
 20
406.6555108349063
 30
0.0
 40
6.4
  1

 51
10.0
  7
DIMFONT
100
AcDbText
  0
MTEXT
  5
62D3
330
18
100
AcDbEntity
  8
0
100
AcDbMText
 10
3749.711584830608
 20
1297.045582975613
 30
0.0
 40
4.5248
 41
0.0
 71
     9
 72
     5
  1

  7
DIMFONT
 73
     1
 44
1.0
  0
MTEXT
  5
62D4
330
18
100
AcDbEntity
  8
0
100
AcDbMText
 10
2608.424690868151
 20
1484.692266582936
 30
0.0
 40
4.5248
 41
0.0
 71
     9
 72
     5
  1

  7
DIMFONT
 73
     1
 44
1.0
  0
TEXT
  5
62D5
330
18
100
AcDbEntity
  8
0
100
AcDbText
 10
2801.235932157932
 20
913.1969088890077
 30
0.0
 40
3.2
  1

 51
10.0
  7
DIMFONT
100
AcDbText
  0
TEXT
  5
62D6
330
18
100
AcDbEntity
  8
0
100
AcDbText
 10
2744.119039324934
 20
1051.449337153793
 30
0.0
 40
3.2
  1

 51
10.0
  7
DIMFONT
100
AcDbText
  0
TEXT
  5
62D7
330
18
100
AcDbEntity
  8
0
100
AcDbText
 10
2742.64464926995
 20
1049.484995583375
 30
0.0
 40
6.4
  1

 51
10.0
  7
DIMFONT
100
AcDbText
  0
TEXT
  5
62D9
330
18
100
AcDbEntity
  8
0
100
AcDbText
 10
5466.465706031409
 20
2301.072714193962
 30
0.0
 40
3.2
  1

 51
10.0
  7
DIMFONT
100
AcDbText
  0
TEXT
  5
62DA
330
18
100
AcDbEntity
  8
0
100
AcDbText
 10
5409.348813198413
 20
2439.325142458748
 30
0.0
 40
3.2
  1

 51
10.0
  7
DIMFONT
100
AcDbText
  0
TEXT
  5
62DB
330
18
100
AcDbEntity
  8
0
100
AcDbText
 10
5407.874423143426
 20
2437.360800888331
 30
0.0
 40
6.4
  1

 51
10.0
  7
DIMFONT
100
AcDbText
  0
TEXT
  5
62DD
330
18
100
AcDbEntity
  8
0
100
AcDbText
 10
7711.140187278212
 20
3877.123258845653
 30
0.0
 40
3.2
  1

 51
10.0
  7
DIMFONT
100
AcDbText
  0
TEXT
  5
62DE
330
18
100
AcDbEntity
  8
0
100
AcDbText
 10
7654.023294445214
 20
4015.37568711044
 30
0.0
 40
3.2
  1

 51
10.0
  7
DIMFONT
100
AcDbText
  0
TEXT
  5
62DF
330
18
100
AcDbEntity
  8
0
100
AcDbText
 10
7652.548904390229
 20
4013.411345540021
 30
0.0
 40
6.4
  1

 51
10.0
  7
DIMFONT
100
AcDbText
  0
TEXT
  5
62E0
330
18
100
AcDbEntity
  8
0
100
AcDbText
 10
7574.176516424405
 20
5031.117316757153
 30
0.0
 40
3.2
  1

 51
10.0
  7
DIMFONT
100
AcDbText
  0
TEXT
  5
62E2
330
18
100
AcDbEntity
  8
0
100
AcDbText
 10
2538.121186704572
 20
258.8807192040344
 30
0.0
 40
3.2
  1

 51
10.0
  7
DIMFONT
100
AcDbText
  0
TEXT
  5
62E3
330
18
100
AcDbEntity
  8
0
100
AcDbText
 10
2481.004293871573
 20
397.1331474688203
 30
0.0
 40
3.2
  1

 51
10.0
  7
DIMFONT
100
AcDbText
  0
TEXT
  5
62E4
330
18
100
AcDbEntity
  8
0
100
AcDbText
 10
2479.529903816589
 20
395.1688058984024
 30
0.0
 40
6.4
  1

 51
10.0
  7
DIMFONT
100
AcDbText
  0
TEXT
  5
62E7
330
18
100
AcDbEntity
  8
0
100
AcDbText
 10
5203.350960578049
 20
1646.756524508989
 30
0.0
 40
3.2
  1

 51
10.0
  7
DIMFONT
100
AcDbText
  0
TEXT
  5
62E8
330
18
100
AcDbEntity
  8
0
100
AcDbText
 10
5146.234067745051
 20
1785.008952773775
 30
0.0
 40
3.2
  1

 51
10.0
  7
DIMFONT
100
AcDbText
  0
TEXT
  5
62E9
330
18
100
AcDbEntity
  8
0
100
AcDbText
 10
5144.759677690067
 20
1783.044611203357
 30
0.0
 40
6.4
  1

 51
10.0
  7
DIMFONT
100
AcDbText
  0
TEXT
  5
62EB
330
18
100
AcDbEntity
  8
0
100
AcDbText
 10
7448.025441824852
 20
3222.80706916068
 30
0.0
 40
3.2
  1

 51
10.0
  7
DIMFONT
100
AcDbText
  0
TEXT
  5
62EC
330
18
100
AcDbEntity
  8
0
100
AcDbText
 10
7390.908548991854
 20
3361.059497425467
 30
0.0
 40
3.2
  1

 51
10.0
  7
DIMFONT
100
AcDbText
  0
TEXT
  5
62ED
330
18
100
AcDbEntity
  8
0
100
AcDbText
 10
7389.434158936869
 20
3359.095155855048
 30
0.0
 40
6.4
  1

 51
10.0
  7
DIMFONT
100
AcDbText
  0
TEXT
  5
62EE
330
18
100
AcDbEntity
  8
0
100
AcDbText
 10
7311.061770971047
 20
4376.801127072179
 30
0.0
 40
3.2
  1

 51
10.0
  7
DIMFONT
100
AcDbText
  0
ARC
  5
8061
330
18
100
AcDbEntity
  8
DRAW2
100
AcDbCircle
 10
1947.279548969638
 20
470.3856570872415
 30
0.0
 40
20.5
100
AcDbArc
 50
310.0631
 51
229.9368999999999
  0
LINE
  5
8068
330
18
100
AcDbEntity
  8
DRAW2
100
AcDbLine
 10
1818.512548969638
 20
166.3856570872436
 30
0.0
 11
1837.323769446638
 21
166.3856570872434
 31
0.0
  0
ARC
  5
806B
330
18
100
AcDbEntity
  8
DRAW2
100
AcDbCircle
 10
1827.362128969635
 20
-40.02853291275648
 30
0.0
 40
200.0
100
AcDbArc
 50
85.48927182602595
 51
92.53604592602897
  0
LWPOLYLINE
  5
806C
330
18
100
AcDbEntity
  8
DRAW2
100
AcDbPolyline
 90
        7
 70
     0
 43
0.0
 10
1820.593316594004
 20
210.8856230872414
 42
0.0152262374598715
 10
1823.250052424469
 20
201.1733060941654
 42
0.0116718239494714
 10
1825.636922068096
 20
193.9902234534642
 42
0.0119095520407942
 10
1828.359527560626
 20
186.9276010162897
 42
0.0121804265706793
 10
1831.41915116198
 20
180.0043161363841
 42
0.0125150910431169
 10
1834.816788218448
 20
173.240549753976
 42
0.012855612117444
 10
1838.552742329014
 20
166.6578692747419
  0
LWPOLYLINE
  5
806D
330
18
100
AcDbEntity
  8
DRAW2
100
AcDbPolyline
 90
        7
 70
     0
 43
0.0
 10
1819.354337884846
 20
210.8856230872417
 42
0.015305228946278
 10
1822.022972587279
 20
201.1709705958868
 42
0.0117351161547177
 10
1824.421814423653
 20
193.9853067432017
 42
0.0119777117552355
 10
1827.158330994985
 20
186.9213797805517
 42
0.0122504159696141
 10
1830.233829136291
 20
179.9983130833628
 42
0.0125875449320639
 10
1833.649242072385
 20
173.2365241856254
 42
0.0129366875597969
 10
1837.40485414542
 20
166.6578692747419
  0
LINE
  5
806E
330
18
100
AcDbEntity
  8
DRAW2
100
AcDbLine
 10
2109.563553142631
 20
210.8856230872414
 30
0.0
 11
1784.995544796646
 21
210.8856230872419
 31
0.0
  0
LINE
  5
806F
330
18
100
AcDbEntity
  8
DRAW2
100
AcDbLine
 10
1783.100219337866
 20
212.8828820189831
 30
0.0
 11
2111.45887860141
 21
212.8828820189831
 31
0.0
  0
LINE
  5
8070
330
18
100
AcDbEntity
  8
DRAW2
100
AcDbLine
 10
1783.991389717052
 20
229.8869976213712
 30
0.0
 11
2110.567708222224
 21
229.8869976213722
 31
0.0
  0
LINE
  5
8071
330
18
100
AcDbEntity
  8
DRAW2
100
AcDbLine
 10
1783.100219337866
 20
212.8828820189831
 30
0.0
 11
2111.45887860141
 21
212.8828820189831
 31
0.0
  0
LINE
  5
8072
330
18
100
AcDbEntity
  8
DRAW2
100
AcDbLine
 10
1783.991389717052
 20
229.8869976213712
 30
0.0
 11
2110.567708222224
 21
229.8869976213722
 31
0.0
  0
LINE
  5
8073
330
18
100
AcDbEntity
  8
DRAW2
100
AcDbLine
 10
2109.563553142631
 20
210.8856230872414
 30
0.0
 11
1784.995544796646
 21
210.8856230872419
 31
0.0
  0
LINE
  5
8074
330
18
100
AcDbEntity
  8
DRAW2
100
AcDbLine
 10
1785.043726987663
 20
230.8856270872437
 30
0.0
 11
2109.515370951613
 21
230.8856270872421
 31
0.0
  0
LINE
  5
8075
330
18
100
AcDbEntity
  8
DRAW2
100
AcDbLine
 10
1786.279548969639
 20
249.3856570872415
 30
0.0
 11
2108.279609074358
 21
249.3856570872415
 31
0.0
  0
LINE
  5
8076
330
18
100
AcDbEntity
  8
DRAW2
100
AcDbLine
 10
1785.279519062231
 20
231.3855970872406
 30
0.0
 11
2109.279579062231
 21
231.3856270872415
 31
0.0
  0
LINE
  5
8077
330
18
100
AcDbEntity
  8
DRAW2
100
AcDbLine
 10
1816.855616818902
 20
258.3856570872415
 30
0.0
 11
1826.901558969638
 21
373.2113370872415
 31
0.0
  0
ARC
  5
807A
330
18
100
AcDbEntity
  8
DRAW2
100
AcDbCircle
 10
1768.279488969637
 20
158.3856570872443
 30
0.0
 40
8.0
100
AcDbArc
 50
89.9999999999992
 51
180.0000029999992
  0
LINE
  5
807B
330
18
100
AcDbEntity
  8
DRAW2
100
AcDbLine
 10
1728.279548969638
 20
278.3856570872452
 30
0.0
 11
1728.279548969638
 21
116.3856570872451
 31
0.0
  0
LINE
  5
807C
330
18
100
AcDbEntity
  8
DRAW2
100
AcDbLine
 10
1746.279487934482
 20
115.3857491575544
 30
0.0
 11
1746.279548969638
 21
278.3856570872448
 31
0.0
  0
LINE
  5
807D
330
18
100
AcDbEntity
  8
DRAW2
100
AcDbLine
 10
1760.279487016543
 20
117.8856881223981
 30
0.0
 11
1760.279488969639
 21
259.7251570872449
 31
0.0
  0
LINE
  5
807E
330
18
100
AcDbEntity
  8
DRAW2
100
AcDbLine
 10
1724.279548969637
 20
159.3856570872451
 30
0.0
 11
1724.279548969638
 21
220.9159768186867
 31
0.0
  0
LINE
  5
807F
330
18
100
AcDbEntity
  8
DRAW2
100
AcDbLine
 10
1798.882638969638
 20
208.1328586786502
 30
0.0
 11
1798.882638969638
 21
81.84485708724166
 31
0.0
  0
LINE
  5
8080
330
18
100
AcDbEntity
  8
DRAW2
100
AcDbLine
 10
1818.512548969638
 20
208.1200088493433
 30
0.0
 11
1818.512548969638
 21
81.84484708724154
 31
0.0
  0
LINE
  5
8081
330
18
100
AcDbEntity
  8
DRAW2
100
AcDbLine
 10
1803.790138969638
 20
208.1299744870164
 30
0.0
 11
1803.790138969638
 21
81.84484418603393
 31
0.0
  0
LINE
  5
8082
330
18
100
AcDbEntity
  8
DRAW2
100
AcDbLine
 10
1813.605078969638
 20
208.1229170704007
 30
0.0
 11
1813.605078969638
 21
81.84484868782305
 31
0.0
  0
ARC
  5
8083
330
18
100
AcDbEntity
  8
DRAW2
100
AcDbCircle
 10
1726.279548969637
 20
155.3856570872451
 30
0.0
 40
2.0
100
AcDbArc
 50
359.9999999999992
 51
89.99999999999905
  0
LINE
  5
8084
330
18
100
AcDbEntity
  8
DRAW2
100
AcDbLine
 10
1725.779548969638
 20
138.8856881223981
 30
0.0
 11
1728.279548969638
 21
138.8856881223981
 31
0.0
  0
LINE
  5
8085
330
18
100
AcDbEntity
  8
DRAW2
100
AcDbLine
 10
1725.779548969638
 20
117.8856881223981
 30
0.0
 11
1728.279548969638
 21
117.8856881223981
 31
0.0
  0
LINE
  5
8087
330
18
100
AcDbEntity
  8
DRAW2
100
AcDbLine
 10
1717.779548969638
 20
137.8857338987653
 30
0.0
 11
1717.779548969638
 21
118.8857033811872
 31
0.0
  0
LINE
  5
8088
330
18
100
AcDbEntity
  8
DRAW2
100
AcDbLine
 10
1725.779548969638
 20
139.3553536497419
 30
0.0
 11
1725.779548969638
 21
117.4160378538434
 31
0.0
  0
ARC
  5
8089
330
18
100
AcDbEntity
  8
DRAW2
100
AcDbCircle
 10
1722.635597553622
 20
120.1584542356794
 30
0.0
 40
4.856048107147219
100
AcDbArc
 50
145.6155752890597
 51
205.615419864361
  0
LINE
  5
808A
330
18
100
AcDbEntity
  8
DRAW2
100
AcDbLine
 10
1717.779548015964
 20
118.885696705467
 30
0.0
 11
1718.628058281314
 21
117.4160330854719
 31
0.0
  0
LINE
  5
808B
330
18
100
AcDbEntity
  8
DRAW2
100
AcDbLine
 10
1718.628059711826
 20
117.4160378538434
 30
0.0
 11
1725.779548969638
 21
117.4160378538434
 31
0.0
  0
ARC
  5
808C
330
18
100
AcDbEntity
  8
DRAW2
100
AcDbCircle
 10
1735.931282368076
 20
128.3856881223982
 30
0.0
 40
18.15173721313474
100
AcDbArc
 50
162.4122467223606
 51
197.5876731366021
  0
ARC
  5
808D
330
18
100
AcDbEntity
  8
DRAW2
100
AcDbCircle
 10
1722.635673847568
 20
136.612937267906
 30
0.0
 40
4.856120109558093
100
AcDbArc
 50
154.3823006736894
 51
214.383794739675
  0
LINE
  5
808E
330
18
100
AcDbEntity
  8
DRAW2
100
AcDbLine
 10
1718.628044929874
 20
139.3553603254621
 30
0.0
 11
1717.779553261173
 21
137.8857291303937
 31
0.0
  0
LINE
  5
808F
330
18
100
AcDbEntity
  8
DRAW2
100
AcDbLine
 10
1718.628044453037
 20
133.87052088607
 30
0.0
 11
1725.779548969638
 21
133.87052088607
 31
0.0
  0
LINE
  5
8090
330
18
100
AcDbEntity
  8
DRAW2
100
AcDbLine
 10
1718.628044453037
 20
139.3553536497419
 30
0.0
 11
1725.779548969638
 21
139.3553536497419
 31
0.0
  0
LINE
  5
8091
330
18
100
AcDbEntity
  8
DRAW2
100
AcDbLine
 10
1718.628029194248
 20
122.9008706175153
 30
0.0
 11
1725.779548969638
 21
122.9008706175153
 31
0.0
  0
ARC
  5
8092
330
18
100
AcDbEntity
  8
DRAW2
100
AcDbCircle
 10
1726.279548969637
 20
159.3856570872451
 30
0.0
 40
2.0
100
AcDbArc
 50
179.9999999999992
 51
269.999999999999
  0
LINE
  5
8093
330
18
100
AcDbEntity
  8
DRAW2
100
AcDbLine
 10
1779.904487161125
 20
134.3856570872445
 30
0.0
 11
1772.379487161125
 21
134.3856570872445
 31
0.0
  0
LINE
  5
8094
330
18
100
AcDbEntity
  8
DRAW3
100
AcDbLine
 10
1780.779487161125
 20
133.5106570872445
 30
0.0
 11
1772.379487161125
 21
133.5106570872441
 31
0.0
  0
LINE
  5
8095
330
18
100
AcDbEntity
  8
DRAW2
100
AcDbLine
 10
1779.904487161125
 20
122.3856570872445
 30
0.0
 11
1772.379487161125
 21
122.3856570872445
 31
0.0
  0
LINE
  5
8096
330
18
100
AcDbEntity
  8
DRAW3
100
AcDbLine
 10
1780.779487161125
 20
123.2606570872445
 30
0.0
 11
1772.379487161125
 21
123.2606570872445
 31
0.0
  0
ARC
  5
8097
330
18
100
AcDbEntity
  8
DRAW2
100
AcDbCircle
 10
1827.362128969635
 20
-40.02853291275648
 30
0.0
 40
200.0
100
AcDbArc
 50
98.18660018742363
 51
108.3522909999992
  0
ARC
  5
8098
330
18
100
AcDbEntity
  8
DRAW2
100
AcDbCircle
 10
1767.523438161125
 20
120.1934231872447
 30
0.0
 40
4.856048099999999
100
AcDbArc
 50
334.3845800000035
 51
34.38441999999658
  0
LINE
  5
8099
330
18
100
AcDbEntity
  8
DRAW2
100
AcDbLine
 10
1762.379487161125
 20
139.3903230872445
 30
0.0
 11
1762.379487161125
 21
117.4510070872445
 31
0.0
  0
LINE
  5
809A
330
18
100
AcDbEntity
  8
DRAW2
100
AcDbLine
 10
1772.379487161125
 20
137.9207028872445
 30
0.0
 11
1772.379487161125
 21
118.9206723872446
 31
0.0
  0
LINE
  5
809B
330
18
100
AcDbEntity
  8
DRAW2
100
AcDbLine
 10
1757.279488969637
 20
115.3857170872441
 30
0.0
 11
1746.279548969637
 21
115.3857170872441
 31
0.0
  0
LINE
  5
809C
330
18
100
AcDbEntity
  8
DRAW2
100
AcDbLine
 10
1729.279548969638
 20
115.3856570872451
 30
0.0
 11
1746.279548969638
 21
115.3856570872447
 31
0.0
  0
LINE
  5
809D
330
18
100
AcDbEntity
  8
DRAW2
100
AcDbLine
 10
1728.279548969638
 20
116.3856570872451
 30
0.0
 11
1729.279548969638
 21
115.3856570872451
 31
0.0
  0
LINE
  5
809E
330
18
100
AcDbEntity
  8
DRAW2
100
AcDbLine
 10
1771.530976161125
 20
117.4510070872445
 30
0.0
 11
1762.379487161125
 21
117.4510070872445
 31
0.0
  0
LINE
  5
809F
330
18
100
AcDbEntity
  8
DRAW2
100
AcDbLine
 10
1760.279487161125
 20
117.5856570872445
 30
0.0
 11
1762.379487161125
 21
117.5856570872445
 31
0.0
  0
ARC
  5
80A0
330
18
100
AcDbEntity
  8
DRAW2
100
AcDbCircle
 10
1757.279488969637
 20
118.3857170872442
 30
0.0
 40
3.0
100
AcDbArc
 50
269.9999899999991
 51
359.9999999999992
  0
LINE
  5
80A1
330
18
100
AcDbEntity
  8
DRAW2
100
AcDbLine
 10
1772.379482161125
 20
118.9206694872446
 30
0.0
 11
1771.530971161125
 21
117.4510060872447
 31
0.0
  0
LINE
  5
80A3
330
18
100
AcDbEntity
  8
DRAW2
100
AcDbLine
 10
1771.530992161125
 20
139.3903230872445
 30
0.0
 11
1762.379487161125
 21
139.3903230872445
 31
0.0
  0
LINE
  5
80A4
330
18
100
AcDbEntity
  8
DRAW2
100
AcDbLine
 10
1771.530992161125
 20
133.9054898872446
 30
0.0
 11
1762.379487161125
 21
133.9054898872446
 31
0.0
  0
LINE
  5
80A5
330
18
100
AcDbEntity
  8
DRAW2
100
AcDbLine
 10
1771.531007161125
 20
122.9358395872446
 30
0.0
 11
1762.379487161125
 21
122.9358395872446
 31
0.0
  0
LINE
  5
80A6
330
18
100
AcDbEntity
  8
DRAW2
100
AcDbLine
 10
1760.279487161125
 20
128.6356570872444
 30
0.0
 11
1762.379487161125
 21
128.6356570872444
 31
0.0
  0
LINE
  5
80A7
330
18
100
AcDbEntity
  8
DRAW2
100
AcDbLine
 10
1760.279487161125
 20
139.1856570872444
 30
0.0
 11
1762.379487161125
 21
139.1856570872444
 31
0.0
  0
LINE
  5
80A8
330
18
100
AcDbEntity
  8
DRAW2
100
AcDbLine
 10
1760.279487161125
 20
128.1356570872443
 30
0.0
 11
1762.379487161125
 21
128.1356570872443
 31
0.0
  0
LINE
  5
80A9
330
18
100
AcDbEntity
  8
DRAW2
100
AcDbLine
 10
1771.530989161125
 20
139.3903360872446
 30
0.0
 11
1772.379480161125
 21
137.9207056872447
 31
0.0
  0
ARC
  5
80AA
330
18
100
AcDbEntity
  8
DRAW2
100
AcDbCircle
 10
1767.523362161125
 20
136.6479061872446
 30
0.0
 40
4.856120099999999
100
AcDbArc
 50
325.6162050000035
 51
25.61769999999541
  0
ARC
  5
80AB
330
18
100
AcDbEntity
  8
DRAW2
100
AcDbCircle
 10
1754.227753761125
 20
128.4206570872445
 30
0.0
 40
18.151737
100
AcDbArc
 50
342.4123269999996
 51
17.58774999999891
  0
ARC
  5
80AC
330
18
100
AcDbEntity
  8
DRAW2
100
AcDbCircle
 10
1766.279548969637
 20
144.1043070872446
 30
0.0
 40
6.0
100
AcDbArc
 50
108.3522909999992
 51
180.0000029999992
  0
LINE
  5
80AD
330
18
100
AcDbEntity
  8
DRAW2
100
AcDbLine
 10
1798.882638969638
 20
81.84485708724157
 30
0.0
 11
1800.197608969638
 21
81.0856570872416
 31
0.0
  0
ARC
  5
80AE
330
18
100
AcDbEntity
  8
DRAW2
100
AcDbCircle
 10
1801.336378969638
 20
85.43055708724153
 30
0.0
 40
4.344898699999999
100
AcDbArc
 50
244.38425
 51
304.38425
  0
LINE
  5
80AF
330
18
100
AcDbEntity
  8
DRAW2
100
AcDbLine
 10
1817.197608969638
 20
81.0856570872416
 30
0.0
 11
1800.197608969638
 21
81.0856570872416
 31
0.0
  0
ARC
  5
80B0
330
18
100
AcDbEntity
  8
DRAW2
100
AcDbCircle
 10
1808.697608969638
 20
97.32646708724161
 30
0.0
 40
16.24081
100
AcDbArc
 50
252.41205
 51
287.58795
  0
LINE
  5
80B1
330
18
100
AcDbEntity
  8
DRAW2
100
AcDbLine
 10
1817.197608969638
 20
81.08566708724158
 30
0.0
 11
1818.512548969638
 21
81.84484708724159
 31
0.0
  0
ARC
  5
80B2
330
18
100
AcDbEntity
  8
DRAW2
100
AcDbCircle
 10
1816.058818969638
 20
85.43055708724153
 30
0.0
 40
4.344898699999999
100
AcDbArc
 50
235.61575
 51
295.6157499999999
  0
LINE
  5
80B3
330
18
100
AcDbEntity
  8
DRAW2
100
AcDbLine
 10
1779.904487161125
 20
134.3856570872445
 30
0.0
 11
1780.779487161125
 21
133.5106570872445
 31
0.0
  0
LINE
  5
80B4
330
18
100
AcDbEntity
  8
DRAW2
100
AcDbLine
 10
1779.904487161125
 20
122.3856570872445
 30
0.0
 11
1780.779487161125
 21
123.2606570872445
 31
0.0
  0
LINE
  5
80B5
330
18
100
AcDbEntity
  8
DRAW2
100
AcDbLine
 10
1780.779487161125
 20
123.2606570872445
 30
0.0
 11
1780.779487161125
 21
133.5106570872445
 31
0.0
  0
LINE
  5
80B6
330
18
100
AcDbEntity
  8
DRAW2
100
AcDbLine
 10
1779.904487161125
 20
122.3856570872445
 30
0.0
 11
1779.904487161125
 21
134.3856570872445
 31
0.0
  0
LINE
  5
80B7
330
18
100
AcDbEntity
  8
DRAW2
100
AcDbLine
 10
1725.779548969638
 20
242.3856270872419
 30
0.0
 11
1728.279548969638
 21
242.3856270872419
 31
0.0
  0
LINE
  5
80B8
330
18
100
AcDbEntity
  8
DRAW2
100
AcDbLine
 10
1725.779548969638
 20
221.3856270872418
 30
0.0
 11
1728.279548969638
 21
221.3856270872418
 31
0.0
  0
LINE
  5
80BA
330
18
100
AcDbEntity
  8
DRAW2
100
AcDbLine
 10
1718.628044929874
 20
242.8552992903058
 30
0.0
 11
1717.779553261173
 21
241.3856680952379
 31
0.0
  0
LINE
  5
80BB
330
18
100
AcDbEntity
  8
DRAW2
100
AcDbLine
 10
1725.779548969638
 20
242.8552926145858
 30
0.0
 11
1725.779548969638
 21
220.9159768186867
 31
0.0
  0
ARC
  5
80BF
330
18
100
AcDbEntity
  8
DRAW2
100
AcDbCircle
 10
1722.635597553622
 20
223.658393200523
 30
0.0
 40
4.856048107147219
100
AcDbArc
 50
145.6155752890597
 51
205.615419864361
  0
LINE
  5
80C0
330
18
100
AcDbEntity
  8
DRAW2
100
AcDbLine
 10
1717.779548969638
 20
241.3856728636088
 30
0.0
 11
1717.779548969638
 21
222.3856423460309
 31
0.0
  0
LINE
  5
80C1
330
18
100
AcDbEntity
  8
DRAW2
100
AcDbLine
 10
1717.779548015964
 20
222.3856356703109
 30
0.0
 11
1718.628058281314
 21
220.9159720503158
 31
0.0
  0
LINE
  5
80C2
330
18
100
AcDbEntity
  8
DRAW2
100
AcDbLine
 10
1718.628059711826
 20
220.9159768186867
 30
0.0
 11
1725.779548969638
 21
220.9159768186867
 31
0.0
  0
ARC
  5
80C3
330
18
100
AcDbEntity
  8
DRAW2
100
AcDbCircle
 10
1735.931282368076
 20
231.885627087242
 30
0.0
 40
18.15173721313471
100
AcDbArc
 50
162.4122467223606
 51
197.5876731366018
  0
LINE
  5
80C4
330
18
100
AcDbEntity
  8
DRAW2
100
AcDbLine
 10
1718.628044453037
 20
237.370459850914
 30
0.0
 11
1725.779548969638
 21
237.370459850914
 31
0.0
  0
LINE
  5
80C5
330
18
100
AcDbEntity
  8
DRAW2
100
AcDbLine
 10
1718.628029194248
 20
226.4008095823588
 30
0.0
 11
1725.779548969638
 21
226.4008095823588
 31
0.0
  0
ARC
  5
80C6
330
18
100
AcDbEntity
  8
DRAW2
100
AcDbCircle
 10
1722.635673847568
 20
240.11287623275
 30
0.0
 40
4.856120109558156
100
AcDbArc
 50
154.3823006736894
 51
214.3837947396761
  0
LINE
  5
80C7
330
18
100
AcDbEntity
  8
DRAW2
100
AcDbLine
 10
1718.628044453037
 20
242.8552926145858
 30
0.0
 11
1725.779548969638
 21
242.8552926145858
 31
0.0
  0
LINE
  5
80C8
330
18
100
AcDbEntity
  8
DRAW2
100
AcDbLine
 10
1771.530990586295
 20
242.8903060872421
 30
0.0
 11
1772.379481586295
 21
241.4206756872422
 31
0.0
  0
LINE
  5
80C9
330
18
100
AcDbEntity
  8
DRAW2
100
AcDbLine
 10
1762.379488586295
 20
242.890293087242
 30
0.0
 11
1762.379488586295
 21
220.9509770872421
 31
0.0
  0
LINE
  5
80CA
330
18
100
AcDbEntity
  8
DRAW2
100
AcDbLine
 10
1784.279518969638
 20
232.3855970872406
 30
0.0
 11
1784.279518969638
 21
247.3856270872414
 31
0.0
  0
LINE
  5
80CB
330
18
100
AcDbEntity
  8
DRAW2
100
AcDbLine
 10
1779.904488586295
 20
237.885627087242
 30
0.0
 11
1772.379488586295
 21
237.885627087242
 31
0.0
  0
LINE
  5
80CC
330
18
100
AcDbEntity
  8
DRAW3
100
AcDbLine
 10
1780.779488586295
 20
237.010627087242
 30
0.0
 11
1772.379488586295
 21
237.0106270872416
 31
0.0
  0
LINE
  5
80CD
330
18
100
AcDbEntity
  8
DRAW2
100
AcDbLine
 10
1779.904488586295
 20
225.885627087242
 30
0.0
 11
1772.379488586295
 21
225.885627087242
 31
0.0
  0
LINE
  5
80CE
330
18
100
AcDbEntity
  8
DRAW3
100
AcDbLine
 10
1780.779488586295
 20
226.760627087242
 30
0.0
 11
1772.379488586295
 21
226.760627087242
 31
0.0
  0
LINE
  5
80CF
330
18
100
AcDbEntity
  8
DRAW2
100
AcDbLine
 10
1768.279488969637
 20
166.3856570872443
 30
0.0
 11
1798.882638969638
 21
166.3856570872439
 31
0.0
  0
ARC
  5
80D0
330
18
100
AcDbEntity
  8
DRAW2
100
AcDbCircle
 10
1767.523439586295
 20
223.6933931872422
 30
0.0
 40
4.856048099999999
100
AcDbArc
 50
334.3845800000035
 51
34.38441999999658
  0
LINE
  5
80D1
330
18
100
AcDbEntity
  8
DRAW2
100
AcDbLine
 10
1772.379488586295
 20
241.420672887242
 30
0.0
 11
1772.379488586295
 21
222.4206423872422
 31
0.0
  0
LINE
  5
80D2
330
18
100
AcDbEntity
  8
DRAW2
100
AcDbLine
 10
1771.530977586295
 20
220.9509770872421
 30
0.0
 11
1762.379488586295
 21
220.9509770872421
 31
0.0
  0
LINE
  5
80D3
330
18
100
AcDbEntity
  8
DRAW2
100
AcDbLine
 10
1760.279488586295
 20
221.085627087242
 30
0.0
 11
1762.379488586295
 21
221.085627087242
 31
0.0
  0
LINE
  5
80D4
330
18
100
AcDbEntity
  8
DRAW2
100
AcDbLine
 10
1772.379483586295
 20
222.4206394872421
 30
0.0
 11
1771.530972586295
 21
220.9509760872422
 31
0.0
  0
LINE
  5
80D5
330
18
100
AcDbEntity
  8
DRAW2
100
AcDbLine
 10
1771.530993586295
 20
237.4054598872421
 30
0.0
 11
1762.379488586295
 21
237.4054598872421
 31
0.0
  0
LINE
  5
80D6
330
18
100
AcDbEntity
  8
DRAW2
100
AcDbLine
 10
1771.531008586295
 20
226.4358095872421
 30
0.0
 11
1762.379488586295
 21
226.4358095872421
 31
0.0
  0
LINE
  5
80D7
330
18
100
AcDbEntity
  8
DRAW2
100
AcDbLine
 10
1760.279488586295
 20
232.1356270872419
 30
0.0
 11
1762.379488586295
 21
232.1356270872419
 31
0.0
  0
LINE
  5
80D8
330
18
100
AcDbEntity
  8
DRAW2
100
AcDbLine
 10
1760.279488586295
 20
242.6856270872419
 30
0.0
 11
1762.379488586295
 21
242.6856270872419
 31
0.0
  0
LINE
  5
80D9
330
18
100
AcDbEntity
  8
DRAW2
100
AcDbLine
 10
1760.279488586295
 20
231.6356270872419
 30
0.0
 11
1762.379488586295
 21
231.6356270872419
 31
0.0
  0
ARC
  5
80DA
330
18
100
AcDbEntity
  8
DRAW2
100
AcDbCircle
 10
1767.523363586295
 20
240.1478761872422
 30
0.0
 40
4.856120099999999
100
AcDbArc
 50
325.6162050000035
 51
25.61769999999541
  0
ARC
  5
80DB
330
18
100
AcDbEntity
  8
DRAW2
100
AcDbCircle
 10
1754.227755186295
 20
231.9206270872421
 30
0.0
 40
18.151737
100
AcDbArc
 50
342.4123269999996
 51
17.58774999999891
  0
LINE
  5
80DC
330
18
100
AcDbEntity
  8
DRAW2
100
AcDbLine
 10
1798.871517035944
 20
208.1264374342036
 30
0.0
 11
1800.186446077612
 21
208.8856112468139
 31
0.0
  0
ARC
  5
80DD
330
18
100
AcDbEntity
  8
DRAW2
100
AcDbCircle
 10
1801.332354993683
 20
204.633091256769
 30
0.0
 40
4.264934630351658
100
AcDbArc
 50
54.99371682514013
 51
116.2402886204702
  0
LINE
  5
80DE
330
18
100
AcDbEntity
  8
DRAW2
100
AcDbLine
 10
1799.697639789951
 20
210.8856270872419
 30
0.0
 11
1817.697639789951
 21
210.8856270872419
 31
0.0
  0
LINE
  5
80DF
330
18
100
AcDbEntity
  8
DRAW2
100
AcDbLine
 10
1799.697639789951
 20
208.8856270872418
 30
0.0
 11
1817.697639789951
 21
208.8856270872418
 31
0.0
  0
LINE
  5
80E0
330
18
100
AcDbEntity
  8
DRAW2
100
AcDbLine
 10
1783.991389717052
 20
229.8869976213712
 30
0.0
 11
1783.100219337866
 21
212.8828820189831
 31
0.0
  0
LINE
  5
80E1
330
18
100
AcDbEntity
  8
DRAW2
100
AcDbLine
 10
1783.100219337866
 20
212.8828820189831
 30
0.0
 11
1784.995544796646
 21
210.8856230872419
 31
0.0
  0
LINE
  5
80E2
330
18
100
AcDbEntity
  8
DRAW2
100
AcDbLine
 10
1799.697639789951
 20
208.8856270872418
 30
0.0
 11
1799.697639789951
 21
210.8856270872419
 31
0.0
  0
LINE
  5
80E3
330
18
100
AcDbEntity
  8
DRAW2
100
AcDbLine
 10
1779.904488586295
 20
237.885627087242
 30
0.0
 11
1780.779488586295
 21
237.010627087242
 31
0.0
  0
LINE
  5
80E4
330
18
100
AcDbEntity
  8
DRAW2
100
AcDbLine
 10
1779.904488586295
 20
225.885627087242
 30
0.0
 11
1780.779488586295
 21
226.760627087242
 31
0.0
  0
LINE
  5
80E5
330
18
100
AcDbEntity
  8
DRAW2
100
AcDbLine
 10
1780.779488586295
 20
226.760627087242
 30
0.0
 11
1780.779488586295
 21
237.010627087242
 31
0.0
  0
LINE
  5
80E6
330
18
100
AcDbEntity
  8
DRAW2
100
AcDbLine
 10
1779.904488586295
 20
225.885627087242
 30
0.0
 11
1779.904488586295
 21
237.885627087242
 31
0.0
  0
ARC
  5
80E7
330
18
100
AcDbEntity
  8
DRAW2
100
AcDbCircle
 10
1785.279518969638
 20
232.3855970872406
 30
0.0
 40
1.0
100
AcDbArc
 50
180.0
 51
270.0000053051639
  0
ARC
  5
80E8
330
18
100
AcDbEntity
  8
DRAW2
100
AcDbCircle
 10
1779.189158969638
 20
233.3856570872439
 30
0.0
 40
5.0
100
AcDbArc
 50
301.201780223197
 51
315.5945022912682
  0
LINE
  5
80E9
330
18
100
AcDbEntity
  8
DRAW2
100
AcDbLine
 10
1783.991389717053
 20
229.8869976213735
 30
0.0
 11
1782.76118667696
 21
229.8869976213735
 31
0.0
  0
LINE
  5
80EA
330
18
100
AcDbEntity
  8
DRAW2
100
AcDbLine
 10
1785.043726987663
 20
230.8856270872437
 30
0.0
 11
1783.991389717053
 21
229.8869976213735
 31
0.0
  0
ARC
  5
80EB
330
18
100
AcDbEntity
  8
DRAW2
100
AcDbCircle
 10
1808.686476838951
 20
192.6446912609865
 30
0.0
 40
16.24093966259408
100
AcDbArc
 50
72.41215312176527
 51
107.5877922367216
  0
LINE
  5
80EC
330
18
100
AcDbEntity
  8
DRAW2
100
AcDbLine
 10
1817.186490900305
 20
208.8856090732071
 30
0.0
 11
1818.50143894909
 21
208.1264232247132
 31
0.0
  0
ARC
  5
80ED
330
18
100
AcDbEntity
  8
DRAW2
100
AcDbCircle
 10
1816.040606614613
 20
204.633220317084
 30
0.0
 40
4.264811886390847
100
AcDbArc
 50
63.76105303244281
 51
125.0073252579669
  0
LINE
  5
80EE
330
18
100
AcDbEntity
  8
DRAW2
100
AcDbLine
 10
1817.697639789951
 20
208.8856270872418
 30
0.0
 11
1817.697639789951
 21
210.8856270872419
 31
0.0
  0
LINE
  5
80EF
330
18
100
AcDbEntity
  8
DRAW2
100
AcDbLine
 10
1804.279548969638
 20
231.3855470872415
 30
0.0
 11
1804.279548969638
 21
230.8856470872415
 31
0.0
  0
LINE
  5
80F0
330
18
100
AcDbEntity
  8
DRAW2
100
AcDbLine
 10
1757.279488969639
 20
262.7251570872448
 30
0.0
 11
1746.279548969638
 21
262.7251570872448
 31
0.0
  0
LINE
  5
80F1
330
18
100
AcDbEntity
  8
DRAW2
100
AcDbLine
 10
1729.279548969638
 20
279.3856570872452
 30
0.0
 11
1745.279548969638
 21
279.3856570872447
 31
0.0
  0
LINE
  5
80F2
330
18
100
AcDbEntity
  8
DRAW2
100
AcDbLine
 10
1728.279548969638
 20
278.3856570872452
 30
0.0
 11
1729.279548969638
 21
279.3856570872452
 31
0.0
  0
LINE
  5
80F3
330
18
100
AcDbEntity
  8
DRAW2
100
AcDbLine
 10
1746.279548969638
 20
278.3856570872448
 30
0.0
 11
1745.279548969638
 21
279.3856570872447
 31
0.0
  0
ARC
  5
80F4
330
18
100
AcDbEntity
  8
DRAW2
100
AcDbCircle
 10
1757.279488969639
 20
259.7251570872449
 30
0.0
 40
3.0
100
AcDbArc
 50
359.9999999999992
 51
89.9999999999992
  0
LINE
  5
80F5
330
18
100
AcDbEntity
  8
DRAW2
100
AcDbLine
 10
1771.530993586295
 20
242.890293087242
 30
0.0
 11
1762.379488586295
 21
242.890293087242
 31
0.0
  0
LINE
  5
80F6
330
18
100
AcDbEntity
  8
DRAW2
100
AcDbLine
 10
1798.882680769811
 20
257.6264370872414
 30
0.0
 11
1800.197590769811
 21
258.3856270872415
 31
0.0
  0
ARC
  5
80F7
330
18
100
AcDbEntity
  8
DRAW2
100
AcDbCircle
 10
1801.336450769811
 20
254.0407170872415
 30
0.0
 40
4.3449545
100
AcDbArc
 50
55.61634999999999
 51
115.6176599999999
  0
LINE
  5
80F8
330
18
100
AcDbEntity
  8
DRAW2
100
AcDbLine
 10
1798.882710769811
 20
251.3856570872415
 30
0.0
 11
1818.513020769811
 21
251.3856570872415
 31
0.0
  0
LINE
  5
80F9
330
18
100
AcDbEntity
  8
DRAW2
100
AcDbLine
 10
1799.697639789951
 20
251.3856570872415
 30
0.0
 11
1817.697639789951
 21
251.3856570872415
 31
0.0
  0
ARC
  5
80FA
330
18
100
AcDbEntity
  8
DRAW2
100
AcDbCircle
 10
1786.279548969639
 20
247.3856570872415
 30
0.0
 40
2.0
100
AcDbArc
 50
89.999997
 51
180.0
  0
LINE
  5
80FB
330
18
100
AcDbEntity
  8
DRAW2
100
AcDbLine
 10
1799.697639789951
 20
251.3856570872415
 30
0.0
 11
1799.697639789951
 21
249.3856570872415
 31
0.0
  0
LINE
  5
80FC
330
18
100
AcDbEntity
  8
DRAW2
100
AcDbLine
 10
1798.882280769811
 20
257.6264670872415
 30
0.0
 11
1798.882280769811
 21
251.3856570872415
 31
0.0
  0
LINE
  5
80FD
330
18
100
AcDbEntity
  8
DRAW2
100
AcDbLine
 10
1800.197620769811
 20
258.3856570872415
 30
0.0
 11
1817.197658810091
 21
258.3856570872415
 31
0.0
  0
ARC
  5
80FE
330
18
100
AcDbEntity
  8
DRAW2
100
AcDbCircle
 10
1808.697650769811
 20
242.1447170872415
 30
0.0
 40
16.24093999999999
100
AcDbArc
 50
72.41216000000001
 51
107.587796
  0
LINE
  5
80FF
330
18
100
AcDbEntity
  8
DRAW2
100
AcDbLine
 10
1803.790610769811
 20
257.6264670872415
 30
0.0
 11
1803.790610769811
 21
251.3856570872415
 31
0.0
  0
LINE
  5
8100
330
18
100
AcDbEntity
  8
DRAW2
100
AcDbLine
 10
1818.512620769811
 20
257.6264370872414
 30
0.0
 11
1817.197710769811
 21
258.3856270872415
 31
0.0
  0
LINE
  5
8101
330
18
100
AcDbEntity
  8
DRAW2
100
AcDbLine
 10
1818.513020769811
 20
257.6264670872415
 30
0.0
 11
1818.513020769811
 21
251.3856570872415
 31
0.0
  0
LINE
  5
8102
330
18
100
AcDbEntity
  8
DRAW2
100
AcDbLine
 10
1817.697639789951
 20
251.3856570872415
 30
0.0
 11
1817.697639789951
 21
249.3856570872415
 31
0.0
  0
ARC
  5
8103
330
18
100
AcDbEntity
  8
DRAW2
100
AcDbCircle
 10
1816.058890769811
 20
254.0407470872414
 30
0.0
 40
4.3449049
100
AcDbArc
 50
64.38722215215306
 51
124.3839999999999
  0
LINE
  5
8104
330
18
100
AcDbEntity
  8
DRAW2
100
AcDbLine
 10
1813.605150769811
 20
257.6264670872415
 30
0.0
 11
1813.605150769811
 21
251.3856570872415
 31
0.0
  0
LINE
  5
810B
330
18
100
AcDbEntity
  8
DRAW2
100
AcDbLine
 10
2095.676458969638
 20
208.1328586786502
 30
0.0
 11
2095.676428149326
 21
81.84485708724157
 31
0.0
  0
LINE
  5
810C
330
18
100
AcDbEntity
  8
DRAW2
100
AcDbLine
 10
2076.046548969638
 20
208.1200088493433
 30
0.0
 11
2076.046548969638
 21
81.84482929314842
 31
0.0
  0
LINE
  5
810D
330
18
100
AcDbEntity
  8
DRAW2
100
AcDbLine
 10
2090.768958969638
 20
208.1299744870164
 30
0.0
 11
2090.768958969638
 21
81.84484128338693
 31
0.0
  0
LINE
  5
810E
330
18
100
AcDbEntity
  8
DRAW2
100
AcDbLine
 10
2080.954018969639
 20
208.1229170704007
 30
0.0
 11
2080.954018969639
 21
81.84483441643555
 31
0.0
  0
LINE
  5
810F
330
18
100
AcDbEntity
  8
DRAW2
100
AcDbLine
 10
2171.279498969638
 20
263.3856270872424
 30
0.0
 11
2171.279498969638
 21
101.3856270872423
 31
0.0
  0
LINE
  5
8110
330
18
100
AcDbEntity
  8
DRAW2
100
AcDbLine
 10
2153.279498969637
 20
100.385627087242
 30
0.0
 11
2153.279498969637
 21
263.385627087242
 31
0.0
  0
LINE
  5
8111
330
18
100
AcDbEntity
  8
DRAW2
100
AcDbLine
 10
2153.279498969637
 20
100.3856270872419
 30
0.0
 11
2153.279498969637
 21
247.475067087239
 31
0.0
  0
LINE
  5
8112
330
18
100
AcDbEntity
  8
DRAW2
100
AcDbLine
 10
2153.279498969639
 20
100.3856870872414
 30
0.0
 11
2153.279498969637
 21
247.725127087242
 31
0.0
  0
LINE
  5
8113
330
18
100
AcDbEntity
  8
DRAW2
100
AcDbLine
 10
2153.279560004794
 20
100.3857191575516
 30
0.0
 11
2153.279560004794
 21
247.7250746263012
 31
0.0
  0
LINE
  5
8114
330
18
100
AcDbEntity
  8
DRAW2
100
AcDbLine
 10
2175.279498969639
 20
144.3856270872423
 30
0.0
 11
2175.279498969638
 21
205.915946818684
 31
0.0
  0
LWPOLYLINE
  5
8116
330
18
100
AcDbEntity
  8
DRAW2
100
AcDbPolyline
 90
        7
 70
     0
 43
0.0
 10
2035.464180317293
 20
157.7725543333339
 42
0.0335931998948392
 10
2038.691339194456
 20
159.0573658974382
 42
0.0324408619652429
 10
2041.721481949189
 20
160.7556703151013
 42
0.0307003218021226
 10
2044.51425448631
 20
162.8217966238763
 42
0.0289949824199908
 10
2047.040620154526
 20
165.2064934610035
 42
0.0275201129364121
 10
2049.282265164272
 20
167.8608366959077
 42
0.0259210212415458
 10
2051.229439106355
 20
170.7397784544272
  0
LWPOLYLINE
  5
8117
330
18
100
AcDbEntity
  8
DRAW2
100
AcDbPolyline
 90
        7
 70
     0
 43
0.0
 10
2036.451423969637
 20
157.7725543333339
 42
0.0333271499490288
 10
2039.699027709444
 20
159.0524689305922
 42
0.0322822756788833
 10
2042.751468399877
 20
160.7460798987841
 42
0.0307103563912133
 10
2045.567569844993
 20
162.8094734117368
 42
0.0290741337584713
 10
2048.116932893893
 20
165.1947414025115
 42
0.0276550014807211
 10
2050.380225531792
 20
167.8532111009252
 42
0.0260972248848974
 10
2052.346687641512
 20
170.7397784544272
  0
LWPOLYLINE
  5
8118
330
18
100
AcDbEntity
  8
DRAW2
100
AcDbPolyline
 90
        7
 70
     0
 43
0.0
 10
2037.036995258699
 20
151.0209674192714
 42
0.0337014093548337
 10
2040.92252205075
 20
152.5710207171906
 42
0.0324828107894576
 10
2044.569931210411
 20
154.6198057616867
 42
0.0307441510738741
 10
2047.930575491099
 20
157.1119424301558
 42
0.0290085522159131
 10
2050.969607218088
 20
159.9877455981439
 42
0.0275080233482342
 10
2053.665318379798
 20
163.1878835571313
 42
0.0258902262693091
 10
2056.006355610262
 20
166.6578692747397
  0
LWPOLYLINE
  5
8119
330
18
100
AcDbEntity
  8
DRAW2
100
AcDbPolyline
 90
        7
 70
     0
 43
0.0
 10
2038.038887348542
 20
151.0209674192712
 42
0.0334240694512036
 10
2041.947720639425
 20
152.564853541072
 42
0.03239665438953
 10
2045.620380267923
 20
154.6081303887214
 42
0.0307462972967344
 10
2049.007198229023
 20
157.0973754336181
 42
0.0290924569135657
 10
2052.07201709391
 20
159.9739824948845
 42
0.0276436609265166
 10
2054.791851466472
 20
163.1790191948838
 42
0.0260577628292856
 10
2057.154243793855
 20
166.6578692747397
  0
LWPOLYLINE
  5
811A
330
18
100
AcDbEntity
  8
DRAW2
100
AcDbPolyline
 90
        7
 70
     0
 43
0.0
 10
1967.449959125886
 20
151.0209674192727
 42
-0.0310960039780731
 10
1966.833064293341
 20
153.5765969094144
 42
-0.011911353303705
 10
1966.418315173094
 20
156.1741635208353
 42
-0.0069335335888757
 10
1966.098525688531
 20
158.7860901306311
 42
-0.004762095849717
 10
1965.838857018012
 20
161.4042827069269
 42
-0.0036042739115413
 10
1965.622649465896
 20
164.0272675017776
 42
-0.0029120441803088
 10
1965.440400410047
 20
166.6527063353477
  0
LWPOLYLINE
  5
811B
330
18
100
AcDbEntity
  8
DRAW2
100
AcDbPolyline
 90
        7
 70
     0
 43
0.0
 10
1964.385872211824
 20
151.0209674192729
 42
-0.0307777625578106
 10
1963.774290462465
 20
153.5775036519445
 42
-0.0117915212108764
 10
1963.362772758675
 20
156.1751972361727
 42
-0.0068684302502458
 10
1963.045314115191
 20
158.7870081814518
 42
-0.0047215633919922
 10
1962.787429419307
 20
161.4049779838243
 42
-0.00357664765887
 10
1962.572654025027
 20
164.0276740550635
 42
-0.0028882082420628
 10
1962.391565107899
 20
166.6527882217379
  0
LWPOLYLINE
  5
811C
330
18
100
AcDbEntity
  8
DRAW2
100
AcDbPolyline
 90
        7
 70
     0
 43
0.0
 10
1967.616829243074
 20
157.7725543333352
 42
-0.0311163766451129
 10
1967.104185576509
 20
159.8917154853123
 42
-0.0119322935986589
 10
1966.759307555298
 20
162.0457575733406
 42
-0.0069401131542344
 10
1966.493312527772
 20
164.2117598458106
 42
-0.0047808962109334
 10
1966.277283980939
 20
166.3829864285506
 42
-0.0036161731485223
 10
1966.097441554206
 20
168.5582122912363
 42
-0.0029184328887894
 10
1965.945839002209
 20
170.735485517588
  0
LWPOLYLINE
  5
811D
330
18
100
AcDbEntity
  8
DRAW2
100
AcDbPolyline
 90
        7
 70
     0
 43
0.0
 10
1927.109138813388
 20
151.0209674192732
 42
0.0310960039780731
 10
1927.726033645933
 20
153.5765969094148
 42
0.011911353303705
 10
1928.140782766181
 20
156.1741635208358
 42
0.0069335335888757
 10
1928.460572250744
 20
158.7860901306315
 42
0.004762095849717
 10
1928.720240921262
 20
161.4042827069273
 42
0.0036042739115413
 10
1928.936448473378
 20
164.027267501778
 42
0.0029120441803088
 10
1929.118697529228
 20
166.6527063353481
  0
LWPOLYLINE
  5
811E
330
18
100
AcDbEntity
  8
DRAW2
100
AcDbPolyline
 90
        7
 70
     0
 43
0.0
 10
1926.942268696201
 20
157.7725543333357
 42
0.0311163766451129
 10
1927.454912362766
 20
159.8917154853128
 42
0.0119322935986589
 10
1927.799790383977
 20
162.0457575733411
 42
0.0069401131542344
 10
1928.065785411503
 20
164.2117598458111
 42
0.0047808962109334
 10
1928.281813958335
 20
166.3829864285511
 42
0.0036161731485223
 10
1928.461656385068
 20
168.5582122912368
 42
0.0029184328887894
 10
1928.613258937065
 20
170.7354855175884
  0
LWPOLYLINE
  5
811F
330
18
100
AcDbEntity
  8
DRAW2
100
AcDbPolyline
 90
        7
 70
     0
 43
0.0
 10
1930.173225727451
 20
151.0209674192732
 42
0.0307777625578106
 10
1930.784807476809
 20
153.5775036519447
 42
0.0117915212108764
 10
1931.196325180599
 20
156.1751972361729
 42
0.0068684302502458
 10
1931.513783824084
 20
158.787008181452
 42
0.0047215633919922
 10
1931.771668519968
 20
161.4049779838245
 42
0.00357664765887
 10
1931.986443914248
 20
164.0276740550638
 42
0.0028882082420628
 10
1932.167532831376
 20
166.6527882217382
  0
LWPOLYLINE
  5
8120
330
18
100
AcDbEntity
  8
DRAW2
100
AcDbPolyline
 90
        7
 70
     0
 43
0.0
 10
2016.114143696199
 20
157.7725543333343
 42
0.0301180945864352
 10
2019.61255872503
 20
159.0138897117591
 42
0.0300289618101483
 10
2022.936612239511
 20
160.6653966098343
 42
0.0294834785454304
 10
2026.041130980329
 20
162.6994299513177
 42
0.0289366955973908
 10
2028.887316314325
 20
165.0827214910672
 42
0.0284692016699076
 10
2031.44168066277
 20
167.7757037694585
 42
0.0277081642543913
 10
2033.680244770418
 20
170.7397784544276
  0
LWPOLYLINE
  5
8121
330
18
100
AcDbEntity
  8
DRAW2
100
AcDbPolyline
 90
        7
 70
     0
 43
0.0
 10
2019.929207172761
 20
151.0209674192716
 42
0.0304410661656214
 10
2024.114542176556
 20
152.5237064056578
 42
0.0302037272578277
 10
2028.086953891669
 20
154.5211103937821
 42
0.0296109158764491
 10
2031.79373287351
 20
156.9780401667243
 42
0.0289573185112335
 10
2035.186978162371
 20
159.8526035741427
 42
0.0283010798185924
 10
2038.229617315071
 20
163.0949156627094
 42
0.0275167327662218
 10
2040.894478168855
 20
166.6578692747399
  0
LWPOLYLINE
  5
8122
330
18
100
AcDbEntity
  8
DRAW2
100
AcDbPolyline
 90
        7
 70
     0
 43
0.0
 10
2017.867988911043
 20
151.0209674192716
 42
0.0302038529216369
 10
2022.078514775561
 20
152.5181840167084
 42
0.0301239958901135
 10
2026.078054644973
 20
154.5105070863042
 42
0.0295437089908098
 10
2029.8120630513
 20
156.9641999690815
 42
0.0289699204429735
 10
2033.233991660096
 20
159.838598758752
 42
0.0284614040739207
 10
2036.303848782269
 20
163.0854224379903
 42
0.027665733102004
 10
2038.99201221433
 20
166.6558639120686
  0
LINE
  5
8123
330
18
100
AcDbEntity
  8
DRAW2
100
AcDbLine
 10
2139.279488969639
 20
244.7251270872392
 30
0.0
 11
2139.27951845206
 21
102.8856881223981
 31
0.0
  0
LWPOLYLINE
  5
8124
330
18
100
AcDbEntity
  8
DRAW2
100
AcDbPolyline
 90
        7
 70
     0
 43
0.0
 10
1857.522102680576
 20
151.0209674192732
 42
-0.0337014093548337
 10
1853.636575888525
 20
152.5710207171927
 42
-0.0324828107894576
 10
1849.989166728863
 20
154.6198057616887
 42
-0.0307441510738741
 10
1846.628522448176
 20
157.1119424301581
 42
-0.0290085522159131
 10
1843.589490721187
 20
159.9877455981462
 42
-0.0275080233482342
 10
1840.893779559477
 20
163.1878835571336
 42
-0.0258902262693091
 10
1838.552742329014
 20
166.6578692747419
  0
LWPOLYLINE
  5
8125
330
18
100
AcDbEntity
  8
DRAW2
100
AcDbPolyline
 90
        7
 70
     0
 43
0.0
 10
1859.094917621982
 20
157.7725543333357
 42
-0.0335931998948392
 10
1855.867758744819
 20
159.0573658974402
 42
-0.0324408619652429
 10
1852.837615990085
 20
160.7556703151034
 42
-0.0307003218021226
 10
1850.044843452965
 20
162.8217966238784
 42
-0.0289949824199908
 10
1847.518477784749
 20
165.2064934610056
 42
-0.0275201129364121
 10
1845.276832775003
 20
167.86083669591
 42
-0.0259210212415458
 10
1843.329658832919
 20
170.7397784544294
  0
LWPOLYLINE
  5
8126
330
18
100
AcDbEntity
  8
DRAW2
100
AcDbPolyline
 90
        7
 70
     0
 43
0.0
 10
1858.107673969638
 20
157.7725543333357
 42
-0.0333271499490288
 10
1854.860070229831
 20
159.0524689305942
 42
-0.0322822756788833
 10
1851.807629539398
 20
160.7460798987862
 42
-0.0307103563912133
 10
1848.991528094281
 20
162.8094734117388
 42
-0.0290741337584713
 10
1846.442165045382
 20
165.1947414025138
 42
-0.0276550014807211
 10
1844.178872407482
 20
167.8532111009275
 42
-0.0260972248848974
 10
1842.212410297763
 20
170.7397784544294
  0
LWPOLYLINE
  5
8127
330
18
100
AcDbEntity
  8
DRAW2
100
AcDbPolyline
 90
        7
 70
     0
 43
0.0
 10
1878.444954243076
 20
157.7725543333357
 42
-0.0301180945864352
 10
1874.946539214245
 20
159.0138897117607
 42
-0.0300289618101483
 10
1871.622485699765
 20
160.6653966098359
 42
-0.0294834785454304
 10
1868.517966958946
 20
162.6994299513192
 42
-0.0289366955973908
 10
1865.67178162495
 20
165.082721491069
 42
-0.0284692016699076
 10
1863.117417276504
 20
167.7757037694604
 42
-0.0277081642543913
 10
1860.878853168857
 20
170.7397784544294
  0
LWPOLYLINE
  5
8128
330
18
100
AcDbEntity
  8
DRAW2
100
AcDbPolyline
 90
        7
 70
     0
 43
0.0
 10
1876.691109028232
 20
151.0209674192732
 42
-0.0302038529216369
 10
1872.480583163713
 20
152.51818401671
 42
-0.0301239958901135
 10
1868.481043294301
 20
154.5105070863058
 42
-0.0295437089908098
 10
1864.747034887975
 20
156.9641999690833
 42
-0.0289699204429735
 10
1861.325106279179
 20
159.8385987587538
 42
-0.0284614040739207
 10
1858.255249157005
 20
163.0854224379921
 42
-0.027665733102004
 10
1855.567085724945
 20
166.6558639120706
  0
LWPOLYLINE
  5
8129
330
18
100
AcDbEntity
  8
DRAW2
100
AcDbPolyline
 90
        7
 70
     0
 43
0.0
 10
1874.629890766513
 20
151.0209674192732
 42
-0.0304410661656214
 10
1870.444555762719
 20
152.5237064056594
 42
-0.0302037272578277
 10
1866.472144047606
 20
154.5211103937839
 42
-0.0296109158764491
 10
1862.765365065765
 20
156.9780401667261
 42
-0.0289573185112335
 10
1859.372119776904
 20
159.8526035741446
 42
-0.0283010798185924
 10
1856.329480624204
 20
163.0949156627115
 42
-0.0275167327662218
 10
1853.66461977042
 20
166.6578692747419
  0
LWPOLYLINE
  5
812A
330
18
100
AcDbEntity
  8
DRAW2
100
AcDbPolyline
 90
        7
 70
     0
 43
0.0
 10
1856.520210590732
 20
151.0209674192732
 42
-0.0334240694512036
 10
1852.611377299849
 20
152.564853541074
 42
-0.03239665438953
 10
1848.938717671351
 20
154.6081303887234
 42
-0.0307462972967344
 10
1845.551899710251
 20
157.0973754336204
 42
-0.0290924569135657
 10
1842.487080845365
 20
159.9739824948868
 42
-0.0276436609265166
 10
1839.767246472803
 20
163.1790191948861
 42
-0.0260577628292856
 10
1837.40485414542
 20
166.6578692747419
  0
LWPOLYLINE
  5
812D
330
18
100
AcDbEntity
  8
DRAW2
100
AcDbPolyline
 90
        4
 70
     0
 43
0.0
 10
2019.929207172761
 20
151.0209674192716
 42
-0.0125208525827594
 10
2005.361722314349
 20
147.1674439633071
 42
-0.0126098032373598
 10
1990.618850533025
 20
144.0504622290794
 42
-0.0126598759731782
 10
1975.737861957918
 20
141.682222302085
  0
LWPOLYLINE
  5
812E
330
18
100
AcDbEntity
  8
DRAW2
100
AcDbPolyline
 90
        4
 70
     0
 43
0.0
 10
2037.036995258699
 20
151.0209674192714
 42
-0.0136146902551877
 10
2023.885563138855
 20
147.1756295494002
 42
-0.0137983886345355
 10
2010.542836822955
 20
144.0564141609364
 42
-0.018342923872067
 10
1992.768901546124
 20
141.0901170872415
  0
LWPOLYLINE
  5
812F
330
18
100
AcDbEntity
  8
DRAW2
100
AcDbPolyline
 90
        4
 70
     0
 43
0.0
 10
2038.038887348542
 20
151.0209674192712
 42
-0.0141838654633703
 10
2024.341225509142
 20
147.0738822256076
 42
-0.0143903221294423
 10
2010.440136896618
 20
143.9153631032485
 42
-0.0145377325168613
 10
1996.380684223542
 20
141.5660723997408
  0
LWPOLYLINE
  5
8132
330
18
100
AcDbEntity
  8
DRAW2
100
AcDbPolyline
 90
        7
 70
     0
 43
0.0
 10
1918.839668598544
 20
149.1526202513044
 42
0.0091006477677965
 10
1919.550799787436
 20
149.0667602704737
 42
0.0079821482513274
 10
1920.264812294295
 20
149.0046413694639
 42
0.0083889402268729
 10
1920.98092131341
 20
148.9660780830012
 42
0.0106844055648485
 10
1921.698070971934
 20
148.9540525041824
 42
0.0184082160085458
 10
1922.414575282405
 20
148.9824652978235
 42
0.1218147838184706
 10
1923.099006977451
 20
149.1526202513044
  0
LWPOLYLINE
  5
8133
330
18
100
AcDbEntity
  8
DRAW2
100
AcDbPolyline
 90
        7
 70
     0
 43
0.0
 10
1918.839668598544
 20
142.0754107786482
 42
0.0089177983510652
 10
1919.550745348448
 20
141.9912430277839
 42
0.0078318062625349
 10
1920.264607134962
 20
141.9303503394061
 42
0.0082044733338162
 10
1920.980499895591
 20
141.8925159433405
 42
0.0104883679320367
 10
1921.697396640392
 20
141.8806792497247
 42
0.0180409241014314
 10
1922.413674221771
 20
141.9085140498886
 42
0.1195718635453209
 10
1923.099006977451
 20
142.0754107786482
  0
LINE
  5
8134
330
18
100
AcDbEntity
  8
DRAW2
100
AcDbLine
 10
1901.790196393149
 20
141.0901170872426
 30
0.0
 11
1992.768901546121
 21
141.090117087241
 31
0.0
  0
LWPOLYLINE
  5
8135
330
18
100
AcDbEntity
  8
DRAW2
100
AcDbPolyline
 90
        4
 70
     0
 43
0.0
 10
1856.520210590732
 20
151.0209674192732
 42
0.0141838654633703
 10
1870.217872430132
 20
147.0738822256092
 42
0.0143903221294423
 10
1884.118961042656
 20
143.9153631032498
 42
0.0145377325168613
 10
1898.178413715732
 20
141.5660723997419
  0
LWPOLYLINE
  5
8136
330
18
100
AcDbEntity
  8
DRAW2
100
AcDbPolyline
 90
        4
 70
     0
 43
0.0
 10
1857.522102680576
 20
151.0209674192732
 42
0.0136146902551877
 10
1870.673534800419
 20
147.1756295494018
 42
0.0137983886345355
 10
1884.016261116319
 20
144.0564141609378
 42
0.018342923872067
 10
1901.79019639315
 20
141.0901170872424
  0
LWPOLYLINE
  5
8137
330
18
100
AcDbEntity
  8
DRAW2
100
AcDbPolyline
 90
        4
 70
     0
 43
0.0
 10
1859.094917621982
 20
157.7725543333357
 42
0.0015827549175827
 10
1860.591648223653
 20
157.2963476288736
 42
0.0015848145671327
 10
1862.091365538311
 20
156.829632390962
 42
0.0015869589084804
 10
1863.594013219574
 20
156.3724399842543
  0
LWPOLYLINE
  5
8138
330
18
100
AcDbEntity
  8
DRAW2
100
AcDbPolyline
 90
        4
 70
     0
 43
0.0
 10
1858.107673969638
 20
157.7725543333357
 42
0.0021720796717678
 10
1860.161135727412
 20
157.128402578592
 42
0.0021760481220599
 10
1862.220121286642
 20
156.5021322878986
 42
0.0021802359839725
 10
1864.284484857659
 20
155.893824494988
  0
LWPOLYLINE
  5
8139
330
18
100
AcDbEntity
  8
DRAW2
100
AcDbPolyline
 90
        4
 70
     0
 43
0.0
 10
1876.691109028232
 20
151.0209674192732
 42
0.0119520063065369
 10
1890.591913954869
 20
147.3648536549611
 42
0.012036502202549
 10
1904.652006778416
 20
144.379446412608
 42
0.0120785698233037
 10
1918.839668598544
 20
142.0754107786482
  0
LWPOLYLINE
  5
813A
330
18
100
AcDbEntity
  8
DRAW2
100
AcDbPolyline
 90
        4
 70
     0
 43
0.0
 10
1874.629890766513
 20
151.0209674192732
 42
0.0125208525827594
 10
1889.197375624925
 20
147.1674439633082
 42
0.0126098032373598
 10
1903.940247406249
 20
144.0504622290803
 42
0.0126598759731782
 10
1918.821235981357
 20
141.6822223020857
  0
LWPOLYLINE
  5
813B
330
18
100
AcDbEntity
  8
DRAW2
100
AcDbPolyline
 90
        4
 70
     0
 43
0.0
 10
1878.444954243076
 20
157.7725543333357
 42
0.0116870527757562
 10
1891.769937438021
 20
154.2676299940907
 42
0.0117606153831219
 10
1905.244520344407
 20
151.3910454146765
 42
0.0118087962463095
 10
1918.839668598544
 20
149.1526202513044
  0
LWPOLYLINE
  5
813C
330
18
100
AcDbEntity
  8
DRAW2
100
AcDbPolyline
 90
        9
 70
     0
 43
0.0
 10
1918.821235981357
 20
141.6822223020857
 42
-0.005024896805964
 10
1919.194270860991
 20
141.6287821460349
 42
-0.0063632155914094
 10
1919.566260212752
 20
141.5669325240618
 42
-0.0100562168591811
 10
1919.935610176954
 20
141.4933758244145
 42
-0.0233199907900123
 10
1920.299266108607
 20
141.3968302612978
 42
-0.5184859650857904
 10
1920.503812349083
 20
141.1955393426736
 42
-0.0751160412966022
 10
1920.138125938308
 20
141.119409323743
 42
-0.0153584755183729
 10
1919.763686091177
 20
141.0961867347354
 42
-0.0085962178674856
 10
1919.389656391513
 20
141.0901202513044
  0
LWPOLYLINE
  5
813E
330
18
100
AcDbEntity
  8
DRAW2
100
AcDbPolyline
 90
        4
 70
     0
 43
0.0
 10
1967.616829243074
 20
157.7725543333352
 42
0.0123623970108905
 10
1968.675327574292
 20
154.8004364957486
 42
0.0194202295575109
 10
1969.916703839627
 20
151.8998645571654
 42
0.0364184002398936
 10
1971.460090961823
 20
149.152620251304
  0
LWPOLYLINE
  5
813F
330
18
100
AcDbEntity
  8
DRAW2
100
AcDbPolyline
 90
        4
 70
     0
 43
0.0
 10
1967.449959125886
 20
151.0209674192727
 42
0.0125718241900343
 10
1968.549031767531
 20
147.9329802017144
 42
0.0199327983734869
 10
1969.841895458333
 20
144.9217683249388
 42
0.0380755566656809
 10
1971.460090961823
 20
142.0754107786477
  0
ARC
  5
8140
330
18
100
AcDbEntity
  8
DRAW2
100
AcDbCircle
 10
1947.279548969638
 20
502.8857211575552
 30
0.0
 40
356.0
100
AcDbArc
 50
267.0351038270582
 51
272.9648961729413
  0
LWPOLYLINE
  5
8141
330
18
100
AcDbEntity
  8
DRAW2
100
AcDbPolyline
 90
        9
 70
     0
 43
0.0
 10
1925.968757954013
 20
141.6822223020857
 42
0.2484487536128071
 10
1926.387477976842
 20
141.4340038560816
 42
0.0207067864157945
 10
1926.907561160513
 20
141.3268137725821
 42
0.0107853358609902
 10
1927.433784566163
 20
141.250487092036
 42
0.0071475553217513
 10
1927.962006729584
 20
141.1926876435321
 42
0.0060754513479134
 10
1928.492054174342
 20
141.1486183203773
 42
0.0056993322804818
 10
1929.023364892762
 20
141.1171295039397
 42
0.0054833526054375
 10
1929.55534403123
 20
141.0973878769249
 42
0.0064089208034361
 10
1930.087705390451
 20
141.0901205369976
  0
LWPOLYLINE
  5
8142
330
18
100
AcDbEntity
  8
DRAW2
100
AcDbPolyline
 90
        4
 70
     0
 43
0.0
 10
1926.942268696201
 20
157.7725543333357
 42
-0.0123623970108905
 10
1925.883770364983
 20
154.800436495749
 42
-0.0194202295575109
 10
1924.642394099648
 20
151.8998645571658
 42
-0.0364184002398936
 10
1923.099006977451
 20
149.1526202513044
  0
LWPOLYLINE
  5
8143
330
18
100
AcDbEntity
  8
DRAW2
100
AcDbPolyline
 90
        4
 70
     0
 43
0.0
 10
1930.173225727451
 20
151.0209674192732
 42
-0.0128984109347555
 10
1929.031890052014
 20
147.7911833880474
 42
-0.0208110657479203
 10
1927.680774874037
 20
144.6442255202522
 42
-0.0412092509666509
 10
1925.968757954013
 20
141.6822223020857
  0
LWPOLYLINE
  5
8144
330
18
100
AcDbEntity
  8
DRAW2
100
AcDbPolyline
 90
        4
 70
     0
 43
0.0
 10
1927.109138813388
 20
151.0209674192732
 42
-0.0125718241900343
 10
1926.010066171743
 20
147.9329802017149
 42
-0.0199327983734869
 10
1924.717202480941
 20
144.9217683249393
 42
-0.0380755566656809
 10
1923.099006977451
 20
142.0754107786482
  0
LWPOLYLINE
  5
8145
330
18
100
AcDbEntity
  8
DRAW2
100
AcDbPolyline
 90
        9
 70
     0
 43
0.0
 10
1968.590339985261
 20
141.6822223020852
 42
-0.2484487536128071
 10
1968.171619962433
 20
141.4340038560811
 42
-0.0207067864157945
 10
1967.651536778761
 20
141.3268137725816
 42
-0.0107853358609902
 10
1967.125313373112
 20
141.2504870920355
 42
-0.0071475553217513
 10
1966.59709120969
 20
141.1926876435317
 42
-0.0060754513479134
 10
1966.067043764932
 20
141.1486183203768
 42
-0.0056993322804818
 10
1965.535733046513
 20
141.1171295039392
 42
-0.0054833526054375
 10
1965.003753908045
 20
141.0973878769246
 42
-0.0064089208034361
 10
1964.471392548824
 20
141.0901205369974
  0
LWPOLYLINE
  5
8146
330
18
100
AcDbEntity
  8
DRAW2
100
AcDbPolyline
 90
        4
 70
     0
 43
0.0
 10
1964.385872211824
 20
151.0209674192729
 42
0.0128984109347555
 10
1965.52720788726
 20
147.791183388047
 42
0.0208110657479203
 10
1966.878323065238
 20
144.6442255202517
 42
0.0412092509666509
 10
1968.590339985261
 20
141.6822223020852
  0
LWPOLYLINE
  5
8147
330
18
100
AcDbEntity
  8
DRAW2
100
AcDbPolyline
 90
        4
 70
     0
 43
0.0
 10
2016.114143696199
 20
157.7725543333343
 42
-0.0116870527757562
 10
2002.789160501253
 20
154.2676299940895
 42
-0.0117606153831219
 10
1989.314577594868
 20
151.3910454146756
 42
-0.0118087962463095
 10
1975.71942934073
 20
149.1526202513037
  0
LWPOLYLINE
  5
8148
330
18
100
AcDbEntity
  8
DRAW2
100
AcDbPolyline
 90
        4
 70
     0
 43
0.0
 10
2017.867988911043
 20
151.0209674192716
 42
-0.0119520063065369
 10
2003.967183984405
 20
147.36485365496
 42
-0.012036502202549
 10
1989.907091160858
 20
144.379446412607
 42
-0.0120785698233037
 10
1975.71942934073
 20
142.0754107786475
  0
LWPOLYLINE
  5
8149
330
18
100
AcDbEntity
  8
DRAW2
100
AcDbPolyline
 90
        9
 70
     0
 43
0.0
 10
1975.737861957918
 20
141.682222302085
 42
0.005024896805964
 10
1975.364827078283
 20
141.6287821460344
 42
0.0063632155914094
 10
1974.992837726522
 20
141.5669325240613
 42
0.0100562168591811
 10
1974.62348776232
 20
141.493375824414
 42
0.0233199907900123
 10
1974.259831830667
 20
141.3968302612973
 42
0.5184859650857904
 10
1974.055285590192
 20
141.1955393426732
 42
0.0751160412966022
 10
1974.420972000966
 20
141.1194093237426
 42
0.0153584755183729
 10
1974.795411848097
 20
141.0961867347349
 42
0.0085962178674856
 10
1975.169441547761
 20
141.090120251304
  0
LWPOLYLINE
  5
814A
330
18
100
AcDbEntity
  8
DRAW2
100
AcDbPolyline
 90
        7
 70
     0
 43
0.0
 10
1975.71942934073
 20
149.1526202513037
 42
-0.0091006477677965
 10
1975.008298151838
 20
149.0667602704733
 42
-0.0079821482513274
 10
1974.29428564498
 20
149.0046413694634
 42
-0.0083889402268729
 10
1973.578176625865
 20
148.9660780830007
 42
-0.0106844055648485
 10
1972.86102696734
 20
148.9540525041819
 42
-0.0184082160085458
 10
1972.14452265687
 20
148.982465297823
 42
-0.1218147838184706
 10
1971.460090961823
 20
149.152620251304
  0
LWPOLYLINE
  5
814B
330
18
100
AcDbEntity
  8
DRAW2
100
AcDbPolyline
 90
        7
 70
     0
 43
0.0
 10
1975.71942934073
 20
142.0754107786475
 42
-0.0089177983510652
 10
1975.008352590826
 20
141.9912430277835
 42
-0.0078318062625349
 10
1974.294490804313
 20
141.9303503394056
 42
-0.0082044733338162
 10
1973.578598043684
 20
141.89251594334
 42
-0.0104883679320367
 10
1972.861701298882
 20
141.8806792497242
 42
-0.0180409241014314
 10
1972.145423717504
 20
141.9085140498881
 42
-0.1195718635453209
 10
1971.460090961823
 20
142.0754107786477
  0
LINE
  5
814C
330
18
100
AcDbEntity
  8
DRAW2
100
AcDbLine
 10
2112.543918969637
 20
133.38562708724
 30
0.0
 11
2131.279498969637
 21
133.3856270872396
 31
0.0
  0
ARC
  5
814E
330
18
100
AcDbEntity
  8
DRAW2
100
AcDbCircle
 10
2064.579478969637
 20
127.3856570872403
 30
0.0
 40
24.0
100
AcDbArc
 50
61.45853842686227
 51
89.9999999999992
  0
LINE
  5
814F
330
18
100
AcDbEntity
  8
DRAW2
100
AcDbLine
 10
2039.11274170001
 20
151.385627087241
 30
0.0
 11
2064.579478969637
 21
151.3856270872405
 31
0.0
  0
LWPOLYLINE
  5
8150
330
18
100
AcDbEntity
  8
DRAW2
100
AcDbPolyline
 90
        4
 70
     0
 43
0.0
 10
2036.451423969636
 20
157.7725543333327
 42
-0.0021720796717678
 10
2034.397962211862
 20
157.1284025785893
 42
-0.0021760481220599
 10
2032.338976652633
 20
156.5021322878959
 42
-0.0021802359839725
 10
2030.274613081615
 20
155.8938244949853
  0
LWPOLYLINE
  5
8151
330
18
100
AcDbEntity
  8
DRAW2
100
AcDbPolyline
 90
        4
 70
     0
 43
0.0
 10
2035.464180317292
 20
157.772554333333
 42
-0.0015827549175827
 10
2033.967449715622
 20
157.2963476288708
 42
-0.0015848145671327
 10
2032.467732400963
 20
156.8296323909593
 42
-0.0015869589084804
 10
2030.965084719701
 20
156.3724399842516
  0
ARC
  5
8152
330
18
100
AcDbEntity
  8
DRAW2
100
AcDbCircle
 10
2093.222688149326
 20
85.43055708724153
 30
0.0
 40
4.344898699999999
100
AcDbArc
 50
235.61575
 51
295.6157499999999
  0
LINE
  5
8153
330
18
100
AcDbEntity
  8
DRAW2
100
AcDbLine
 10
2077.361458149326
 20
81.0856570872416
 30
0.0
 11
2094.361458149326
 21
81.0856570872416
 31
0.0
  0
ARC
  5
8154
330
18
100
AcDbEntity
  8
DRAW2
100
AcDbCircle
 10
2078.500248149326
 20
85.43055708724153
 30
0.0
 40
4.344898699999999
100
AcDbArc
 50
244.38425
 51
304.38425
  0
LINE
  5
8155
330
18
100
AcDbEntity
  8
DRAW2
100
AcDbLine
 10
2077.361458149326
 20
81.08566708724158
 30
0.0
 11
2076.046518149326
 21
81.84484708724159
 31
0.0
  0
ARC
  5
8156
330
18
100
AcDbEntity
  8
DRAW2
100
AcDbCircle
 10
2085.861458149326
 20
97.32646708724161
 30
0.0
 40
16.24081
100
AcDbArc
 50
252.4120499999999
 51
287.5879499999999
  0
LINE
  5
8157
330
18
100
AcDbEntity
  8
DRAW2
100
AcDbLine
 10
2095.676428149326
 20
81.84485708724157
 30
0.0
 11
2094.361458149326
 21
81.0856570872416
 31
0.0
  0
ARC
  5
8158
330
18
100
AcDbEntity
  8
DRAW2
100
AcDbCircle
 10
2112.579478969638
 20
182.3856270872401
 30
0.0
 40
48.99999600000001
100
AcDbArc
 50
249.8206691583906
 51
269.9525499999992
  0
LINE
  5
8159
330
18
100
AcDbEntity
  8
DRAW2
100
AcDbLine
 10
2170.279498969638
 20
100.3856270872423
 30
0.0
 11
2153.279498969637
 21
100.385627087242
 31
0.0
  0
ARC
  5
815A
330
18
100
AcDbEntity
  8
DRAW2
100
AcDbCircle
 10
2132.03564126956
 20
121.6479072223956
 30
0.0
 40
4.856120099999999
100
AcDbArc
 50
154.3823000000045
 51
214.3837949999964
  0
LINE
  5
815B
330
18
100
AcDbEntity
  8
DRAW2
100
AcDbLine
 10
2139.27951626956
 20
102.5856581223954
 30
0.0
 11
2139.27951626956
 21
124.1856581223953
 31
0.0
  0
LINE
  5
815C
330
18
100
AcDbEntity
  8
DRAW2
100
AcDbLine
 10
2137.17951626956
 20
124.3903241223954
 30
0.0
 11
2137.17951626956
 21
102.4510081223954
 31
0.0
  0
LINE
  5
815D
330
18
100
AcDbEntity
  8
DRAW2
100
AcDbLine
 10
2127.17951626956
 20
122.9207039223954
 30
0.0
 11
2127.17951626956
 21
103.9206734223955
 31
0.0
  0
ARC
  5
815E
330
18
100
AcDbEntity
  8
DRAW2
100
AcDbCircle
 10
2142.279498969636
 20
103.3856870872395
 30
0.0
 40
3.0
100
AcDbArc
 50
180.0000029999992
 51
270.0000099999992
  0
LINE
  5
815F
330
18
100
AcDbEntity
  8
DRAW2
100
AcDbLine
 10
2128.02801126956
 20
118.9054909223955
 30
0.0
 11
2137.17951626956
 21
118.9054909223955
 31
0.0
  0
LINE
  5
8160
330
18
100
AcDbEntity
  8
DRAW2
100
AcDbLine
 10
2128.02802726956
 20
102.4510081223954
 30
0.0
 11
2137.17951626956
 21
102.4510081223954
 31
0.0
  0
LINE
  5
8161
330
18
100
AcDbEntity
  8
DRAW2
100
AcDbLine
 10
2128.02799626956
 20
107.9358406223955
 30
0.0
 11
2137.17951626956
 21
107.9358406223955
 31
0.0
  0
LINE
  5
8162
330
18
100
AcDbEntity
  8
DRAW2
100
AcDbLine
 10
2119.65451626956
 20
119.3856581223954
 30
0.0
 11
2118.77951626956
 21
118.5106581223954
 31
0.0
  0
LINE
  5
8163
330
18
100
AcDbEntity
  8
DRAW3
100
AcDbLine
 10
2118.77951626956
 20
118.5106581223954
 30
0.0
 11
2127.17951626956
 21
118.5106581223954
 31
0.0
  0
LINE
  5
8164
330
18
100
AcDbEntity
  8
DRAW2
100
AcDbLine
 10
2119.65451626956
 20
119.3856581223954
 30
0.0
 11
2127.17951626956
 21
119.3856581223954
 31
0.0
  0
ARC
  5
8165
330
18
100
AcDbEntity
  8
DRAW2
100
AcDbCircle
 10
2132.03556526956
 20
105.1934242223956
 30
0.0
 40
4.856048099999999
100
AcDbArc
 50
145.6155800000034
 51
205.6154199999964
  0
LINE
  5
8166
330
18
100
AcDbEntity
  8
DRAW2
100
AcDbLine
 10
2127.17952126956
 20
103.9206705223955
 30
0.0
 11
2128.02803226956
 21
102.4510071223955
 31
0.0
  0
LINE
  5
8167
330
18
100
AcDbEntity
  8
DRAW2
100
AcDbLine
 10
2119.65451626956
 20
107.3856581223953
 30
0.0
 11
2118.77951626956
 21
108.2606581223954
 31
0.0
  0
LINE
  5
8168
330
18
100
AcDbEntity
  8
DRAW3
100
AcDbLine
 10
2118.77951626956
 20
108.2606581223954
 30
0.0
 11
2127.17951626956
 21
108.2606581223954
 31
0.0
  0
LINE
  5
8169
330
18
100
AcDbEntity
  8
DRAW2
100
AcDbLine
 10
2119.65451626956
 20
107.3856581223953
 30
0.0
 11
2127.17951626956
 21
107.3856581223953
 31
0.0
  0
LINE
  5
816A
330
18
100
AcDbEntity
  8
DRAW2
100
AcDbLine
 10
2119.65451626956
 20
107.3856581223953
 30
0.0
 11
2119.65451626956
 21
119.3856581223954
 31
0.0
  0
LINE
  5
816B
330
18
100
AcDbEntity
  8
DRAW2
100
AcDbLine
 10
2118.77951626956
 20
108.2606581223954
 30
0.0
 11
2118.77951626956
 21
118.5106581223954
 31
0.0
  0
ARC
  5
816C
330
18
100
AcDbEntity
  8
DRAW2
100
AcDbCircle
 10
2145.33124966956
 20
113.4206581223954
 30
0.0
 40
18.151737
100
AcDbArc
 50
162.412250000001
 51
197.5876729999987
  0
LINE
  5
816D
330
18
100
AcDbEntity
  8
DRAW2
100
AcDbLine
 10
2139.27951626956
 20
113.1356581223954
 30
0.0
 11
2137.17951626956
 21
113.1356581223954
 31
0.0
  0
LINE
  5
816E
330
18
100
AcDbEntity
  8
DRAW2
100
AcDbLine
 10
2139.27951626956
 20
113.6356581223953
 30
0.0
 11
2137.17951626956
 21
113.6356581223953
 31
0.0
  0
LINE
  5
816F
330
18
100
AcDbEntity
  8
DRAW2
100
AcDbLine
 10
2139.27951626956
 20
102.5856581223954
 30
0.0
 11
2137.17951626956
 21
102.5856581223954
 31
0.0
  0
LINE
  5
8170
330
18
100
AcDbEntity
  8
DRAW2
100
AcDbLine
 10
2142.279498969636
 20
100.3856870872394
 30
0.0
 11
2153.279498969636
 21
100.3856870872394
 31
0.0
  0
LINE
  5
8171
330
18
100
AcDbEntity
  8
DRAW2
100
AcDbLine
 10
2128.02801126956
 20
124.3903241223954
 30
0.0
 11
2137.17951626956
 21
124.3903241223954
 31
0.0
  0
LINE
  5
8172
330
18
100
AcDbEntity
  8
DRAW2
100
AcDbLine
 10
2128.02801426956
 20
124.3903371223955
 30
0.0
 11
2127.17952326956
 21
122.9207067223956
 31
0.0
  0
LINE
  5
8173
330
18
100
AcDbEntity
  8
DRAW2
100
AcDbLine
 10
2139.27951626956
 20
124.1856581223953
 30
0.0
 11
2137.17951626956
 21
124.1856581223953
 31
0.0
  0
ARC
  5
8174
330
18
100
AcDbEntity
  8
DRAW2
100
AcDbCircle
 10
2131.279498969637
 20
125.3856270872397
 30
0.0
 40
8.0
100
AcDbArc
 50
359.9999999999992
 51
89.9999999999992
  0
LINE
  5
8175
330
18
100
AcDbEntity
  8
DRAW2
100
AcDbLine
 10
2181.779498969638
 20
122.8857038987625
 30
0.0
 11
2181.779498969638
 21
103.8856733811844
 31
0.0
  0
ARC
  5
8176
330
18
100
AcDbEntity
  8
DRAW2
100
AcDbCircle
 10
2176.923374091708
 20
121.6129072679032
 30
0.0
 40
4.856120109558093
100
AcDbArc
 50
325.6162052603249
 51
25.61769932631058
  0
LINE
  5
8177
330
18
100
AcDbEntity
  8
DRAW2
100
AcDbLine
 10
2173.779498969638
 20
124.3553236497391
 30
0.0
 11
2173.779498969638
 21
102.4160078538407
 31
0.0
  0
LINE
  5
8178
330
18
100
AcDbEntity
  8
DRAW2
100
AcDbLine
 10
2171.279498969638
 20
101.3856270872423
 30
0.0
 11
2170.279498969638
 21
100.3856270872423
 31
0.0
  0
LINE
  5
8179
330
18
100
AcDbEntity
  8
DRAW2
100
AcDbLine
 10
2180.93098822745
 20
102.4160078538407
 30
0.0
 11
2173.779498969638
 21
102.4160078538407
 31
0.0
  0
LINE
  5
817A
330
18
100
AcDbEntity
  8
DRAW2
100
AcDbLine
 10
2180.931018745028
 20
107.9008406175125
 30
0.0
 11
2173.779498969638
 21
107.9008406175125
 31
0.0
  0
LINE
  5
817B
330
18
100
AcDbEntity
  8
DRAW2
100
AcDbLine
 10
2180.931003486239
 20
118.8704908860672
 30
0.0
 11
2173.779498969638
 21
118.8704908860672
 31
0.0
  0
LINE
  5
817C
330
18
100
AcDbEntity
  8
DRAW2
100
AcDbLine
 10
2173.779498969638
 20
102.8856581223954
 30
0.0
 11
2171.279498969638
 21
102.8856581223954
 31
0.0
  0
ARC
  5
817D
330
18
100
AcDbEntity
  8
DRAW2
100
AcDbCircle
 10
2176.923450385654
 20
105.1584242356767
 30
0.0
 40
4.856048107147219
100
AcDbArc
 50
334.384580135639
 51
34.38442471094022
  0
LINE
  5
817E
330
18
100
AcDbEntity
  8
DRAW2
100
AcDbLine
 10
2181.779499923312
 20
103.8856667054642
 30
0.0
 11
2180.930989657962
 21
102.4160030854691
 31
0.0
  0
ARC
  5
817F
330
18
100
AcDbEntity
  8
DRAW2
100
AcDbCircle
 10
2163.6277655712
 20
113.3856581223954
 30
0.0
 40
18.15173721313474
100
AcDbArc
 50
342.4123268633978
 51
17.5877532776394
  0
ARC
  5
8180
330
18
100
AcDbEntity
  8
DRAW2
100
AcDbCircle
 10
2173.279498969639
 20
140.3856270872424
 30
0.0
 40
2.0
100
AcDbArc
 50
90.00000000000095
 51
180.0000000000007
  0
LINE
  5
8181
330
18
100
AcDbEntity
  8
DRAW2
100
AcDbLine
 10
2180.931003486239
 20
124.3553236497391
 30
0.0
 11
2173.779498969638
 21
124.3553236497391
 31
0.0
  0
LINE
  5
8182
330
18
100
AcDbEntity
  8
DRAW2
100
AcDbLine
 10
2173.779498969638
 20
123.8856581223954
 30
0.0
 11
2171.279498969638
 21
123.8856581223954
 31
0.0
  0
LINE
  5
8183
330
18
100
AcDbEntity
  8
DRAW2
100
AcDbLine
 10
2180.931003009402
 20
124.3553303254593
 30
0.0
 11
2181.779494678103
 21
122.885699130391
 31
0.0
  0
ARC
  5
8184
330
18
100
AcDbEntity
  8
DRAW2
100
AcDbCircle
 10
2173.279498969639
 20
144.3856270872423
 30
0.0
 40
2.0
100
AcDbArc
 50
270.0000000000009
 51
0.0000000000007449
  0
LINE
  5
8185
330
18
100
AcDbEntity
  8
DRAW2
100
AcDbLine
 10
1824.279548969638
 20
418.3856870872415
 30
0.0
 11
2070.279548969638
 21
418.3856570872414
 31
0.0
  0
LINE
  5
8186
330
18
100
AcDbEntity
  8
DRAW2
100
AcDbLine
 10
2065.279548969638
 20
423.3856570872415
 30
0.0
 11
1829.279548969639
 21
423.3856570872415
 31
0.0
  0
LINE
  5
8187
330
18
100
AcDbEntity
  8
DRAW2
100
AcDbLine
 10
2070.279548969638
 20
375.3856570872414
 30
0.0
 11
1824.279548969638
 21
375.3856570872414
 31
0.0
  0
LWPOLYLINE
  5
8189
330
18
100
AcDbEntity
  8
DRAW2
100
AcDbPolyline
 90
        7
 70
     0
 43
0.0
 10
1835.616175329095
 20
210.8856230872414
 42
0.0167368758403488
 10
1838.587231586221
 20
201.1092643536643
 42
0.0127579436271155
 10
1841.257577926235
 20
193.8842905846444
 42
0.0128989150536383
 10
1844.294742048732
 20
186.8057103602999
 42
0.0130488256969131
 10
1847.695091341067
 20
179.8942629683145
 42
0.0132469465544267
 10
1851.453986692586
 20
173.171113063397
 42
0.0134231659958118
 10
1855.565742817295
 20
166.6578692747419
  0
LWPOLYLINE
  5
818A
330
18
100
AcDbEntity
  8
DRAW2
100
AcDbPolyline
 90
        7
 70
     0
 43
0.0
 10
1833.816424313304
 20
210.8856230872414
 42
0.0166570689374682
 10
1836.773463418467
 20
201.112110585151
 42
0.0126952700207877
 10
1839.430290628153
 20
193.8900875874363
 42
0.0128271120478138
 10
1842.451901720103
 20
186.8129481299487
 42
0.0129782316677029
 10
1845.834671692602
 20
179.9011670138455
 42
0.0131732155585087
 10
1849.574105973206
 20
173.1756893066025
 42
0.0133490490783883
 10
1853.66461977042
 20
166.6578692747419
  0
LWPOLYLINE
  5
818B
330
18
100
AcDbEntity
  8
DRAW2
100
AcDbPolyline
 90
        7
 70
     0
 43
0.0
 10
1826.685217638978
 20
210.8856230872414
 42
0.0149754788129563
 10
1829.267496968813
 20
201.8890563218468
 42
0.0111583180841842
 10
1831.498993679929
 20
195.4122664428736
 42
0.0113988446965784
 10
1834.020121772331
 20
189.0426699084849
 42
0.0116417719682759
 10
1836.831943218324
 20
182.7959607282203
 42
0.0119445524024891
 10
1839.935205897015
 20
176.688828022768
 42
0.0122607535854519
 10
1843.329658832919
 20
170.7397784544294
  0
LWPOLYLINE
  5
818C
330
18
100
AcDbEntity
  8
DRAW2
100
AcDbPolyline
 90
        7
 70
     0
 43
0.0
 10
1825.473290257581
 20
210.8856230872414
 42
0.0150603082906953
 10
1828.069065293544
 20
201.8864072126956
 42
0.0112248263607717
 10
1830.313091059295
 20
195.4071448488569
 42
0.0114703321736649
 10
1832.848603840129
 20
189.0363429768834
 42
0.0117164137052819
 10
1835.676671053299
 20
182.789916649281
 42
0.0120247615053926
 10
1838.798036097115
 20
176.6847983184137
 42
0.0123448963593331
 10
1842.212410297763
 20
170.7397784544294
  0
LWPOLYLINE
  5
818D
330
18
100
AcDbEntity
  8
DRAW2
100
AcDbPolyline
 90
        7
 70
     0
 43
0.0
 10
1842.37922261933
 20
210.8856230872414
 42
0.0164414716847577
 10
1845.267398022865
 20
201.8322849189638
 42
0.0121865809255158
 10
1847.764538965061
 20
195.3186801422847
 42
0.0123349698176407
 10
1850.577808454191
 20
188.9352653350882
 42
0.0124648571855072
 10
1853.704112582398
 20
182.6991970219518
 42
0.0126440873298144
 10
1857.139492011826
 20
176.6279366210832
 42
0.0128097585453782
 10
1860.878853168857
 20
170.7397784544294
  0
LINE
  5
818E
330
18
100
AcDbEntity
  8
DRAW2
100
AcDbLine
 10
1899.69780148667
 20
201.8453107719276
 30
0.0
 11
1899.697850013493
 21
209.0857230872417
 31
0.0
  0
LINE
  5
818F
330
18
100
AcDbEntity
  8
DRAW2
100
AcDbLine
 10
1894.787349248549
 20
201.8453272274633
 30
0.0
 11
1894.787354401227
 21
209.0857230872417
 31
0.0
  0
LINE
  5
8190
330
18
100
AcDbEntity
  8
DRAW2
100
AcDbLine
 10
1880.055940167173
 20
201.8453765942459
 30
0.0
 11
1880.055940167173
 21
209.0857230872417
 31
0.0
  0
LINE
  5
8191
330
18
100
AcDbEntity
  8
DRAW2
100
AcDbLine
 10
1884.96641157597
 20
201.845360138646
 30
0.0
 11
1884.96641157597
 21
209.0857230872417
 31
0.0
  0
LINE
  5
8192
330
18
100
AcDbEntity
  8
DRAW2
100
AcDbLine
 10
1881.371698637453
 20
201.0857230872417
 30
0.0
 11
1898.382136659973
 21
201.0857230872417
 31
0.0
  0
ARC
  5
8193
330
18
100
AcDbEntity
  8
DRAW2
100
AcDbCircle
 10
1897.242587350053
 20
205.4209678660818
 30
0.0
 40
4.337441655125864
100
AcDbArc
 50
235.5242942659158
 51
295.5239102553666
  0
ARC
  5
8194
330
18
100
AcDbEntity
  8
DRAW2
100
AcDbCircle
 10
1889.876932326986
 20
217.3370778955442
 30
0.0
 40
16.25135480830907
100
AcDbArc
 50
252.4125738832839
 51
287.5870421061559
  0
LINE
  5
8195
330
18
100
AcDbEntity
  8
DRAW2
100
AcDbLine
 10
1885.626895630622
 20
191.3856230872418
 30
0.0
 11
1884.876895630622
 21
192.1356230872418
 31
0.0
  0
LINE
  5
8196
330
18
100
AcDbEntity
  8
DRAW2
100
AcDbLine
 10
1884.876895630622
 20
192.1356230872417
 30
0.0
 11
1894.876895630622
 21
192.1356230872418
 31
0.0
  0
LINE
  5
8197
330
18
100
AcDbEntity
  8
DRAW2
100
AcDbLine
 10
1881.371698637453
 20
201.0857230872417
 30
0.0
 11
1880.055940167173
 21
201.845376594246
 31
0.0
  0
ARC
  5
8198
330
18
100
AcDbEntity
  8
DRAW2
100
AcDbCircle
 10
1882.511179240529
 20
205.4210152795354
 30
0.0
 40
4.337441655125864
100
AcDbArc
 50
244.4757209284554
 51
304.4753369179075
  0
LINE
  5
8199
330
18
100
AcDbEntity
  8
DRAW2
100
AcDbLine
 10
1884.876895630622
 20
192.1356230872418
 30
0.0
 11
1884.876895630622
 21
201.0857380872418
 31
0.0
  0
LINE
  5
819A
330
18
100
AcDbEntity
  8
DRAW2
100
AcDbLine
 10
1894.126895630622
 20
191.3856230872418
 30
0.0
 11
1894.876895630622
 21
192.1356230872418
 31
0.0
  0
LINE
  5
819B
330
18
100
AcDbEntity
  8
DRAW2
100
AcDbLine
 10
1894.126895630622
 20
191.3856230872418
 30
0.0
 11
1885.626895630622
 21
191.3856230872418
 31
0.0
  0
LINE
  5
819C
330
18
100
AcDbEntity
  8
DRAW3
100
AcDbLine
 10
1885.626895630622
 20
191.3856230872418
 30
0.0
 11
1885.626895630623
 21
201.0857380872418
 31
0.0
  0
LINE
  5
819D
330
18
100
AcDbEntity
  8
DRAW3
100
AcDbLine
 10
1894.126895630622
 20
191.3856230872418
 30
0.0
 11
1894.126895630621
 21
201.0857380872418
 31
0.0
  0
LINE
  5
819E
330
18
100
AcDbEntity
  8
DRAW2
100
AcDbLine
 10
1894.876895630622
 20
192.1356230872418
 30
0.0
 11
1894.876895630622
 21
201.0857380872418
 31
0.0
  0
LINE
  5
819F
330
18
100
AcDbEntity
  8
DRAW2
100
AcDbLine
 10
1898.382037925034
 20
201.0856660834807
 30
0.0
 11
1899.69780148667
 21
201.8453107719276
 31
0.0
  0
LINE
  5
81A0
330
18
100
AcDbEntity
  8
DRAW2
100
AcDbLine
 10
1880.576876939636
 20
210.8856230872418
 30
0.0
 11
1899.176876939637
 21
210.8856230872417
 31
0.0
  0
LINE
  5
81A1
330
18
100
AcDbEntity
  8
DRAW2
100
AcDbLine
 10
1880.055940167173
 20
209.0857230872417
 30
0.0
 11
1899.697850013493
 21
209.0857230872417
 31
0.0
  0
LINE
  5
81A2
330
18
100
AcDbEntity
  8
DRAW2
100
AcDbLine
 10
1880.576876939636
 20
210.8856230872417
 30
0.0
 11
1880.576876939636
 21
209.0857230872417
 31
0.0
  0
LINE
  5
81A3
330
18
100
AcDbEntity
  8
DRAW2
100
AcDbLine
 10
1889.626876939637
 20
209.0857230872417
 30
0.0
 11
1889.626876939637
 21
210.8856230872417
 31
0.0
  0
LINE
  5
81A4
330
18
100
AcDbEntity
  8
DRAW2
100
AcDbLine
 10
1890.126876939637
 20
209.0857230872417
 30
0.0
 11
1890.126876939637
 21
210.8856230872417
 31
0.0
  0
LINE
  5
81A5
330
18
100
AcDbEntity
  8
DRAW2
100
AcDbLine
 10
1899.176876939637
 20
209.0857230872417
 30
0.0
 11
1899.176876939637
 21
210.8856230872417
 31
0.0
  0
ARC
  5
81A6
330
18
100
AcDbEntity
  8
DRAW2
100
AcDbCircle
 10
1897.238255878096
 20
254.0407470872427
 30
0.0
 40
4.3449049
100
AcDbArc
 50
64.3872221521528
 51
124.3839999999991
  0
LINE
  5
81A7
330
18
100
AcDbEntity
  8
DRAW2
100
AcDbLine
 10
1881.376985878096
 20
258.3856570872427
 30
0.0
 11
1898.377023918376
 21
258.3856570872427
 31
0.0
  0
LINE
  5
81A8
330
18
100
AcDbEntity
  8
DRAW2
100
AcDbLine
 10
1880.062075878096
 20
251.3856570872427
 30
0.0
 11
1899.692385878096
 21
251.3856570872428
 31
0.0
  0
LINE
  5
81A9
330
18
100
AcDbEntity
  8
DRAW2
100
AcDbLine
 10
1880.877004898236
 20
251.3856570872427
 30
0.0
 11
1898.877004898236
 21
251.3856570872428
 31
0.0
  0
ARC
  5
81AA
330
18
100
AcDbEntity
  8
DRAW2
100
AcDbCircle
 10
1889.877015878096
 20
242.1447170872427
 30
0.0
 40
16.24093999999999
100
AcDbArc
 50
72.41215999999936
 51
107.5877960000009
  0
LINE
  5
81AB
330
18
100
AcDbEntity
  8
DRAW2
100
AcDbLine
 10
1884.969975878096
 20
257.6264670872427
 30
0.0
 11
1884.969975878096
 21
251.3856570872427
 31
0.0
  0
LINE
  5
81AC
330
18
100
AcDbEntity
  8
DRAW2
100
AcDbLine
 10
1880.061645878096
 20
257.6264670872427
 30
0.0
 11
1880.061645878096
 21
251.3856570872427
 31
0.0
  0
LINE
  5
81AD
330
18
100
AcDbEntity
  8
DRAW2
100
AcDbLine
 10
1880.062045878096
 20
257.6264370872427
 30
0.0
 11
1881.376955878096
 21
258.3856270872428
 31
0.0
  0
ARC
  5
81AE
330
18
100
AcDbEntity
  8
DRAW2
100
AcDbCircle
 10
1882.515815878096
 20
254.0407170872427
 30
0.0
 40
4.3449545
100
AcDbArc
 50
55.61635000000209
 51
115.6176599999987
  0
LINE
  5
81AF
330
18
100
AcDbEntity
  8
DRAW2
100
AcDbLine
 10
1880.877004898236
 20
251.3856570872427
 30
0.0
 11
1880.877004898236
 21
249.3856570872427
 31
0.0
  0
LINE
  5
81B0
330
18
100
AcDbEntity
  8
DRAW2
100
AcDbLine
 10
1894.784515878096
 20
257.6264670872427
 30
0.0
 11
1894.784515878096
 21
251.3856570872427
 31
0.0
  0
LINE
  5
81B1
330
18
100
AcDbEntity
  8
DRAW2
100
AcDbLine
 10
1899.691985878096
 20
257.6264370872427
 30
0.0
 11
1898.377075878096
 21
258.3856270872428
 31
0.0
  0
LINE
  5
81B2
330
18
100
AcDbEntity
  8
DRAW2
100
AcDbLine
 10
1899.692385878096
 20
257.6264670872427
 30
0.0
 11
1899.692385878096
 21
251.3856570872427
 31
0.0
  0
LINE
  5
81B3
330
18
100
AcDbEntity
  8
DRAW2
100
AcDbLine
 10
1898.877004898236
 20
251.3856570872427
 30
0.0
 11
1898.877004898236
 21
249.3856570872427
 31
0.0
  0
LWPOLYLINE
  5
81B5
330
18
100
AcDbEntity
  8
DRAW2
100
AcDbPolyline
 90
        7
 70
     0
 43
0.0
 10
1963.542089985529
 20
210.8856230872412
 42
0.001680208614689
 10
1963.812424939664
 20
201.4890665864805
 42
0.0013215270287009
 10
1964.054814158253
 20
194.518849848565
 42
0.0014183777544333
 10
1964.335330696201
 20
187.5502013246469
 42
0.0015373006733455
 10
1964.657037073809
 20
180.5828703173912
 42
0.0016957239132414
 10
1965.023793135086
 20
173.6158700346906
 42
0.0018926882663834
 10
1965.440071430574
 20
166.6578692747415
  0
LWPOLYLINE
  5
81B6
330
18
100
AcDbEntity
  8
DRAW2
100
AcDbPolyline
 90
        7
 70
     0
 43
0.0
 10
1960.502911838703
 20
210.885623087241
 42
0.0016712924877745
 10
1960.772053975895
 20
201.4893477876495
 42
0.0013152876712053
 10
1961.013348595485
 20
194.5191256824556
 42
0.0014080042524108
 10
1961.292543406763
 20
187.5504541582805
 42
0.0015258915744442
 10
1961.612618142677
 20
180.5830875624497
 42
0.0016806865270889
 10
1961.97728911799
 20
173.6178860597639
 42
0.00187601255462
 10
1962.391243305574
 20
166.6578692747417
  0
LWPOLYLINE
  5
81B7
330
18
100
AcDbEntity
  8
DRAW2
100
AcDbPolyline
 90
        7
 70
     0
 43
0.0
 10
1934.056186100572
 20
210.8856230872412
 42
-0.0016712924877745
 10
1933.787043963381
 20
201.4893477876497
 42
-0.0013152876712053
 10
1933.545749343791
 20
194.5191256824558
 42
-0.0014080042524108
 10
1933.266554532513
 20
187.5504541582808
 42
-0.0015258915744442
 10
1932.946479796598
 20
180.58308756245
 42
-0.0016806865270889
 10
1932.581808821285
 20
173.6178860597641
 42
-0.00187601255462
 10
1932.167854633701
 20
166.6578692747419
  0
LWPOLYLINE
  5
81B8
330
18
100
AcDbEntity
  8
DRAW2
100
AcDbPolyline
 90
        7
 70
     0
 43
0.0
 10
1931.017007953747
 20
210.8856230872414
 42
-0.001680208614689
 10
1930.746672999612
 20
201.4890665864808
 42
-0.0013215270287009
 10
1930.504283781022
 20
194.5188498485653
 42
-0.0014183777544333
 10
1930.223767243075
 20
187.5502013246472
 42
-0.0015373006733455
 10
1929.902060865466
 20
180.5828703173914
 42
-0.0016957239132414
 10
1929.535304804189
 20
173.6158700346908
 42
-0.0018926882663834
 10
1929.119026508701
 20
166.6578692747419
  0
LWPOLYLINE
  5
81B9
330
18
100
AcDbEntity
  8
DRAW2
100
AcDbPolyline
 90
        7
 70
     0
 43
0.0
 10
1964.185569064389
 20
210.8856230872412
 42
0.0016702038440608
 10
1964.448888768745
 20
202.1686934084565
 42
0.0012779968643839
 10
1964.676014646997
 20
195.8791225884889
 42
0.0013660039073406
 10
1964.936340565471
 20
189.5910287475845
 42
0.0014794481481414
 10
1965.23242483082
 20
183.3042257932646
 42
0.0016281943006733
 10
1965.56752725285
 20
177.019308413989
 42
0.0018096708770074
 10
1965.945564594637
 20
170.739778454429
  0
LWPOLYLINE
  5
81BA
330
18
100
AcDbEntity
  8
DRAW2
100
AcDbPolyline
 90
        7
 70
     0
 43
0.0
 10
1930.373528874887
 20
210.8856230872414
 42
-0.0016702038440608
 10
1930.110209170531
 20
202.1686934084567
 42
-0.0012779968643839
 10
1929.883083292278
 20
195.8791225884891
 42
-0.0013660039073406
 10
1929.622757373804
 20
189.5910287475848
 42
-0.0014794481481414
 10
1929.326673108456
 20
183.3042257932651
 42
-0.0016281943006733
 10
1928.991570686426
 20
177.0193084139895
 42
-0.0018096708770074
 10
1928.613533344639
 20
170.7397784544294
  0
POINT
  5
81BB
330
18
100
AcDbEntity
  8
DRAW2
100
AcDbPoint
 10
1947.279548969638
 20
230.8856270872419
 30
0.0
  0
POINT
  5
81BC
330
18
100
AcDbEntity
  8
DRAW2
100
AcDbPoint
 10
1947.279548969638
 20
230.8856270872419
 30
0.0
  0
POINT
  5
81BD
330
18
100
AcDbEntity
  8
DRAW2
100
AcDbPoint
 10
1947.279548969638
 20
230.8856270872419
 30
0.0
  0
POINT
  5
81BE
330
18
100
AcDbEntity
  8
DRAW2
100
AcDbPoint
 10
1947.279548969638
 20
230.8856270872419
 30
0.0
  0
LINE
  5
81C0
330
18
100
AcDbEntity
  8
DRAW2
100
AcDbLine
 10
2014.502855197608
 20
201.8453107719274
 30
0.0
 11
2014.502903724431
 21
209.0857230872415
 31
0.0
  0
LINE
  5
81C1
330
18
100
AcDbEntity
  8
DRAW2
100
AcDbLine
 10
2009.592402959486
 20
201.8453272274632
 30
0.0
 11
2009.592408112165
 21
209.0857230872415
 31
0.0
  0
LINE
  5
81C2
330
18
100
AcDbEntity
  8
DRAW2
100
AcDbLine
 10
1994.860993878111
 20
201.8453765942457
 30
0.0
 11
1994.860993878111
 21
209.0857230872415
 31
0.0
  0
LINE
  5
81C3
330
18
100
AcDbEntity
  8
DRAW2
100
AcDbLine
 10
1999.771465286907
 20
201.8453601386458
 30
0.0
 11
1999.771465286907
 21
209.0857230872415
 31
0.0
  0
LINE
  5
81C4
330
18
100
AcDbEntity
  8
DRAW2
100
AcDbLine
 10
1996.17675234839
 20
201.0857230872415
 30
0.0
 11
1994.860993878111
 21
201.8453765942458
 31
0.0
  0
ARC
  5
81C5
330
18
100
AcDbEntity
  8
DRAW2
100
AcDbCircle
 10
2004.681986037923
 20
217.337077895544
 30
0.0
 40
16.25135480830907
100
AcDbArc
 50
252.412573883284
 51
287.5870421061557
  0
LINE
  5
81C6
330
18
100
AcDbEntity
  8
DRAW2
100
AcDbLine
 10
2008.93194934156
 20
191.3856230872416
 30
0.0
 11
2000.43194934156
 21
191.3856230872416
 31
0.0
  0
LINE
  5
81C7
330
18
100
AcDbEntity
  8
DRAW2
100
AcDbLine
 10
1999.68194934156
 20
192.1356230872415
 30
0.0
 11
2009.68194934156
 21
192.1356230872416
 31
0.0
  0
LINE
  5
81C8
330
18
100
AcDbEntity
  8
DRAW2
100
AcDbLine
 10
1996.17675234839
 20
201.0857230872415
 30
0.0
 11
2013.18719037091
 21
201.0857230872415
 31
0.0
  0
ARC
  5
81C9
330
18
100
AcDbEntity
  8
DRAW2
100
AcDbCircle
 10
1997.316232951466
 20
205.4210152795353
 30
0.0
 40
4.337441655125864
100
AcDbArc
 50
244.4757209284554
 51
304.4753369179074
  0
LINE
  5
81CA
330
18
100
AcDbEntity
  8
DRAW2
100
AcDbLine
 10
2000.43194934156
 20
191.3856230872416
 30
0.0
 11
1999.68194934156
 21
192.1356230872416
 31
0.0
  0
LINE
  5
81CB
330
18
100
AcDbEntity
  8
DRAW3
100
AcDbLine
 10
2000.43194934156
 20
191.3856230872416
 30
0.0
 11
2000.43194934156
 21
201.0857380872416
 31
0.0
  0
LINE
  5
81CC
330
18
100
AcDbEntity
  8
DRAW2
100
AcDbLine
 10
1999.68194934156
 20
192.1356230872416
 30
0.0
 11
1999.68194934156
 21
201.0857380872416
 31
0.0
  0
LINE
  5
81CD
330
18
100
AcDbEntity
  8
DRAW2
100
AcDbLine
 10
2013.187091635972
 20
201.0856660834805
 30
0.0
 11
2014.502855197608
 21
201.8453107719274
 31
0.0
  0
LINE
  5
81CE
330
18
100
AcDbEntity
  8
DRAW2
100
AcDbLine
 10
2008.93194934156
 20
191.3856230872416
 30
0.0
 11
2009.68194934156
 21
192.1356230872416
 31
0.0
  0
LINE
  5
81CF
330
18
100
AcDbEntity
  8
DRAW3
100
AcDbLine
 10
2008.93194934156
 20
191.3856230872416
 30
0.0
 11
2008.931949341559
 21
201.0857380872416
 31
0.0
  0
LINE
  5
81D0
330
18
100
AcDbEntity
  8
DRAW2
100
AcDbLine
 10
2009.68194934156
 20
192.1356230872416
 30
0.0
 11
2009.68194934156
 21
201.0857380872416
 31
0.0
  0
ARC
  5
81D1
330
18
100
AcDbEntity
  8
DRAW2
100
AcDbCircle
 10
2012.047641060991
 20
205.4209678660817
 30
0.0
 40
4.337441655125864
100
AcDbArc
 50
235.5242942659157
 51
295.5239102553667
  0
LINE
  5
81D2
330
18
100
AcDbEntity
  8
DRAW2
100
AcDbLine
 10
1994.860993878111
 20
209.0857230872415
 30
0.0
 11
2014.502903724431
 21
209.0857230872415
 31
0.0
  0
LINE
  5
81D3
330
18
100
AcDbEntity
  8
DRAW2
100
AcDbLine
 10
1995.381930650574
 20
210.8856230872416
 30
0.0
 11
2013.981930650574
 21
210.8856230872415
 31
0.0
  0
LINE
  5
81D4
330
18
100
AcDbEntity
  8
DRAW2
100
AcDbLine
 10
2004.431930650574
 20
209.0857230872416
 30
0.0
 11
2004.431930650574
 21
210.8856230872415
 31
0.0
  0
LINE
  5
81D5
330
18
100
AcDbEntity
  8
DRAW2
100
AcDbLine
 10
2004.931930650574
 20
209.0857230872416
 30
0.0
 11
2004.931930650574
 21
210.8856230872415
 31
0.0
  0
LINE
  5
81D6
330
18
100
AcDbEntity
  8
DRAW2
100
AcDbLine
 10
1995.381930650574
 20
210.8856230872415
 30
0.0
 11
1995.381930650574
 21
209.0857230872415
 31
0.0
  0
LINE
  5
81D7
330
18
100
AcDbEntity
  8
DRAW2
100
AcDbLine
 10
2013.981930650574
 20
209.0857230872416
 30
0.0
 11
2013.981930650574
 21
210.8856230872415
 31
0.0
  0
LINE
  5
81D8
330
18
100
AcDbEntity
  8
DRAW2
100
AcDbLine
 10
1994.867099589034
 20
257.6264370872427
 30
0.0
 11
1996.182009589033
 21
258.3856270872428
 31
0.0
  0
LINE
  5
81D9
330
18
100
AcDbEntity
  8
DRAW2
100
AcDbLine
 10
1994.867129589033
 20
251.3856570872427
 30
0.0
 11
2014.497439589034
 21
251.3856570872428
 31
0.0
  0
LINE
  5
81DA
330
18
100
AcDbEntity
  8
DRAW2
100
AcDbLine
 10
1994.866699589033
 20
257.6264670872427
 30
0.0
 11
1994.866699589033
 21
251.3856570872427
 31
0.0
  0
LINE
  5
81DB
330
18
100
AcDbEntity
  8
DRAW2
100
AcDbLine
 10
1996.182039589034
 20
258.3856570872427
 30
0.0
 11
2013.182077629314
 21
258.3856570872427
 31
0.0
  0
ARC
  5
81DC
330
18
100
AcDbEntity
  8
DRAW2
100
AcDbCircle
 10
2004.682069589033
 20
242.1447170872427
 30
0.0
 40
16.24093999999999
100
AcDbArc
 50
72.41215999999941
 51
107.5877960000007
  0
LINE
  5
81DD
330
18
100
AcDbEntity
  8
DRAW2
100
AcDbLine
 10
1995.682058609174
 20
251.3856570872427
 30
0.0
 11
2013.682058609174
 21
251.3856570872428
 31
0.0
  0
LINE
  5
81DE
330
18
100
AcDbEntity
  8
DRAW2
100
AcDbLine
 10
1999.775029589033
 20
257.6264670872427
 30
0.0
 11
1999.775029589033
 21
251.3856570872427
 31
0.0
  0
ARC
  5
81DF
330
18
100
AcDbEntity
  8
DRAW2
100
AcDbCircle
 10
1997.320869589033
 20
254.0407170872427
 30
0.0
 40
4.3449545
100
AcDbArc
 50
55.61635000000184
 51
115.6176599999989
  0
LINE
  5
81E0
330
18
100
AcDbEntity
  8
DRAW2
100
AcDbLine
 10
1995.682058609174
 20
251.3856570872427
 30
0.0
 11
1995.682058609174
 21
249.3856570872427
 31
0.0
  0
LINE
  5
81E1
330
18
100
AcDbEntity
  8
DRAW2
100
AcDbLine
 10
2014.497039589034
 20
257.6264370872427
 30
0.0
 11
2013.182129589034
 21
258.3856270872428
 31
0.0
  0
ARC
  5
81E2
330
18
100
AcDbEntity
  8
DRAW2
100
AcDbCircle
 10
2012.043309589034
 20
254.0407470872427
 30
0.0
 40
4.3449049
100
AcDbArc
 50
64.38722215215311
 51
124.3839999999992
  0
LINE
  5
81E3
330
18
100
AcDbEntity
  8
DRAW2
100
AcDbLine
 10
2009.589569589034
 20
257.6264670872427
 30
0.0
 11
2009.589569589034
 21
251.3856570872427
 31
0.0
  0
LINE
  5
81E4
330
18
100
AcDbEntity
  8
DRAW2
100
AcDbLine
 10
2014.497439589034
 20
257.6264670872427
 30
0.0
 11
2014.497439589034
 21
251.3856570872427
 31
0.0
  0
LINE
  5
81E5
330
18
100
AcDbEntity
  8
DRAW2
100
AcDbLine
 10
2013.682058609174
 20
251.3856570872427
 30
0.0
 11
2013.682058609174
 21
249.3856570872427
 31
0.0
  0
LINE
  5
81E6
330
18
100
AcDbEntity
  8
DRAW2
100
AcDbLine
 10
1927.499578969638
 20
440.8856570872415
 30
0.0
 11
1912.749578969638
 21
440.8856570872415
 31
0.0
  0
LINE
  5
81E7
330
18
100
AcDbEntity
  8
DRAW2
100
AcDbLine
 10
1927.499578969638
 20
429.8856570872414
 30
0.0
 11
1912.749578969638
 21
429.8856570872414
 31
0.0
  0
LINE
  5
81E9
330
18
100
AcDbEntity
  8
DRAW2
100
AcDbLine
 10
1824.279548969638
 20
418.3856570872414
 30
0.0
 11
1824.279548969638
 21
375.3856570872414
 31
0.0
  0
ARC
  5
81EA
330
18
100
AcDbEntity
  8
DRAW2
100
AcDbCircle
 10
1824.909128969638
 20
373.3856570872414
 30
0.0
 40
2.0
100
AcDbArc
 50
355.0
 51
90.00000300000001
  0
LINE
  5
81EB
330
18
100
AcDbEntity
  8
DRAW2
100
AcDbLine
 10
1824.279548969638
 20
418.3856870872415
 30
0.0
 11
1829.279548969639
 21
423.3856870872415
 31
0.0
  0
LINE
  5
81EC
330
18
100
AcDbEntity
  8
DRAW2
100
AcDbLine
 10
1912.749578969638
 20
429.8856570872414
 30
0.0
 11
1912.749578969638
 21
440.8856570872415
 31
0.0
  0
LINE
  5
81EE
330
18
100
AcDbEntity
  8
DRAW2
100
AcDbLine
 10
1957.279548969638
 20
442.3856570872414
 30
0.0
 11
1956.948338969638
 21
446.1713270872414
 31
0.0
  0
LINE
  5
81EF
330
18
100
AcDbEntity
  8
DRAW2
100
AcDbLine
 10
1937.279578969639
 20
442.3856570872414
 30
0.0
 11
1937.610788969638
 21
446.1713270872414
 31
0.0
  0
LINE
  5
81F0
330
18
100
AcDbEntity
  8
DRAW2
100
AcDbLine
 10
1932.279548969638
 20
442.3856570872414
 30
0.0
 11
1962.279548969638
 21
442.3856570872414
 31
0.0
  0
LINE
  5
81F1
330
18
100
AcDbEntity
  8
DRAW2
100
AcDbLine
 10
1932.279548969638
 20
442.3856570872414
 30
0.0
 11
1932.279548969638
 21
423.3856570872415
 31
0.0
  0
LINE
  5
81F2
330
18
100
AcDbEntity
  8
DRAW3
100
AcDbLine
 10
1928.715088969638
 20
440.3610570872415
 30
0.0
 11
1929.779548969638
 21
439.7464970872415
 31
0.0
  0
LINE
  5
81F3
330
18
100
AcDbEntity
  8
DRAW2
100
AcDbLine
 10
1928.715088969638
 20
440.3610570872415
 30
0.0
 11
1927.999578969638
 21
440.3610570872415
 31
0.0
  0
ARC
  5
81F4
330
18
100
AcDbEntity
  8
DRAW2
100
AcDbCircle
 10
1927.999578969638
 20
440.8610570872415
 30
0.0
 40
0.5
100
AcDbArc
 50
179.9999899999999
 51
270.0
  0
LINE
  5
81F5
330
18
100
AcDbEntity
  8
DRAW2
100
AcDbLine
 10
1928.715088969638
 20
440.3610270872414
 30
0.0
 11
1932.279548969638
 21
440.2496487958412
 31
0.0
  0
LINE
  5
81F6
330
18
100
AcDbEntity
  8
DRAW3
100
AcDbLine
 10
1928.715088969638
 20
430.4102770872415
 30
0.0
 11
1929.779548969638
 21
431.0248470872415
 31
0.0
  0
LINE
  5
81F7
330
18
100
AcDbEntity
  8
DRAW2
100
AcDbLine
 10
1927.499578969638
 20
429.8856570872414
 30
0.0
 11
1927.499578969638
 21
440.8856570872415
 31
0.0
  0
LINE
  5
81F8
330
18
100
AcDbEntity
  8
DRAW2
100
AcDbLine
 10
1928.715088969638
 20
430.4102770872415
 30
0.0
 11
1927.999578969638
 21
430.4102770872415
 31
0.0
  0
LINE
  5
81F9
330
18
100
AcDbEntity
  8
DRAW2
100
AcDbLine
 10
1929.779548969638
 20
440.3277660221533
 30
0.0
 11
1929.779548969638
 21
430.4435470872415
 31
0.0
  0
ARC
  5
81FA
330
18
100
AcDbEntity
  8
DRAW2
100
AcDbCircle
 10
1927.999578969638
 20
429.9102770872415
 30
0.0
 40
0.5
100
AcDbArc
 50
89.99999599999993
 51
180.00001
  0
LINE
  5
81FB
330
18
100
AcDbEntity
  8
DRAW2
100
AcDbLine
 10
1928.715088969638
 20
430.4102470872415
 30
0.0
 11
1932.279548969638
 21
430.5216417631394
 31
0.0
  0
LINE
  5
81FC
330
18
100
AcDbEntity
  8
DRAW3
100
AcDbLine
 10
1929.779548969638
 20
431.0248170872414
 30
0.0
 11
1932.279548969638
 21
431.1029504189262
 31
0.0
  0
LINE
  5
81FD
330
18
100
AcDbEntity
  8
DRAW3
100
AcDbLine
 10
1929.779548969638
 20
439.7464970872415
 30
0.0
 11
1932.279548969638
 21
439.6683746229951
 31
0.0
  0
LINE
  5
81FE
330
18
100
AcDbEntity
  8
DRAW2
100
AcDbLine
 10
1947.279548969638
 20
442.3856570872414
 30
0.0
 11
1947.279548969638
 21
423.3856570872415
 31
0.0
  0
LINE
  5
81FF
330
18
100
AcDbEntity
  8
DRAW2
100
AcDbLine
 10
1962.279548969638
 20
442.3856570872414
 30
0.0
 11
1962.279548969638
 21
423.3856570872415
 31
0.0
  0
LINE
  5
8200
330
18
100
AcDbEntity
  8
DRAW2
100
AcDbLine
 10
1942.654548969638
 20
458.7727670872415
 30
0.0
 11
1951.904548969638
 21
458.7727670872415
 31
0.0
  0
ARC
  5
8201
330
18
100
AcDbEntity
  8
DRAW2
100
AcDbCircle
 10
1947.279548969638
 20
470.3856570872415
 30
0.0
 40
12.5
100
AcDbArc
 50
0.0
 51
248.2843699999999
  0
ARC
  5
8202
330
18
100
AcDbEntity
  8
DRAW2
100
AcDbCircle
 10
1927.648808969638
 20
447.0429070872414
 30
0.0
 40
10.0
100
AcDbArc
 50
355.0
 51
49.93689999999998
  0
ARC
  5
8203
330
18
100
AcDbEntity
  8
DRAW2
100
AcDbCircle
 10
1947.279548969638
 20
470.3856570872415
 30
0.0
 40
12.5
100
AcDbArc
 50
291.7156099999999
 51
0.0
  0
ARC
  5
8204
330
18
100
AcDbEntity
  8
DRAW2
100
AcDbCircle
 10
1966.910278969638
 20
447.0429070872414
 30
0.0
 40
10.0
100
AcDbArc
 50
130.0630999999999
 51
185.0
  0
LINE
  5
8205
330
18
100
AcDbEntity
  8
DRAW2
100
AcDbLine
 10
2077.703546949384
 20
258.3856570872415
 30
0.0
 11
2067.657538969638
 21
373.2113370872415
 31
0.0
  0
LINE
  5
8206
330
18
100
AcDbEntity
  8
DRAW2
100
AcDbLine
 10
2112.538899199816
 20
231.3856062839935
 30
0.0
 11
2131.279498969638
 21
231.3856570872393
 31
0.0
  0
LINE
  5
820A
330
18
100
AcDbEntity
  8
DRAW2
100
AcDbLine
 10
2110.279578969638
 20
232.3856270872415
 30
0.0
 11
2110.279578969638
 21
247.3856270872414
 31
0.0
  0
LWPOLYLINE
  5
820B
330
18
100
AcDbEntity
  8
DRAW2
100
AcDbPolyline
 90
        7
 70
     0
 43
0.0
 10
2073.965781345272
 20
210.8856230872387
 42
-0.0152262374598715
 10
2071.309045514807
 20
201.1733060941627
 42
-0.0116718239494714
 10
2068.922175871179
 20
193.9902234534614
 42
-0.0119095520407942
 10
2066.19957037865
 20
186.9276010162872
 42
-0.0121804265706793
 10
2063.139946777295
 20
180.0043161363815
 42
-0.0125150910431169
 10
2059.742309720827
 20
173.2405497539736
 42
-0.012855612117444
 10
2056.006355610262
 20
166.6578692747397
  0
LWPOLYLINE
  5
820C
330
18
100
AcDbEntity
  8
DRAW2
100
AcDbPolyline
 90
        7
 70
     0
 43
0.0
 10
2075.20476005443
 20
210.8856230872389
 42
-0.015305228946278
 10
2072.536125351996
 20
201.1709705958841
 42
-0.0117351161547177
 10
2070.137283515623
 20
193.9853067431989
 42
-0.0119777117552355
 10
2067.40076694429
 20
186.9213797805492
 42
-0.0122504159696141
 10
2064.325268802984
 20
179.9983130833603
 42
-0.0125875449320639
 10
2060.909855866891
 20
173.2365241856228
 42
-0.0129366875597969
 10
2057.154243793855
 20
166.6578692747397
  0
LWPOLYLINE
  5
820D
330
18
100
AcDbEntity
  8
DRAW2
100
AcDbPolyline
 90
        7
 70
     0
 43
0.0
 10
2069.085807681694
 20
210.8856230872387
 42
-0.0150603082906953
 10
2066.490032645732
 20
201.8864072126931
 42
-0.0112248263607717
 10
2064.246006879981
 20
195.4071448488545
 42
-0.0114703321736649
 10
2061.710494099146
 20
189.0363429768809
 42
-0.0117164137052819
 10
2058.882426885976
 20
182.7899166492785
 42
-0.0120247615053926
 10
2055.761061842161
 20
176.6847983184114
 42
-0.0123448963593331
 10
2052.346687641512
 20
170.7397784544272
  0
LWPOLYLINE
  5
820E
330
18
100
AcDbEntity
  8
DRAW2
100
AcDbPolyline
 90
        7
 70
     0
 43
0.0
 10
2058.942922610181
 20
210.8856230872389
 42
-0.0167368758403488
 10
2055.971866353055
 20
201.109264353662
 42
-0.0127579436271155
 10
2053.301520013041
 20
193.8842905846421
 42
-0.0128989150536383
 10
2050.264355890544
 20
186.8057103602976
 42
-0.0130488256969131
 10
2046.864006598208
 20
179.8942629683125
 42
-0.0132469465544267
 10
2043.105111246689
 20
173.1711130633949
 42
-0.0134231659958118
 10
2038.99335512198
 20
166.6578692747399
  0
LWPOLYLINE
  5
820F
330
18
100
AcDbEntity
  8
DRAW2
100
AcDbPolyline
 90
        7
 70
     0
 43
0.0
 10
2060.742673625972
 20
210.8856230872389
 42
-0.0166570689374682
 10
2057.785634520808
 20
201.1121105851488
 42
-0.0126952700207877
 10
2055.128807311122
 20
193.890087587434
 42
-0.0128271120478138
 10
2052.107196219172
 20
186.8129481299464
 42
-0.0129782316677029
 10
2048.724426246673
 20
179.9011670138432
 42
-0.0131732155585087
 10
2044.984991966069
 20
173.1756893066004
 42
-0.0133490490783883
 10
2040.894478168855
 20
166.6578692747399
  0
LWPOLYLINE
  5
8210
330
18
100
AcDbEntity
  8
DRAW2
100
AcDbPolyline
 90
        7
 70
     0
 43
0.0
 10
2052.179875319946
 20
210.8856230872392
 42
-0.0164414716847577
 10
2049.29169991641
 20
201.8322849189615
 42
-0.0121865809255158
 10
2046.794558974215
 20
195.3186801422826
 42
-0.0123349698176407
 10
2043.981289485084
 20
188.9352653350862
 42
-0.0124648571855072
 10
2040.854985356877
 20
182.6991970219497
 42
-0.0126440873298144
 10
2037.419605927449
 20
176.6279366210811
 42
-0.0128097585453782
 10
2033.680244770418
 20
170.7397784544276
  0
LWPOLYLINE
  5
8211
330
18
100
AcDbEntity
  8
DRAW2
100
AcDbPolyline
 90
        7
 70
     0
 43
0.0
 10
2067.873880300298
 20
210.8856230872389
 42
-0.0149754788129563
 10
2065.291600970462
 20
201.8890563218443
 42
-0.0111583180841842
 10
2063.060104259346
 20
195.4122664428711
 42
-0.0113988446965784
 10
2060.538976166945
 20
189.0426699084824
 42
-0.0116417719682759
 10
2057.727154720951
 20
182.7959607282181
 42
-0.0119445524024891
 10
2054.62389204226
 20
176.6888280227657
 42
-0.0122607535854519
 10
2051.229439106355
 20
170.7397784544272
  0
ARC
  5
8212
330
18
100
AcDbEntity
  8
DRAW2
100
AcDbCircle
 10
2093.222672988159
 20
204.5406870872419
 30
0.0
 40
4.3449545
100
AcDbArc
 50
64.38233999999998
 51
124.3836479999999
  0
LINE
  5
8213
330
18
100
AcDbEntity
  8
DRAW2
100
AcDbLine
 10
2076.861458149326
 20
210.8856270872419
 30
0.0
 11
2094.861458149326
 21
210.8856270872419
 31
0.0
  0
LINE
  5
8214
330
18
100
AcDbEntity
  8
DRAW2
100
AcDbLine
 10
2076.861458149326
 20
208.8856270872418
 30
0.0
 11
2094.861458149326
 21
208.8856270872418
 31
0.0
  0
ARC
  5
8215
330
18
100
AcDbEntity
  8
DRAW2
100
AcDbCircle
 10
2078.500262988159
 20
204.5407170872418
 30
0.0
 40
4.3449049
100
AcDbArc
 50
55.61599999999998
 51
115.6202055298297
  0
LINE
  5
8216
330
18
100
AcDbEntity
  8
DRAW2
100
AcDbLine
 10
2076.046462988159
 20
208.1264370872419
 30
0.0
 11
2077.361402988159
 21
208.8855970872419
 31
0.0
  0
LINE
  5
8217
330
18
100
AcDbEntity
  8
DRAW2
100
AcDbLine
 10
2076.861458149326
 20
208.8856270872418
 30
0.0
 11
2076.861458149326
 21
210.8856270872419
 31
0.0
  0
ARC
  5
8218
330
18
100
AcDbEntity
  8
DRAW2
100
AcDbCircle
 10
2085.861462988158
 20
192.6446870872418
 30
0.0
 40
16.24093999999999
100
AcDbArc
 50
72.41221000000002
 51
107.587844
  0
LINE
  5
8219
330
18
100
AcDbEntity
  8
DRAW2
100
AcDbLine
 10
2090.279548969638
 20
231.3850570861481
 30
0.0
 11
2090.279548969638
 21
230.8856470872415
 31
0.0
  0
LINE
  5
821A
330
18
100
AcDbEntity
  8
DRAW2
100
AcDbLine
 10
2110.567708222224
 20
229.8869976213712
 30
0.0
 11
2111.45887860141
 21
212.8828820189827
 31
0.0
  0
LINE
  5
821B
330
18
100
AcDbEntity
  8
DRAW2
100
AcDbLine
 10
2095.676462988159
 20
208.1264370872419
 30
0.0
 11
2094.361522988159
 21
208.8855970872419
 31
0.0
  0
LINE
  5
821C
330
18
100
AcDbEntity
  8
DRAW2
100
AcDbLine
 10
2094.861458149326
 20
208.8856270872418
 30
0.0
 11
2094.861458149326
 21
210.8856270872419
 31
0.0
  0
LINE
  5
821D
330
18
100
AcDbEntity
  8
DRAW2
100
AcDbLine
 10
2111.45887860141
 20
212.8828820189827
 30
0.0
 11
2109.56355314263
 21
210.8856230872414
 31
0.0
  0
ARC
  5
821E
330
18
100
AcDbEntity
  8
DRAW2
100
AcDbCircle
 10
2109.279578969638
 20
232.3856270872415
 30
0.0
 40
1.0
100
AcDbArc
 50
270.0000053051639
 51
0.0
  0
LINE
  5
821F
330
18
100
AcDbEntity
  8
DRAW2
100
AcDbLine
 10
2109.515370951613
 20
230.8856270872419
 30
0.0
 11
2110.567708222224
 21
229.8869976213712
 31
0.0
  0
ARC
  5
8220
330
18
100
AcDbEntity
  8
DRAW2
100
AcDbCircle
 10
2112.579478969638
 20
182.3856270872401
 30
0.0
 40
48.99999600000001
100
AcDbArc
 50
90.04744999999921
 51
98.19205502689108
  0
ARC
  5
8221
330
18
100
AcDbEntity
  8
DRAW2
100
AcDbCircle
 10
2093.222691913252
 20
254.0407470872427
 30
0.0
 40
4.3449049
100
AcDbArc
 50
64.3872221521528
 51
124.3839999999991
  0
LINE
  5
8222
330
18
100
AcDbEntity
  8
DRAW2
100
AcDbLine
 10
2077.361421913253
 20
258.3856570872427
 30
0.0
 11
2094.361459953532
 21
258.3856570872427
 31
0.0
  0
LINE
  5
8223
330
18
100
AcDbEntity
  8
DRAW2
100
AcDbLine
 10
2076.046511913252
 20
251.3856570872427
 30
0.0
 11
2095.676821913252
 21
251.3856570872428
 31
0.0
  0
LINE
  5
8224
330
18
100
AcDbEntity
  8
DRAW2
100
AcDbLine
 10
2076.861440933392
 20
251.3856570872427
 30
0.0
 11
2094.861440933392
 21
251.3856570872428
 31
0.0
  0
ARC
  5
8225
330
18
100
AcDbEntity
  8
DRAW2
100
AcDbCircle
 10
2078.500251913252
 20
254.0407170872427
 30
0.0
 40
4.3449545
100
AcDbArc
 50
55.61635000000209
 51
115.6176599999987
  0
LINE
  5
8226
330
18
100
AcDbEntity
  8
DRAW2
100
AcDbLine
 10
2076.046081913252
 20
257.6264670872427
 30
0.0
 11
2076.046081913252
 21
251.3856570872427
 31
0.0
  0
LINE
  5
8227
330
18
100
AcDbEntity
  8
DRAW2
100
AcDbLine
 10
2076.046481913253
 20
257.6264370872427
 30
0.0
 11
2077.361391913252
 21
258.3856270872428
 31
0.0
  0
LINE
  5
8228
330
18
100
AcDbEntity
  8
DRAW2
100
AcDbLine
 10
2076.861440933392
 20
251.3856570872427
 30
0.0
 11
2076.861440933392
 21
249.3856570872427
 31
0.0
  0
LINE
  5
8229
330
18
100
AcDbEntity
  8
DRAW2
100
AcDbLine
 10
2090.768951913252
 20
257.6264670872427
 30
0.0
 11
2090.768951913252
 21
251.3856570872427
 31
0.0
  0
LINE
  5
822A
330
18
100
AcDbEntity
  8
DRAW2
100
AcDbLine
 10
2080.954411913253
 20
257.6264670872427
 30
0.0
 11
2080.954411913253
 21
251.3856570872427
 31
0.0
  0
ARC
  5
822B
330
18
100
AcDbEntity
  8
DRAW2
100
AcDbCircle
 10
2085.861451913253
 20
242.1447170872427
 30
0.0
 40
16.24093999999999
100
AcDbArc
 50
72.41215999999936
 51
107.5877960000009
  0
LINE
  5
822C
330
18
100
AcDbEntity
  8
DRAW2
100
AcDbLine
 10
2095.676421913253
 20
257.6264370872427
 30
0.0
 11
2094.361511913252
 21
258.3856270872428
 31
0.0
  0
LINE
  5
822D
330
18
100
AcDbEntity
  8
DRAW2
100
AcDbLine
 10
2095.676821913252
 20
257.6264670872427
 30
0.0
 11
2095.676821913252
 21
251.3856570872427
 31
0.0
  0
LINE
  5
822E
330
18
100
AcDbEntity
  8
DRAW2
100
AcDbLine
 10
2094.861440933392
 20
251.3856570872427
 30
0.0
 11
2094.861440933392
 21
249.3856570872427
 31
0.0
  0
ARC
  5
822F
330
18
100
AcDbEntity
  8
DRAW2
100
AcDbCircle
 10
2108.279608969638
 20
247.3856570872415
 30
0.0
 40
2.0
100
AcDbArc
 50
359.9999899999999
 51
89.999997
  0
ARC
  5
8230
330
18
100
AcDbEntity
  8
DRAW2
100
AcDbCircle
 10
2132.0356197563
 20
225.1478461872393
 30
0.0
 40
4.856120099999999
100
AcDbArc
 50
154.3823000000045
 51
214.3837949999964
  0
LINE
  5
8231
330
18
100
AcDbEntity
  8
DRAW2
100
AcDbLine
 10
2119.6544947563
 20
222.8855970872391
 30
0.0
 11
2118.779494756299
 21
222.0105970872391
 31
0.0
  0
LINE
  5
8232
330
18
100
AcDbEntity
  8
DRAW2
100
AcDbLine
 10
2119.6544947563
 20
210.8855970872391
 30
0.0
 11
2119.6544947563
 21
222.8855970872391
 31
0.0
  0
LINE
  5
8233
330
18
100
AcDbEntity
  8
DRAW2
100
AcDbLine
 10
2139.279497001163
 20
206.0855970872391
 30
0.0
 11
2139.279492511437
 21
227.6855970872391
 31
0.0
  0
LINE
  5
8234
330
18
100
AcDbEntity
  8
DRAW2
100
AcDbLine
 10
2137.1794947563
 20
227.8902630872392
 30
0.0
 11
2137.1794947563
 21
205.9509470872392
 31
0.0
  0
LINE
  5
8235
330
18
100
AcDbEntity
  8
DRAW2
100
AcDbLine
 10
2127.179494756299
 20
226.4206428872391
 30
0.0
 11
2127.179494756299
 21
207.4206123872393
 31
0.0
  0
LINE
  5
8236
330
18
100
AcDbEntity
  8
DRAW2
100
AcDbLine
 10
2128.0279897563
 20
222.4054298872392
 30
0.0
 11
2137.1794947563
 21
222.4054298872392
 31
0.0
  0
LINE
  5
8237
330
18
100
AcDbEntity
  8
DRAW2
100
AcDbLine
 10
2128.0280057563
 20
205.9509470872392
 30
0.0
 11
2137.1794947563
 21
205.9509470872392
 31
0.0
  0
LINE
  5
8238
330
18
100
AcDbEntity
  8
DRAW2
100
AcDbLine
 10
2128.0279747563
 20
211.4357795872392
 30
0.0
 11
2137.1794947563
 21
211.4357795872392
 31
0.0
  0
LINE
  5
8239
330
18
100
AcDbEntity
  8
DRAW3
100
AcDbLine
 10
2118.779494756299
 20
222.0105970872391
 30
0.0
 11
2127.179494756299
 21
222.0105970872391
 31
0.0
  0
ARC
  5
823A
330
18
100
AcDbEntity
  8
DRAW2
100
AcDbCircle
 10
2132.0355437563
 20
208.6933631872393
 30
0.0
 40
4.856048099999999
100
AcDbArc
 50
145.6155800000034
 51
205.6154199999964
  0
LINE
  5
823B
330
18
100
AcDbEntity
  8
DRAW2
100
AcDbLine
 10
2127.1794997563
 20
207.4206094872392
 30
0.0
 11
2128.028010756299
 21
205.9509460872393
 31
0.0
  0
LINE
  5
823C
330
18
100
AcDbEntity
  8
DRAW2
100
AcDbLine
 10
2119.6544947563
 20
210.8855970872391
 30
0.0
 11
2118.779494756299
 21
211.7605970872391
 31
0.0
  0
LINE
  5
823D
330
18
100
AcDbEntity
  8
DRAW3
100
AcDbLine
 10
2118.779494756299
 20
211.7605970872391
 30
0.0
 11
2127.179494756299
 21
211.7605970872391
 31
0.0
  0
LINE
  5
823E
330
18
100
AcDbEntity
  8
DRAW2
100
AcDbLine
 10
2119.6544947563
 20
210.8855970872391
 30
0.0
 11
2127.179494756299
 21
210.8855970872391
 31
0.0
  0
LINE
  5
823F
330
18
100
AcDbEntity
  8
DRAW2
100
AcDbLine
 10
2118.779494756299
 20
211.7605970872391
 30
0.0
 11
2118.779494756299
 21
222.0105970872391
 31
0.0
  0
ARC
  5
8240
330
18
100
AcDbEntity
  8
DRAW2
100
AcDbCircle
 10
2145.331228156299
 20
216.9205970872392
 30
0.0
 40
18.151737
100
AcDbArc
 50
162.412250000001
 51
197.5876729999987
  0
LINE
  5
8241
330
18
100
AcDbEntity
  8
DRAW2
100
AcDbLine
 10
2139.2794947563
 20
216.6355970872391
 30
0.0
 11
2137.1794947563
 21
216.6355970872391
 31
0.0
  0
LINE
  5
8242
330
18
100
AcDbEntity
  8
DRAW2
100
AcDbLine
 10
2139.2794947563
 20
217.1355970872391
 30
0.0
 11
2137.1794947563
 21
217.1355970872391
 31
0.0
  0
LINE
  5
8243
330
18
100
AcDbEntity
  8
DRAW2
100
AcDbLine
 10
2139.279494756299
 20
206.0855970872391
 30
0.0
 11
2137.1794947563
 21
206.0855970872391
 31
0.0
  0
LINE
  5
8244
330
18
100
AcDbEntity
  8
DRAW2
100
AcDbLine
 10
2128.0279897563
 20
227.8902630872392
 30
0.0
 11
2137.1794947563
 21
227.8902630872392
 31
0.0
  0
LINE
  5
8245
330
18
100
AcDbEntity
  8
DRAW2
100
AcDbLine
 10
2128.0279927563
 20
227.8902760872392
 30
0.0
 11
2127.179501756299
 21
226.4206456872393
 31
0.0
  0
LINE
  5
8246
330
18
100
AcDbEntity
  8
DRAW2
100
AcDbLine
 10
2119.6544947563
 20
222.8855970872391
 30
0.0
 11
2127.179494756299
 21
222.8855970872391
 31
0.0
  0
LINE
  5
8247
330
18
100
AcDbEntity
  8
DRAW2
100
AcDbLine
 10
2139.279494756299
 20
227.6855970872391
 30
0.0
 11
2137.1794947563
 21
227.6855970872391
 31
0.0
  0
ARC
  5
8248
330
18
100
AcDbEntity
  8
DRAW2
100
AcDbCircle
 10
2131.279488969638
 20
239.3856570872393
 30
0.0
 40
8.0
100
AcDbArc
 50
269.9999999999992
 51
359.9999999999992
  0
ARC
  5
8249
330
18
100
AcDbEntity
  8
DRAW2
100
AcDbCircle
 10
2176.923374091708
 20
225.1128462327473
 30
0.0
 40
4.856120109558156
100
AcDbArc
 50
325.6162052603239
 51
25.61769932631058
  0
LINE
  5
824A
330
18
100
AcDbEntity
  8
DRAW2
100
AcDbLine
 10
2181.779498969638
 20
226.385642863606
 30
0.0
 11
2181.779498969638
 21
207.3856123460282
 31
0.0
  0
LINE
  5
824B
330
18
100
AcDbEntity
  8
DRAW2
100
AcDbLine
 10
2173.779498969638
 20
227.8552626145831
 30
0.0
 11
2173.779498969638
 21
205.915946818684
 31
0.0
  0
LINE
  5
824C
330
18
100
AcDbEntity
  8
DRAW2
100
AcDbLine
 10
2180.93098822745
 20
205.915946818684
 30
0.0
 11
2173.779498969638
 21
205.915946818684
 31
0.0
  0
LINE
  5
824D
330
18
100
AcDbEntity
  8
DRAW2
100
AcDbLine
 10
2180.931018745028
 20
211.4007795823561
 30
0.0
 11
2173.779498969638
 21
211.4007795823561
 31
0.0
  0
LINE
  5
824E
330
18
100
AcDbEntity
  8
DRAW2
100
AcDbLine
 10
2180.931003486239
 20
222.3704298509112
 30
0.0
 11
2173.779498969638
 21
222.3704298509112
 31
0.0
  0
LINE
  5
824F
330
18
100
AcDbEntity
  8
DRAW2
100
AcDbLine
 10
2173.779498969638
 20
206.3855970872391
 30
0.0
 11
2171.279498969638
 21
206.3855970872391
 31
0.0
  0
LINE
  5
8250
330
18
100
AcDbEntity
  8
DRAW2
100
AcDbLine
 10
2181.779499923312
 20
207.3856056703082
 30
0.0
 11
2180.930989657962
 21
205.9159420503131
 31
0.0
  0
ARC
  5
8251
330
18
100
AcDbEntity
  8
DRAW2
100
AcDbCircle
 10
2176.923450385654
 20
208.6583632005202
 30
0.0
 40
4.856048107147219
100
AcDbArc
 50
334.384580135639
 51
34.38442471094022
  0
ARC
  5
8252
330
18
100
AcDbEntity
  8
DRAW2
100
AcDbCircle
 10
2163.6277655712
 20
216.8855970872392
 30
0.0
 40
18.15173721313471
100
AcDbArc
 50
342.4123268633982
 51
17.5877532776394
  0
LINE
  5
8253
330
18
100
AcDbEntity
  8
DRAW2
100
AcDbLine
 10
2180.931003486239
 20
227.8552626145831
 30
0.0
 11
2173.779498969638
 21
227.8552626145831
 31
0.0
  0
LINE
  5
8254
330
18
100
AcDbEntity
  8
DRAW2
100
AcDbLine
 10
2173.779498969638
 20
227.3855970872391
 30
0.0
 11
2171.279498969638
 21
227.3855970872391
 31
0.0
  0
LINE
  5
8255
330
18
100
AcDbEntity
  8
DRAW2
100
AcDbLine
 10
2180.931003009402
 20
227.8552692903031
 30
0.0
 11
2181.779494678103
 21
226.3856380952351
 31
0.0
  0
LINE
  5
8256
330
18
100
AcDbEntity
  8
DRAW2
100
AcDbLine
 10
2170.279498969638
 20
264.3856270872424
 30
0.0
 11
2154.279498969638
 21
264.385627087242
 31
0.0
  0
ARC
  5
8257
330
18
100
AcDbEntity
  8
DRAW2
100
AcDbCircle
 10
2142.279488969638
 20
244.7251270872392
 30
0.0
 40
3.0
100
AcDbArc
 50
89.9999999999992
 51
179.9999999999992
  0
LINE
  5
8258
330
18
100
AcDbEntity
  8
DRAW2
100
AcDbLine
 10
2142.279488969638
 20
247.7251270872392
 30
0.0
 11
2153.279498969638
 21
247.7251270872392
 31
0.0
  0
LINE
  5
8259
330
18
100
AcDbEntity
  8
DRAW2
100
AcDbLine
 10
2153.279498969637
 20
263.385627087242
 30
0.0
 11
2154.279498969638
 21
264.385627087242
 31
0.0
  0
LINE
  5
825A
330
18
100
AcDbEntity
  8
DRAW2
100
AcDbLine
 10
2171.279498969638
 20
263.3856270872424
 30
0.0
 11
2170.279498969638
 21
264.3856270872424
 31
0.0
  0
LINE
  5
825C
330
18
100
AcDbEntity
  8
DRAW2
100
AcDbLine
 10
2070.279548969638
 20
418.3856570872414
 30
0.0
 11
2070.279548969638
 21
375.3856570872414
 31
0.0
  0
ARC
  5
825D
330
18
100
AcDbEntity
  8
DRAW2
100
AcDbCircle
 10
2069.649938969639
 20
373.3856570872414
 30
0.0
 40
2.0
100
AcDbArc
 50
90.00000300000001
 51
185.0
  0
LINE
  5
825F
330
18
100
AcDbEntity
  8
DRAW2
100
AcDbLine
 10
2078.688728969638
 20
378.5706770872415
 30
0.0
 11
2105.170358969639
 21
378.5706770872415
 31
0.0
  0
LINE
  5
8260
330
18
100
AcDbEntity
  8
DRAW2
100
AcDbLine
 10
2078.688721469592
 20
383.4781797991295
 30
0.0
 11
2105.170381469699
 21
383.4781797991296
 31
0.0
  0
LINE
  5
8261
330
18
100
AcDbEntity
  8
DRAW2
100
AcDbLine
 10
2078.688706469578
 20
393.2931343753533
 30
0.0
 11
2105.170381469699
 21
393.2931343753533
 31
0.0
  0
LINE
  5
8262
330
18
100
AcDbEntity
  8
DRAW2
100
AcDbLine
 10
2078.688728969638
 20
398.2005970872414
 30
0.0
 11
2105.170358969639
 21
398.2005970872414
 31
0.0
  0
LINE
  5
8263
330
18
100
AcDbEntity
  8
DRAW2
100
AcDbLine
 10
2073.979558969639
 20
379.9390270872414
 30
0.0
 11
2073.979558969639
 21
396.8322530114053
 31
0.0
  0
LINE
  5
8264
330
18
100
AcDbEntity
  8
DRAW2
100
AcDbLine
 10
2077.929538969639
 20
396.8812870872413
 30
0.0
 11
2077.929538969639
 21
379.8900170872414
 31
0.0
  0
ARC
  5
8265
330
18
100
AcDbEntity
  8
DRAW2
100
AcDbCircle
 10
2094.171009697498
 20
388.3856570872414
 30
0.0
 40
16.24146072785977
100
AcDbArc
 50
162.4127732068781
 51
197.5872267931217
  0
LINE
  5
8266
330
18
100
AcDbEntity
  8
DRAW2
100
AcDbLine
 10
2075.547798969638
 20
379.8900170872414
 30
0.0
 11
2077.929538969639
 21
379.8900170872414
 31
0.0
  0
LINE
  5
8267
330
18
100
AcDbEntity
  8
DRAW3
100
AcDbLine
 10
2073.979558969639
 20
380.7954470872414
 30
0.0
 11
2070.279548969638
 21
380.9110675676484
 31
0.0
  0
LINE
  5
8268
330
18
100
AcDbEntity
  8
DRAW2
100
AcDbLine
 10
2075.547798969638
 20
379.8900170872414
 30
0.0
 11
2070.279548969638
 21
380.0546531205611
 31
0.0
  0
LINE
  5
8269
330
18
100
AcDbEntity
  8
DRAW3
100
AcDbLine
 10
2075.547798969638
 20
379.8900170872414
 30
0.0
 11
2073.979558969639
 21
380.7954470872414
 31
0.0
  0
LINE
  5
826A
330
18
100
AcDbEntity
  8
DRAW2
100
AcDbLine
 10
2077.929568969638
 20
379.8856270872415
 30
0.0
 11
2078.688758969638
 21
378.5706770872415
 31
0.0
  0
ARC
  5
826B
330
18
100
AcDbEntity
  8
DRAW2
100
AcDbCircle
 10
2082.274543887851
 20
381.0244579630104
 30
0.0
 40
4.344994918212484
100
AcDbArc
 50
145.6168895889863
 51
214.3834146338293
  0
LINE
  5
826C
330
18
100
AcDbEntity
  8
DRAW2
100
AcDbLine
 10
2075.547798969638
 20
396.8812870872413
 30
0.0
 11
2077.929538969639
 21
396.8812870872413
 31
0.0
  0
LINE
  5
826D
330
18
100
AcDbEntity
  8
DRAW2
100
AcDbLine
 10
2075.547798969638
 20
396.8812570872414
 30
0.0
 11
2070.279548969638
 21
396.7166357776688
 31
0.0
  0
LINE
  5
826E
330
18
100
AcDbEntity
  8
DRAW3
100
AcDbLine
 10
2073.979558969639
 20
395.9758670872414
 30
0.0
 11
2070.279548969638
 21
395.8602425800927
 31
0.0
  0
LINE
  5
826F
330
18
100
AcDbEntity
  8
DRAW3
100
AcDbLine
 10
2075.547798969638
 20
396.8812870872413
 30
0.0
 11
2073.979558969639
 21
395.9758670872414
 31
0.0
  0
LINE
  5
8270
330
18
100
AcDbEntity
  8
DRAW2
100
AcDbLine
 10
2077.929538969639
 20
396.8856570872415
 30
0.0
 11
2078.688728969638
 21
398.2006270872415
 31
0.0
  0
LINE
  5
8271
330
18
100
AcDbEntity
  8
DRAW2
100
AcDbLine
 10
2077.929538969639
 20
396.8856570872415
 30
0.0
 11
2077.929538969639
 21
396.8812870872413
 31
0.0
  0
ARC
  5
8272
330
18
100
AcDbEntity
  8
DRAW2
100
AcDbCircle
 10
2082.274543887851
 20
395.7468562114724
 30
0.0
 40
4.344994918212484
100
AcDbArc
 50
145.6165853661706
 51
214.3831104110136
  0
LINE
  5
8273
330
18
100
AcDbEntity
  8
DRAW2
100
AcDbLine
 10
2105.929538969639
 20
396.8856570872415
 30
0.0
 11
2105.929538969639
 21
379.8856570872414
 31
0.0
  0
ARC
  5
8274
330
18
100
AcDbEntity
  8
DRAW2
100
AcDbCircle
 10
2089.688078241779
 20
388.3856570872414
 30
0.0
 40
16.24146072785977
100
AcDbArc
 50
342.4127732068782
 51
17.58722679312186
  0
LINE
  5
8275
330
18
100
AcDbEntity
  8
DRAW2
100
AcDbLine
 10
2105.170388969638
 20
378.5706770872415
 30
0.0
 11
2105.929568969638
 21
379.8856270872415
 31
0.0
  0
ARC
  5
8276
330
18
100
AcDbEntity
  8
DRAW2
100
AcDbCircle
 10
2101.584544051426
 20
381.0244579630104
 30
0.0
 40
4.344994918212484
100
AcDbArc
 50
325.6165853661706
 51
34.38311041101371
  0
LINE
  5
8277
330
18
100
AcDbEntity
  8
DRAW2
100
AcDbLine
 10
2105.170388969638
 20
398.2005670872415
 30
0.0
 11
2105.929568969638
 21
396.8856270872415
 31
0.0
  0
ARC
  5
8278
330
18
100
AcDbEntity
  8
DRAW2
100
AcDbCircle
 10
2101.584544051426
 20
395.7468562114724
 30
0.0
 40
4.344994918212484
100
AcDbArc
 50
325.6168895889862
 51
34.38341463382931
  0
LINE
  5
8279
330
18
100
AcDbEntity
  8
DRAW2
100
AcDbLine
 10
2070.279548969638
 20
418.3856570872414
 30
0.0
 11
2065.279518969639
 21
423.3856870872415
 31
0.0
  0
CIRCLE
  5
827D
330
18
100
AcDbEntity
  8
DRAW2
100
AcDbCircle
 10
1947.279548969638
 20
825.6677050715898
 30
0.0
 40
163.0
  0
CIRCLE
  5
827E
330
18
100
AcDbEntity
  8
DRAW2
100
AcDbCircle
 10
1947.279562277252
 20
825.6676995593958
 30
0.0
 40
163.2881592525855
  0
CIRCLE
  5
827F
330
18
100
AcDbEntity
  8
DRAW2
100
AcDbCircle
 10
1947.279548969638
 20
825.6677050715898
 30
0.0
 40
164.1737
  0
LINE
  5
8280
330
18
100
AcDbEntity
  8
DRAW2
100
AcDbLine
 10
1746.279548969638
 20
750.5964833607738
 30
0.0
 11
1746.279548969638
 21
900.7389933607738
 31
0.0
  0
LINE
  5
8281
330
18
100
AcDbEntity
  8
DRAW2
100
AcDbLine
 10
1760.279488969638
 20
753.5964233607739
 30
0.0
 11
1760.279488969638
 21
897.7389933607737
 31
0.0
  0
LINE
  5
8282
330
18
100
AcDbEntity
  8
DRAW2
100
AcDbLine
 10
1746.279548969638
 20
906.6677050715897
 30
0.0
 11
1746.279548969638
 21
744.6677050715898
 31
0.0
  0
LINE
  5
8283
330
18
100
AcDbEntity
  8
DRAW2
100
AcDbLine
 10
1728.27951845206
 20
906.6677050715897
 30
0.0
 11
1728.27951845206
 21
744.6677050715898
 31
0.0
  0
LINE
  5
8284
330
18
100
AcDbEntity
  8
DRAW2
100
AcDbLine
 10
1724.27951845206
 20
863.6677050715897
 30
0.0
 11
1724.27951845206
 21
787.6677050715898
 31
0.0
  0
ARC
  5
8285
330
18
100
AcDbEntity
  8
DRAW2
100
AcDbCircle
 10
1726.27951845206
 20
783.6677050715898
 30
0.0
 40
2.0
100
AcDbArc
 50
0.0
 51
90.0
  0
LINE
  5
8287
330
18
100
AcDbEntity
  8
DRAW2
100
AcDbLine
 10
1728.27951845206
 20
775.9789395085704
 30
0.0
 11
1725.77951845206
 21
775.9789395085704
 31
0.0
  0
LINE
  5
8288
330
18
100
AcDbEntity
  8
DRAW2
100
AcDbLine
 10
1728.27951845206
 20
754.9789395085704
 30
0.0
 11
1725.77951845206
 21
754.9789395085704
 31
0.0
  0
LINE
  5
8289
330
18
100
AcDbEntity
  8
DRAW2
100
AcDbLine
 10
1725.77951845206
 20
775.9789395085704
 30
0.0
 11
1725.779518452061
 21
755.9789395085704
 31
0.0
  0
LINE
  5
828A
330
18
100
AcDbEntity
  8
DRAW2
100
AcDbLine
 10
1717.77951845206
 20
774.9789395085701
 30
0.0
 11
1717.779518452061
 21
755.9789395085702
 31
0.0
  0
ARC
  5
828B
330
18
100
AcDbEntity
  8
DRAW2
100
AcDbCircle
 10
1731.499122944247
 20
770.2289395085706
 30
0.0
 40
13.71960830688478
100
AcDbArc
 50
159.743698643829
 51
200.2562826868448
  0
LINE
  5
828C
330
18
100
AcDbEntity
  8
DRAW2
100
AcDbLine
 10
1725.77951845206
 20
754.9789395085704
 30
0.0
 11
1725.77951845206
 21
762.4252323115247
 31
0.0
  0
ARC
  5
828D
330
18
100
AcDbEntity
  8
DRAW2
100
AcDbCircle
 10
1731.499122944248
 20
760.7289395085707
 30
0.0
 40
13.71960830688478
100
AcDbArc
 50
159.743698643829
 51
200.2562826868448
  0
LINE
  5
828E
330
18
100
AcDbEntity
  8
DRAW2
100
AcDbLine
 10
1717.779518452061
 20
755.9789395085702
 30
0.0
 11
1725.779518452061
 21
755.9789395085704
 31
0.0
  0
LINE
  5
828F
330
18
100
AcDbEntity
  8
DRAW2
100
AcDbLine
 10
1718.628025396084
 20
765.4789395085697
 30
0.0
 11
1725.77951845206
 21
765.4789395085704
 31
0.0
  0
ARC
  5
8290
330
18
100
AcDbEntity
  8
DRAW2
100
AcDbCircle
 10
1726.27951845206
 20
787.6677050715898
 30
0.0
 40
2.0
100
AcDbArc
 50
180.0
 51
270.0
  0
LINE
  5
8291
330
18
100
AcDbEntity
  8
DRAW2
100
AcDbLine
 10
1717.77951845206
 20
774.9789395085701
 30
0.0
 11
1725.77951845206
 21
774.9789395085704
 31
0.0
  0
LINE
  5
8292
330
18
100
AcDbEntity
  8
DRAW2
100
AcDbLine
 10
1768.279488969638
 20
794.6677733607738
 30
0.0
 11
1783.599829348208
 21
794.6677733607738
 31
0.0
  0
LINE
  5
8293
330
18
100
AcDbEntity
  8
DRAW2
100
AcDbLine
 10
1779.90451845206
 20
759.4789395085703
 30
0.0
 11
1772.379456643547
 21
759.4789395085703
 31
0.0
  0
LINE
  5
8294
330
18
100
AcDbEntity
  8
DRAW3
100
AcDbLine
 10
1780.77951845206
 20
760.3539395085703
 30
0.0
 11
1772.379456643547
 21
760.3539395085703
 31
0.0
  0
LINE
  5
8295
330
18
100
AcDbEntity
  8
DRAW3
100
AcDbLine
 10
1780.77951845206
 20
770.6039395085703
 30
0.0
 11
1772.379456643547
 21
770.6039395085703
 31
0.0
  0
LINE
  5
8296
330
18
100
AcDbEntity
  8
DRAW2
100
AcDbLine
 10
1779.90451845206
 20
771.4789395085703
 30
0.0
 11
1772.379456643547
 21
771.4789395085703
 31
0.0
  0
LINE
  5
8297
330
18
100
AcDbEntity
  8
DRAW2
100
AcDbLine
 10
1772.379456643547
 20
755.9790006092932
 30
0.0
 11
1772.379456643547
 21
774.9790006092933
 31
0.0
  0
ARC
  5
8298
330
18
100
AcDbEntity
  8
DRAW2
100
AcDbCircle
 10
1758.659852151359
 20
770.2290006092932
 30
0.0
 40
13.71960830688477
100
AcDbArc
 50
339.7436986438288
 51
20.2562826868379
  0
LINE
  5
8299
330
18
100
AcDbEntity
  8
DRAW2
100
AcDbLine
 10
1762.379456643547
 20
754.6790128163245
 30
0.0
 11
1762.379456643547
 21
776.278988402262
 31
0.0
  0
LINE
  5
829A
330
18
100
AcDbEntity
  8
DRAW2
100
AcDbLine
 10
1746.279548969638
 20
750.5964833607738
 30
0.0
 11
1757.279488969639
 21
750.5964833607738
 31
0.0
  0
LINE
  5
829B
330
18
100
AcDbEntity
  8
DRAW2
100
AcDbLine
 10
1745.279548969638
 20
743.6677050715898
 30
0.0
 11
1729.27951845206
 21
743.6677050715898
 31
0.0
  0
LINE
  5
829C
330
18
100
AcDbEntity
  8
DRAW2
100
AcDbLine
 10
1728.27951845206
 20
744.6677050715898
 30
0.0
 11
1729.27951845206
 21
743.6677050715898
 31
0.0
  0
LINE
  5
829D
330
18
100
AcDbEntity
  8
DRAW2
100
AcDbLine
 10
1746.279548969638
 20
744.6677050715898
 30
0.0
 11
1745.279548969638
 21
743.6677050715898
 31
0.0
  0
LINE
  5
829E
330
18
100
AcDbEntity
  8
DRAW2
100
AcDbLine
 10
1772.379456643547
 20
755.9790006092932
 30
0.0
 11
1762.379456643547
 21
755.9790006092932
 31
0.0
  0
LINE
  5
829F
330
18
100
AcDbEntity
  8
DRAW2
100
AcDbLine
 10
1771.530949019845
 20
765.4790024510192
 30
0.0
 11
1762.379456643547
 21
765.4790006092932
 31
0.0
  0
LINE
  5
82A0
330
18
100
AcDbEntity
  8
DRAW2
100
AcDbLine
 10
1762.379456643547
 20
754.6790128163245
 30
0.0
 11
1760.27951845206
 21
754.6790128163245
 31
0.0
  0
LINE
  5
82A1
330
18
100
AcDbEntity
  8
DRAW2
100
AcDbLine
 10
1760.279456643547
 20
765.2289084734166
 30
0.0
 11
1762.379456643547
 21
765.2289084734166
 31
0.0
  0
LINE
  5
82A2
330
18
100
AcDbEntity
  8
DRAW2
100
AcDbLine
 10
1760.279456643547
 20
765.7289084734165
 30
0.0
 11
1762.379456643547
 21
765.7289084734165
 31
0.0
  0
ARC
  5
82A3
330
18
100
AcDbEntity
  8
DRAW2
100
AcDbCircle
 10
1757.279488969639
 20
753.5964233607739
 30
0.0
 40
3.0
100
AcDbArc
 50
269.999989999999
 51
0.0
  0
ARC
  5
82A4
330
18
100
AcDbEntity
  8
DRAW2
100
AcDbCircle
 10
1758.659852151359
 20
760.7290006092933
 30
0.0
 40
13.71960830688477
100
AcDbArc
 50
339.7436986438288
 51
20.2562826868379
  0
ARC
  5
82A5
330
18
100
AcDbEntity
  8
DRAW2
100
AcDbCircle
 10
1768.279488969638
 20
786.6677733607738
 30
0.0
 40
8.0
100
AcDbArc
 50
90.0
 51
180.0000030000042
  0
LINE
  5
82A6
330
18
100
AcDbEntity
  8
DRAW2
100
AcDbLine
 10
1772.379456643547
 20
774.9790006092933
 30
0.0
 11
1762.379456643547
 21
774.9790006092933
 31
0.0
  0
LINE
  5
82A7
330
18
100
AcDbEntity
  8
DRAW2
100
AcDbLine
 10
1762.379456643547
 20
776.278988402262
 30
0.0
 11
1760.27951845206
 21
776.278988402262
 31
0.0
  0
ARC
  5
82A8
330
18
100
AcDbEntity
  8
DRAW2
100
AcDbCircle
 10
1808.697619092946
 20
768.2651902168259
 30
0.0
 40
9.0
100
AcDbArc
 50
340.8119739527819
 51
22.49999999999881
  0
LINE
  5
82A9
330
18
100
AcDbEntity
  8
DRAW2
100
AcDbLine
 10
1817.197624792945
 20
763.3577033168259
 30
0.0
 11
1817.197624792945
 21
773.1726676168258
 31
0.0
  0
LINE
  5
82AA
330
18
100
AcDbEntity
  8
DRAW2
100
AcDbLine
 10
1800.197641992945
 20
763.3577205168259
 30
0.0
 11
1800.197641992945
 21
773.1726847168259
 31
0.0
  0
CIRCLE
  5
82AB
330
18
100
AcDbEntity
  8
DRAW2
100
AcDbCircle
 10
1808.697619092946
 20
768.2651902168259
 30
0.0
 40
8.500000999999999
  0
LINE
  5
82AC
330
18
100
AcDbEntity
  8
DRAW2
100
AcDbLine
 10
1780.77951845206
 20
760.3539395085703
 30
0.0
 11
1780.77951845206
 21
770.6039395085703
 31
0.0
  0
LINE
  5
82AD
330
18
100
AcDbEntity
  8
DRAW2
100
AcDbLine
 10
1779.90451845206
 20
759.4789395085703
 30
0.0
 11
1779.90451845206
 21
771.4789395085703
 31
0.0
  0
ARC
  5
82AF
330
18
100
AcDbEntity
  8
DRAW2
100
AcDbCircle
 10
1808.697619092946
 20
768.2651902168259
 30
0.0
 40
9.0
100
AcDbArc
 50
160.8114199894652
 51
199.1885800105347
  0
LINE
  5
82B1
330
18
100
AcDbEntity
  8
DRAW2
100
AcDbLine
 10
1779.90451845206
 20
759.4789395085703
 30
0.0
 11
1780.77951845206
 21
760.3539395085703
 31
0.0
  0
LINE
  5
82B2
330
18
100
AcDbEntity
  8
DRAW2
100
AcDbLine
 10
1808.697631955557
 20
758.4502259168258
 30
0.0
 11
1817.197634392945
 21
763.3577038168258
 31
0.0
  0
ARC
  5
82B3
330
18
100
AcDbEntity
  8
DRAW2
100
AcDbCircle
 10
1808.697619092946
 20
768.2651902168259
 30
0.0
 40
9.0
100
AcDbArc
 50
280.812153880891
 51
319.1878380774259
  0
ARC
  5
82B4
330
18
100
AcDbEntity
  8
DRAW2
100
AcDbCircle
 10
1808.697619092946
 20
768.2651902168259
 30
0.0
 40
9.0
100
AcDbArc
 50
220.8116936954073
 51
259.1882999565256
  0
LINE
  5
82B6
330
18
100
AcDbEntity
  8
DRAW2
100
AcDbLine
 10
1800.197629592945
 20
763.3577171168259
 30
0.0
 11
1808.697644287751
 21
758.4502307168259
 31
0.0
  0
LINE
  5
82B7
330
18
100
AcDbEntity
  8
DRAW2
100
AcDbLine
 10
1779.90451845206
 20
771.4789395085703
 30
0.0
 11
1780.779487934482
 21
770.6039395085703
 31
0.0
  0
ARC
  5
82B8
330
18
100
AcDbEntity
  8
DRAW2
100
AcDbCircle
 10
1783.599829348208
 20
791.6677733607738
 30
0.0
 40
3.0
100
AcDbArc
 50
11.73473282263939
 51
90.0
  0
LINE
  5
82B9
330
18
100
AcDbEntity
  8
DRAW2
100
AcDbLine
 10
1808.697627956532
 20
778.0801469168259
 30
0.0
 11
1817.197616192945
 21
773.1726766168259
 31
0.0
  0
ARC
  5
82BA
330
18
100
AcDbEntity
  8
DRAW2
100
AcDbCircle
 10
1808.697619092946
 20
768.2651902168259
 30
0.0
 40
9.0
100
AcDbArc
 50
40.81198765376127
 51
79.1880143320667
  0
ARC
  5
82BB
330
18
100
AcDbEntity
  8
DRAW2
100
AcDbCircle
 10
1808.697619092946
 20
768.2651902168259
 30
0.0
 40
9.0
100
AcDbArc
 50
100.8118733546228
 51
139.188114832397
  0
LINE
  5
82BC
330
18
100
AcDbEntity
  8
DRAW2
100
AcDbLine
 10
1800.197624792946
 20
773.1726723168259
 30
0.0
 11
1808.697627010343
 21
778.0801497168258
 31
0.0
  0
ARC
  5
82BE
330
18
100
AcDbEntity
  8
DRAW2
100
AcDbCircle
 10
1726.27951845206
 20
867.6677050715897
 30
0.0
 40
2.0
100
AcDbArc
 50
270.0
 51
0.0
  0
LINE
  5
82BF
330
18
100
AcDbEntity
  8
DRAW2
100
AcDbLine
 10
1728.27951845206
 20
875.3564706346107
 30
0.0
 11
1725.77951845206
 21
875.3564706346107
 31
0.0
  0
LINE
  5
82C0
330
18
100
AcDbEntity
  8
DRAW2
100
AcDbLine
 10
1728.27951845206
 20
896.3564706346106
 30
0.0
 11
1725.77951845206
 21
896.3564706346106
 31
0.0
  0
ARC
  5
82C2
330
18
100
AcDbEntity
  8
DRAW2
100
AcDbCircle
 10
1731.499122944247
 20
890.6064706346109
 30
0.0
 40
13.71960830688478
100
AcDbArc
 50
159.743698643829
 51
200.2562826868448
  0
LINE
  5
82C3
330
18
100
AcDbEntity
  8
DRAW2
100
AcDbLine
 10
1717.77951845206
 20
895.3564706346105
 30
0.0
 11
1717.779518452061
 21
876.3564706346103
 31
0.0
  0
LINE
  5
82C4
330
18
100
AcDbEntity
  8
DRAW2
100
AcDbLine
 10
1725.77951845206
 20
896.3564706346106
 30
0.0
 11
1725.779518452061
 21
876.3564706346107
 31
0.0
  0
LINE
  5
82C5
330
18
100
AcDbEntity
  8
DRAW2
100
AcDbLine
 10
1717.77951845206
 20
835.1677050715897
 30
0.0
 11
1717.779518452061
 21
816.1677050715898
 31
0.0
  0
ARC
  5
82C6
330
18
100
AcDbEntity
  8
DRAW2
100
AcDbCircle
 10
1731.499122944247
 20
830.4177050715903
 30
0.0
 40
13.71960830688478
100
AcDbArc
 50
159.743698643829
 51
200.2562826868448
  0
ARC
  5
82C7
330
18
100
AcDbEntity
  8
DRAW2
100
AcDbCircle
 10
1731.499122944248
 20
820.9177050715902
 30
0.0
 40
13.71960830688478
100
AcDbArc
 50
159.743698643829
 51
200.2562826868448
  0
LINE
  5
82C8
330
18
100
AcDbEntity
  8
DRAW2
100
AcDbLine
 10
1717.779518452061
 20
816.1677050715898
 30
0.0
 11
1724.27951845206
 21
816.1677050715899
 31
0.0
  0
LINE
  5
82C9
330
18
100
AcDbEntity
  8
DRAW2
100
AcDbLine
 10
1718.628025396084
 20
825.6677050715893
 30
0.0
 11
1724.27951845206
 21
825.6677050715898
 31
0.0
  0
LINE
  5
82CA
330
18
100
AcDbEntity
  8
DRAW2
100
AcDbLine
 10
1717.77951845206
 20
835.1677050715897
 30
0.0
 11
1724.27951845206
 21
835.1677050715901
 31
0.0
  0
ARC
  5
82CB
330
18
100
AcDbEntity
  8
DRAW2
100
AcDbCircle
 10
1726.27951845206
 20
863.6677050715897
 30
0.0
 40
2.0
100
AcDbArc
 50
90.0
 51
180.0
  0
LINE
  5
82CC
330
18
100
AcDbEntity
  8
DRAW2
100
AcDbLine
 10
1718.628025396084
 20
885.8564706346099
 30
0.0
 11
1725.77951845206
 21
885.8564706346106
 31
0.0
  0
LINE
  5
82CD
330
18
100
AcDbEntity
  8
DRAW2
100
AcDbLine
 10
1717.779518452061
 20
876.3564706346103
 30
0.0
 11
1725.779518452061
 21
876.3564706346107
 31
0.0
  0
ARC
  5
82CE
330
18
100
AcDbEntity
  8
DRAW2
100
AcDbCircle
 10
1731.499122944248
 20
881.1064706346108
 30
0.0
 40
13.71960830688478
100
AcDbArc
 50
159.743698643829
 51
200.2562826868448
  0
LINE
  5
82CF
330
18
100
AcDbEntity
  8
DRAW2
100
AcDbLine
 10
1725.77951845206
 20
875.3564706346107
 30
0.0
 11
1725.77951845206
 21
882.8027634375649
 31
0.0
  0
LINE
  5
82D0
330
18
100
AcDbEntity
  8
DRAW2
100
AcDbLine
 10
1717.77951845206
 20
895.3564706346105
 30
0.0
 11
1725.77951845206
 21
895.3564706346107
 31
0.0
  0
ARC
  5
82D1
330
18
100
AcDbEntity
  8
DRAW2
100
AcDbCircle
 10
1808.697619092945
 20
883.070219926353
 30
0.0
 40
9.0
100
AcDbArc
 50
100.8118733546256
 51
139.188114832397
  0
LINE
  5
82D2
330
18
100
AcDbEntity
  8
DRAW2
100
AcDbLine
 10
1800.197624792945
 20
887.977702026353
 30
0.0
 11
1808.697627010343
 21
892.8851794263531
 31
0.0
  0
LINE
  5
82D3
330
18
100
AcDbEntity
  8
DRAW2
100
AcDbLine
 10
1808.697627956531
 20
892.885176626353
 30
0.0
 11
1817.197616192945
 21
887.977706326353
 31
0.0
  0
CIRCLE
  5
82D4
330
18
100
AcDbEntity
  8
DRAW2
100
AcDbCircle
 10
1808.697619092945
 20
883.070219926353
 30
0.0
 40
8.500000999999999
  0
ARC
  5
82D5
330
18
100
AcDbEntity
  8
DRAW2
100
AcDbCircle
 10
1808.697619092945
 20
883.070219926353
 30
0.0
 40
9.0
100
AcDbArc
 50
40.811987653761
 51
79.18801433207071
  0
LINE
  5
82D7
330
18
100
AcDbEntity
  8
DRAW2
100
AcDbLine
 10
1779.90451845206
 20
879.8564706346105
 30
0.0
 11
1779.90451845206
 21
891.8564706346105
 31
0.0
  0
LINE
  5
82D8
330
18
100
AcDbEntity
  8
DRAW2
100
AcDbLine
 10
1780.77951845206
 20
880.7314706346105
 30
0.0
 11
1780.77951845206
 21
890.9814706346105
 31
0.0
  0
ARC
  5
82D9
330
18
100
AcDbEntity
  8
DRAW2
100
AcDbCircle
 10
1758.659852151359
 20
890.6065317353336
 30
0.0
 40
13.71960830688477
100
AcDbArc
 50
339.7436986438288
 51
20.2562826868379
  0
LINE
  5
82DA
330
18
100
AcDbEntity
  8
DRAW2
100
AcDbLine
 10
1772.379456643547
 20
876.3565317353336
 30
0.0
 11
1772.379456643547
 21
895.3565317353335
 31
0.0
  0
LINE
  5
82DB
330
18
100
AcDbEntity
  8
DRAW2
100
AcDbLine
 10
1762.379456643547
 20
875.0565439423647
 30
0.0
 11
1762.379456643547
 21
896.6565195283022
 31
0.0
  0
LINE
  5
82DC
330
18
100
AcDbEntity
  8
DRAW2
100
AcDbLine
 10
1768.279488969638
 20
856.6677133607738
 30
0.0
 11
1783.599845255264
 21
856.6677133607738
 31
0.0
  0
LINE
  5
82DD
330
18
100
AcDbEntity
  8
DRAW3
100
AcDbLine
 10
1780.77951845206
 20
880.7314706346105
 30
0.0
 11
1772.379456643547
 21
880.7314706346105
 31
0.0
  0
LINE
  5
82DE
330
18
100
AcDbEntity
  8
DRAW2
100
AcDbLine
 10
1779.90451845206
 20
879.8564706346105
 30
0.0
 11
1772.379456643547
 21
879.8564706346105
 31
0.0
  0
ARC
  5
82DF
330
18
100
AcDbEntity
  8
DRAW2
100
AcDbCircle
 10
1768.279488969638
 20
864.6677133607738
 30
0.0
 40
8.0
100
AcDbArc
 50
180.0000030000042
 51
270.000010000001
  0
LINE
  5
82E0
330
18
100
AcDbEntity
  8
DRAW2
100
AcDbLine
 10
1771.530949019845
 20
885.8565335770595
 30
0.0
 11
1762.379456643547
 21
885.8565317353335
 31
0.0
  0
LINE
  5
82E1
330
18
100
AcDbEntity
  8
DRAW2
100
AcDbLine
 10
1772.379456643547
 20
876.3565317353336
 30
0.0
 11
1762.379456643547
 21
876.3565317353336
 31
0.0
  0
LINE
  5
82E2
330
18
100
AcDbEntity
  8
DRAW2
100
AcDbLine
 10
1760.279456643547
 20
886.1064395994569
 30
0.0
 11
1762.379456643547
 21
886.1064395994569
 31
0.0
  0
LINE
  5
82E3
330
18
100
AcDbEntity
  8
DRAW2
100
AcDbLine
 10
1760.279456643547
 20
885.6064395994568
 30
0.0
 11
1762.379456643547
 21
885.6064395994568
 31
0.0
  0
LINE
  5
82E4
330
18
100
AcDbEntity
  8
DRAW2
100
AcDbLine
 10
1762.379456643547
 20
875.0565439423647
 30
0.0
 11
1760.27951845206
 21
875.0565439423647
 31
0.0
  0
ARC
  5
82E5
330
18
100
AcDbEntity
  8
DRAW2
100
AcDbCircle
 10
1758.659852151359
 20
881.1065317353335
 30
0.0
 40
13.71960830688477
100
AcDbArc
 50
339.7436986438288
 51
20.2562826868379
  0
ARC
  5
82E7
330
18
100
AcDbEntity
  8
DRAW2
100
AcDbCircle
 10
1808.697619092945
 20
883.070219926353
 30
0.0
 40
9.0
100
AcDbArc
 50
157.5000000000011
 51
199.1885800105347
  0
ARC
  5
82E8
330
18
100
AcDbEntity
  8
DRAW2
100
AcDbCircle
 10
1783.599845255264
 20
859.6677133607739
 30
0.0
 40
3.0
100
AcDbArc
 50
270.0
 51
348.2652403712436
  0
LINE
  5
82E9
330
18
100
AcDbEntity
  8
DRAW2
100
AcDbLine
 10
1779.90451845206
 20
879.8564706346105
 30
0.0
 11
1780.77951845206
 21
880.7314706346105
 31
0.0
  0
LINE
  5
82EA
330
18
100
AcDbEntity
  8
DRAW2
100
AcDbLine
 10
1808.697631955557
 20
873.2552556263531
 30
0.0
 11
1817.197634392945
 21
878.1627335263531
 31
0.0
  0
ARC
  5
82EB
330
18
100
AcDbEntity
  8
DRAW2
100
AcDbCircle
 10
1808.697619092945
 20
883.070219926353
 30
0.0
 40
9.0
100
AcDbArc
 50
280.8121538808861
 51
319.1878380774342
  0
ARC
  5
82EC
330
18
100
AcDbEntity
  8
DRAW2
100
AcDbCircle
 10
1808.697619092945
 20
883.070219926353
 30
0.0
 40
9.0
100
AcDbArc
 50
220.8116936954073
 51
259.1882999565256
  0
LINE
  5
82EE
330
18
100
AcDbEntity
  8
DRAW2
100
AcDbLine
 10
1800.197641992945
 20
878.162750226353
 30
0.0
 11
1800.197641992945
 21
887.9777144263529
 31
0.0
  0
LINE
  5
82EF
330
18
100
AcDbEntity
  8
DRAW2
100
AcDbLine
 10
1800.197629592945
 20
878.1627468263529
 30
0.0
 11
1808.697644287751
 21
873.2552604263529
 31
0.0
  0
ARC
  5
82F0
330
18
100
AcDbEntity
  8
DRAW2
100
AcDbCircle
 10
1808.697619092945
 20
883.070219926353
 30
0.0
 40
9.0
100
AcDbArc
 50
337.5000000000011
 51
19.1880260472181
  0
LINE
  5
82F1
330
18
100
AcDbEntity
  8
DRAW2
100
AcDbLine
 10
1817.197624792945
 20
878.162733026353
 30
0.0
 11
1817.197624792945
 21
887.9776973263531
 31
0.0
  0
LINE
  5
82F2
330
18
100
AcDbEntity
  8
DRAW2
100
AcDbLine
 10
1779.90451845206
 20
891.8564706346105
 30
0.0
 11
1772.379456643547
 21
891.8564706346105
 31
0.0
  0
LINE
  5
82F3
330
18
100
AcDbEntity
  8
DRAW3
100
AcDbLine
 10
1780.77951845206
 20
890.9814706346105
 30
0.0
 11
1772.379456643547
 21
890.9814706346105
 31
0.0
  0
LINE
  5
82F4
330
18
100
AcDbEntity
  8
DRAW2
100
AcDbLine
 10
1746.279548969638
 20
900.7389933607738
 30
0.0
 11
1757.279488969639
 21
900.7389933607738
 31
0.0
  0
LINE
  5
82F5
330
18
100
AcDbEntity
  8
DRAW2
100
AcDbLine
 10
1745.279548969638
 20
907.6677050715899
 30
0.0
 11
1729.27951845206
 21
907.6677050715899
 31
0.0
  0
LINE
  5
82F6
330
18
100
AcDbEntity
  8
DRAW2
100
AcDbLine
 10
1729.27951845206
 20
907.6677050715899
 30
0.0
 11
1728.27951845206
 21
906.6677050715897
 31
0.0
  0
LINE
  5
82F7
330
18
100
AcDbEntity
  8
DRAW2
100
AcDbLine
 10
1745.279548969638
 20
907.6677050715899
 30
0.0
 11
1746.279548969638
 21
906.6677050715897
 31
0.0
  0
LINE
  5
82F8
330
18
100
AcDbEntity
  8
DRAW2
100
AcDbLine
 10
1772.379456643547
 20
895.3565317353335
 30
0.0
 11
1762.379456643547
 21
895.3565317353335
 31
0.0
  0
LINE
  5
82F9
330
18
100
AcDbEntity
  8
DRAW2
100
AcDbLine
 10
1762.379456643547
 20
896.6565195283022
 30
0.0
 11
1760.27951845206
 21
896.6565195283022
 31
0.0
  0
ARC
  5
82FA
330
18
100
AcDbEntity
  8
DRAW2
100
AcDbCircle
 10
1757.279488969639
 20
897.7389933607737
 30
0.0
 40
3.0
100
AcDbArc
 50
0.0
 51
90.0
  0
LINE
  5
82FB
330
18
100
AcDbEntity
  8
DRAW2
100
AcDbLine
 10
1779.90451845206
 20
891.8564706346105
 30
0.0
 11
1780.779487934482
 21
890.9814706346105
 31
0.0
  0
LINE
  5
82FC
330
18
100
AcDbEntity
  8
DRAW2
100
AcDbLine
 10
2153.279498969638
 20
750.5964833607738
 30
0.0
 11
2153.279498969638
 21
900.7389933607738
 31
0.0
  0
LINE
  5
82FD
330
18
100
AcDbEntity
  8
DRAW2
100
AcDbLine
 10
2139.279488969639
 20
753.5964833607738
 30
0.0
 11
2139.279488969639
 21
897.7389933607737
 31
0.0
  0
LINE
  5
82FE
330
18
100
AcDbEntity
  8
DRAW2
100
AcDbLine
 10
2153.279498969638
 20
744.6677383607737
 30
0.0
 11
2153.279498969638
 21
906.6677383607739
 31
0.0
  0
LINE
  5
82FF
330
18
100
AcDbEntity
  8
DRAW2
100
AcDbLine
 10
2175.279529487216
 20
787.6677383607739
 30
0.0
 11
2175.279529487216
 21
863.6677383607738
 31
0.0
  0
LINE
  5
8300
330
18
100
AcDbEntity
  8
DRAW2
100
AcDbLine
 10
2171.279529487216
 20
744.6677383607737
 30
0.0
 11
2171.279529487216
 21
906.6677383607739
 31
0.0
  0
LINE
  5
8301
330
18
100
AcDbEntity
  8
DRAW2
100
AcDbLine
 10
1962.279548969639
 20
817.0074510337453
 30
0.0
 11
1947.279548969639
 21
808.347196995901
 31
0.0
  0
LINE
  5
8302
330
18
100
AcDbEntity
  8
DRAW2
100
AcDbLine
 10
1947.279548969639
 20
808.347196995901
 30
0.0
 11
1932.279548969638
 21
817.0074510337453
 31
0.0
  0
CIRCLE
  5
8303
330
18
100
AcDbEntity
  8
DRAW2
100
AcDbCircle
 10
1947.279548969638
 20
825.6677050715898
 30
0.0
 40
118.0
  0
CIRCLE
  5
8304
330
18
100
AcDbEntity
  8
DRAW2
100
AcDbCircle
 10
1947.279548969638
 20
825.6677050715898
 30
0.0
 40
123.0
  0
ARC
  5
8306
330
18
100
AcDbEntity
  8
DRAW2
100
AcDbCircle
 10
1889.877034114875
 20
687.0857751948967
 30
0.0
 40
9.0
100
AcDbArc
 50
340.8119739527819
 51
19.1880260472181
  0
LINE
  5
8307
330
18
100
AcDbEntity
  8
DRAW2
100
AcDbLine
 10
1898.377039814875
 20
682.1782882948967
 30
0.0
 11
1898.377039814875
 21
691.9932525948967
 31
0.0
  0
ARC
  5
8308
330
18
100
AcDbEntity
  8
DRAW2
100
AcDbCircle
 10
1889.877034114875
 20
687.0857751948967
 30
0.0
 40
9.0
100
AcDbArc
 50
160.8114199894652
 51
199.1885800105347
  0
LINE
  5
8309
330
18
100
AcDbEntity
  8
DRAW2
100
AcDbLine
 10
1881.377057014875
 20
682.1783054948967
 30
0.0
 11
1881.377057014875
 21
691.9932696948968
 31
0.0
  0
CIRCLE
  5
830C
330
18
100
AcDbEntity
  8
DRAW2
100
AcDbCircle
 10
1889.877034114875
 20
687.0857751948967
 30
0.0
 40
8.500000999999999
  0
LINE
  5
830D
330
18
100
AcDbEntity
  8
DRAW2
100
AcDbLine
 10
1889.877046977487
 20
677.2708108948967
 30
0.0
 11
1898.377049414875
 21
682.1782887948967
 31
0.0
  0
ARC
  5
830E
330
18
100
AcDbEntity
  8
DRAW2
100
AcDbCircle
 10
1889.877034114875
 20
687.0857751948967
 30
0.0
 40
9.0
100
AcDbArc
 50
220.8116936954073
 51
259.1882999565256
  0
LINE
  5
830F
330
18
100
AcDbEntity
  8
DRAW2
100
AcDbLine
 10
1881.377044614875
 20
682.1783020948968
 30
0.0
 11
1889.877059309681
 21
677.2708156948968
 31
0.0
  0
ARC
  5
8310
330
18
100
AcDbEntity
  8
DRAW2
100
AcDbCircle
 10
1889.877034114875
 20
687.0857751948967
 30
0.0
 40
9.0
100
AcDbArc
 50
280.812153880891
 51
319.1878380774259
  0
LINE
  5
8312
330
18
100
AcDbEntity
  8
DRAW2
100
AcDbLine
 10
1889.877042978461
 20
696.9007318948968
 30
0.0
 11
1898.377031214875
 21
691.9932615948968
 31
0.0
  0
LINE
  5
8313
330
18
100
AcDbEntity
  8
DRAW2
100
AcDbLine
 10
1881.377039814875
 20
691.9932572948968
 30
0.0
 11
1889.877042032273
 21
696.9007346948967
 31
0.0
  0
ARC
  5
8314
330
18
100
AcDbEntity
  8
DRAW2
100
AcDbCircle
 10
1889.877034114875
 20
687.0857751948967
 30
0.0
 40
9.0
100
AcDbArc
 50
100.8118733546228
 51
139.188114832397
  0
ARC
  5
8315
330
18
100
AcDbEntity
  8
DRAW2
100
AcDbCircle
 10
1889.877034114875
 20
687.0857751948967
 30
0.0
 40
9.0
100
AcDbArc
 50
40.811987653761
 51
79.1880143320699
  0
ARC
  5
8316
330
18
100
AcDbEntity
  8
DRAW2
100
AcDbCircle
 10
2004.682063824402
 20
687.0857751948967
 30
0.0
 40
9.0
100
AcDbArc
 50
340.8119739527819
 51
19.1880260472181
  0
LINE
  5
8317
330
18
100
AcDbEntity
  8
DRAW2
100
AcDbLine
 10
2013.182069524402
 20
682.1782882948967
 30
0.0
 11
2013.182069524402
 21
691.9932525948967
 31
0.0
  0
ARC
  5
8318
330
18
100
AcDbEntity
  8
DRAW2
100
AcDbCircle
 10
2004.682063824402
 20
687.0857751948967
 30
0.0
 40
9.0
100
AcDbArc
 50
160.8114199894652
 51
199.1885800105347
  0
LINE
  5
8319
330
18
100
AcDbEntity
  8
DRAW2
100
AcDbLine
 10
1996.182086724402
 20
682.1783054948967
 30
0.0
 11
1996.182086724402
 21
691.9932696948968
 31
0.0
  0
CIRCLE
  5
831A
330
18
100
AcDbEntity
  8
DRAW2
100
AcDbCircle
 10
2004.682063824402
 20
687.0857751948967
 30
0.0
 40
8.500000999999999
  0
ARC
  5
831D
330
18
100
AcDbEntity
  8
DRAW2
100
AcDbCircle
 10
2004.682063824402
 20
687.0857751948967
 30
0.0
 40
9.0
100
AcDbArc
 50
280.8121538808894
 51
319.1878380774259
  0
LINE
  5
831E
330
18
100
AcDbEntity
  8
DRAW2
100
AcDbLine
 10
2004.682076687014
 20
677.2708108948967
 30
0.0
 11
2013.182079124402
 21
682.1782887948967
 31
0.0
  0
LINE
  5
831F
330
18
100
AcDbEntity
  8
DRAW2
100
AcDbLine
 10
1996.182074324402
 20
682.1783020948968
 30
0.0
 11
2004.682089019208
 21
677.2708156948968
 31
0.0
  0
ARC
  5
8321
330
18
100
AcDbEntity
  8
DRAW2
100
AcDbCircle
 10
2004.682063824402
 20
687.0857751948967
 30
0.0
 40
9.0
100
AcDbArc
 50
220.8116936954073
 51
259.188299956524
  0
ARC
  5
8322
330
18
100
AcDbEntity
  8
DRAW2
100
AcDbCircle
 10
2004.682063824402
 20
687.0857751948967
 30
0.0
 40
9.0
100
AcDbArc
 50
40.81198765376127
 51
79.1880143320667
  0
LINE
  5
8323
330
18
100
AcDbEntity
  8
DRAW2
100
AcDbLine
 10
2004.682072687988
 20
696.9007318948968
 30
0.0
 11
2013.182060924401
 21
691.9932615948968
 31
0.0
  0
LINE
  5
8324
330
18
100
AcDbEntity
  8
DRAW2
100
AcDbLine
 10
1996.182069524402
 20
691.9932572948968
 30
0.0
 11
2004.6820717418
 21
696.9007346948967
 31
0.0
  0
ARC
  5
8325
330
18
100
AcDbEntity
  8
DRAW2
100
AcDbCircle
 10
2004.682063824402
 20
687.0857751948967
 30
0.0
 40
9.0
100
AcDbArc
 50
100.8118733546228
 51
139.188114832397
  0
LINE
  5
8326
330
18
100
AcDbEntity
  8
DRAW2
100
AcDbLine
 10
2112.579508969639
 20
776.6677733607738
 30
0.0
 11
2131.279498969638
 21
776.6677733607738
 31
0.0
  0
ARC
  5
8328
330
18
100
AcDbEntity
  8
DRAW2
100
AcDbCircle
 10
2085.861478846331
 20
768.265190216826
 30
0.0
 40
9.0
100
AcDbArc
 50
337.5000000000011
 51
19.1880260472181
  0
LINE
  5
8329
330
18
100
AcDbEntity
  8
DRAW2
100
AcDbLine
 10
2094.361484546331
 20
763.3577033168261
 30
0.0
 11
2094.361484546331
 21
773.1726676168261
 31
0.0
  0
ARC
  5
832A
330
18
100
AcDbEntity
  8
DRAW2
100
AcDbCircle
 10
2085.861478846331
 20
768.265190216826
 30
0.0
 40
9.0
100
AcDbArc
 50
157.5000000000011
 51
199.1885800105347
  0
LINE
  5
832B
330
18
100
AcDbEntity
  8
DRAW2
100
AcDbLine
 10
2077.361501746331
 20
763.3577205168261
 30
0.0
 11
2077.361501746331
 21
773.172684716826
 31
0.0
  0
CIRCLE
  5
832C
330
18
100
AcDbEntity
  8
DRAW2
100
AcDbCircle
 10
2085.861478846331
 20
768.265190216826
 30
0.0
 40
8.500000999999999
  0
LINE
  5
832F
330
18
100
AcDbEntity
  8
DRAW2
100
AcDbLine
 10
2085.861491708943
 20
758.450225916826
 30
0.0
 11
2094.361494146331
 21
763.3577038168261
 31
0.0
  0
LINE
  5
8330
330
18
100
AcDbEntity
  8
DRAW2
100
AcDbLine
 10
2077.361489346331
 20
763.3577171168261
 30
0.0
 11
2085.861504041138
 21
758.4502307168261
 31
0.0
  0
ARC
  5
8331
330
18
100
AcDbEntity
  8
DRAW2
100
AcDbCircle
 10
2085.861478846331
 20
768.265190216826
 30
0.0
 40
9.0
100
AcDbArc
 50
220.8116936953989
 51
259.1882999565271
  0
ARC
  5
8332
330
18
100
AcDbEntity
  8
DRAW2
100
AcDbCircle
 10
2085.861478846331
 20
768.265190216826
 30
0.0
 40
9.0
100
AcDbArc
 50
280.812153880891
 51
319.1878380774259
  0
LINE
  5
8334
330
18
100
AcDbEntity
  8
DRAW2
100
AcDbLine
 10
2085.861487709917
 20
778.0801469168261
 30
0.0
 11
2094.361475946331
 21
773.1726766168261
 31
0.0
  0
LINE
  5
8335
330
18
100
AcDbEntity
  8
DRAW2
100
AcDbLine
 10
2077.361484546331
 20
773.1726723168261
 30
0.0
 11
2085.861486763729
 21
778.0801497168261
 31
0.0
  0
ARC
  5
8336
330
18
100
AcDbEntity
  8
DRAW2
100
AcDbCircle
 10
2085.861478846331
 20
768.265190216826
 30
0.0
 40
9.0
100
AcDbArc
 50
100.8118733546228
 51
139.188114832397
  0
ARC
  5
8337
330
18
100
AcDbEntity
  8
DRAW2
100
AcDbCircle
 10
2085.861478846331
 20
768.265190216826
 30
0.0
 40
9.0
100
AcDbArc
 50
40.81198765376127
 51
79.1880143320667
  0
ARC
  5
8338
330
18
100
AcDbEntity
  8
DRAW2
100
AcDbCircle
 10
2112.579508969639
 20
825.6677133607738
 30
0.0
 40
48.99999600000001
100
AcDbArc
 50
260.1501695811595
 51
270.000010000001
  0
LINE
  5
8339
330
18
100
AcDbEntity
  8
DRAW2
100
AcDbLine
 10
2154.279498969638
 20
743.6677383607738
 30
0.0
 11
2170.279529487217
 21
743.6677383607738
 31
0.0
  0
LINE
  5
833A
330
18
100
AcDbEntity
  8
DRAW2
100
AcDbLine
 10
2137.179561813308
 20
754.6790128163246
 30
0.0
 11
2137.179561813308
 21
776.2789884022621
 31
0.0
  0
LINE
  5
833B
330
18
100
AcDbEntity
  8
DRAW2
100
AcDbLine
 10
2118.779500004794
 20
760.3539395085704
 30
0.0
 11
2118.779500004794
 21
770.6039395085704
 31
0.0
  0
LINE
  5
833C
330
18
100
AcDbEntity
  8
DRAW2
100
AcDbLine
 10
2119.654500004795
 20
759.4789395085704
 30
0.0
 11
2119.654500004795
 21
771.4789395085704
 31
0.0
  0
ARC
  5
833D
330
18
100
AcDbEntity
  8
DRAW2
100
AcDbCircle
 10
2140.899166305496
 20
770.2290006092933
 30
0.0
 40
13.71960830688477
100
AcDbArc
 50
159.7437173131621
 51
200.2563013561711
  0
LINE
  5
833E
330
18
100
AcDbEntity
  8
DRAW2
100
AcDbLine
 10
2127.179561813308
 20
755.9790006092933
 30
0.0
 11
2127.179561813308
 21
774.9790006092934
 31
0.0
  0
ARC
  5
833F
330
18
100
AcDbEntity
  8
DRAW2
100
AcDbCircle
 10
2142.279498969638
 20
753.5964833607738
 30
0.0
 40
3.0
100
AcDbArc
 50
180.0000030000042
 51
270.000010000001
  0
LINE
  5
8340
330
18
100
AcDbEntity
  8
DRAW2
100
AcDbLine
 10
2127.179561813308
 20
755.9790006092933
 30
0.0
 11
2137.179561813308
 21
755.9790006092933
 31
0.0
  0
LINE
  5
8341
330
18
100
AcDbEntity
  8
DRAW2
100
AcDbLine
 10
2128.028069437009
 20
765.4790024510194
 30
0.0
 11
2137.179561813308
 21
765.4790006092934
 31
0.0
  0
LINE
  5
8342
330
18
100
AcDbEntity
  8
DRAW2
100
AcDbLine
 10
2119.654500004795
 20
759.4789395085704
 30
0.0
 11
2118.779500004794
 21
760.3539395085704
 31
0.0
  0
LINE
  5
8343
330
18
100
AcDbEntity
  8
DRAW2
100
AcDbLine
 10
2119.654500004795
 20
759.4789395085704
 30
0.0
 11
2127.179561813308
 21
759.4789395085704
 31
0.0
  0
LINE
  5
8344
330
18
100
AcDbEntity
  8
DRAW3
100
AcDbLine
 10
2118.779500004794
 20
760.3539395085704
 30
0.0
 11
2127.179561813308
 21
760.3539395085704
 31
0.0
  0
ARC
  5
8345
330
18
100
AcDbEntity
  8
DRAW2
100
AcDbCircle
 10
2140.899166305496
 20
760.7290006092934
 30
0.0
 40
13.71960830688477
100
AcDbArc
 50
159.7437173131621
 51
200.2563013561711
  0
LINE
  5
8346
330
18
100
AcDbEntity
  8
DRAW2
100
AcDbLine
 10
2137.179561813308
 20
754.6790128163246
 30
0.0
 11
2139.279500004794
 21
754.6790128163246
 31
0.0
  0
LINE
  5
8347
330
18
100
AcDbEntity
  8
DRAW2
100
AcDbLine
 10
2139.279561813308
 20
765.2289084734166
 30
0.0
 11
2137.179561813308
 21
765.2289084734166
 31
0.0
  0
LINE
  5
8348
330
18
100
AcDbEntity
  8
DRAW2
100
AcDbLine
 10
2139.279561813308
 20
765.7289084734165
 30
0.0
 11
2137.179561813308
 21
765.7289084734165
 31
0.0
  0
LINE
  5
8349
330
18
100
AcDbEntity
  8
DRAW2
100
AcDbLine
 10
2154.279498969638
 20
743.6677383607738
 30
0.0
 11
2153.279498969638
 21
744.6677383607737
 31
0.0
  0
LINE
  5
834A
330
18
100
AcDbEntity
  8
DRAW2
100
AcDbLine
 10
2153.279498969638
 20
750.5964833607738
 30
0.0
 11
2142.279498969638
 21
750.5964833607738
 31
0.0
  0
LINE
  5
834B
330
18
100
AcDbEntity
  8
DRAW2
100
AcDbLine
 10
2127.179561813308
 20
774.9790006092934
 30
0.0
 11
2137.179561813308
 21
774.9790006092934
 31
0.0
  0
LINE
  5
834C
330
18
100
AcDbEntity
  8
DRAW2
100
AcDbLine
 10
2119.654500004795
 20
771.4789395085704
 30
0.0
 11
2118.779530522373
 21
770.6039395085704
 31
0.0
  0
LINE
  5
834D
330
18
100
AcDbEntity
  8
DRAW3
100
AcDbLine
 10
2118.779500004794
 20
770.6039395085704
 30
0.0
 11
2127.179561813308
 21
770.6039395085704
 31
0.0
  0
LINE
  5
834E
330
18
100
AcDbEntity
  8
DRAW2
100
AcDbLine
 10
2119.654500004795
 20
771.4789395085704
 30
0.0
 11
2127.179561813308
 21
771.4789395085704
 31
0.0
  0
ARC
  5
834F
330
18
100
AcDbEntity
  8
DRAW2
100
AcDbCircle
 10
2131.279498969638
 20
768.6677733607738
 30
0.0
 40
8.0
100
AcDbArc
 50
52.08315086185592
 51
90.0
  0
LINE
  5
8350
330
18
100
AcDbEntity
  8
DRAW2
100
AcDbLine
 10
2137.179561813308
 20
776.2789884022621
 30
0.0
 11
2139.279500004794
 21
776.2789884022621
 31
0.0
  0
LINE
  5
8351
330
18
100
AcDbEntity
  8
DRAW2
100
AcDbLine
 10
2181.779529487217
 20
774.9789395085701
 30
0.0
 11
2181.779529487216
 21
755.9789395085702
 31
0.0
  0
ARC
  5
8352
330
18
100
AcDbEntity
  8
DRAW2
100
AcDbCircle
 10
2168.059924995029
 20
770.2289395085706
 30
0.0
 40
13.71960830688478
100
AcDbArc
 50
339.7437173131551
 51
20.256301356171
  0
LINE
  5
8353
330
18
100
AcDbEntity
  8
DRAW2
100
AcDbLine
 10
2173.779529487217
 20
775.9789395085704
 30
0.0
 11
2173.779529487216
 21
755.9789395085704
 31
0.0
  0
LINE
  5
8354
330
18
100
AcDbEntity
  8
DRAW2
100
AcDbLine
 10
2170.279529487217
 20
743.6677383607738
 30
0.0
 11
2171.279529487216
 21
744.6677383607737
 31
0.0
  0
LINE
  5
8355
330
18
100
AcDbEntity
  8
DRAW2
100
AcDbLine
 10
2181.779529487216
 20
755.9789395085702
 30
0.0
 11
2173.779529487216
 21
755.9789395085704
 31
0.0
  0
LINE
  5
8356
330
18
100
AcDbEntity
  8
DRAW2
100
AcDbLine
 10
2180.931022543192
 20
765.4789395085697
 30
0.0
 11
2173.779529487216
 21
765.4789395085704
 31
0.0
  0
LINE
  5
8357
330
18
100
AcDbEntity
  8
DRAW2
100
AcDbLine
 10
2173.779529487216
 20
754.9789395085704
 30
0.0
 11
2173.779529487216
 21
762.4252323115247
 31
0.0
  0
LINE
  5
8358
330
18
100
AcDbEntity
  8
DRAW2
100
AcDbLine
 10
2171.279529487216
 20
754.9789395085704
 30
0.0
 11
2173.779529487216
 21
754.9789395085704
 31
0.0
  0
ARC
  5
8359
330
18
100
AcDbEntity
  8
DRAW2
100
AcDbCircle
 10
2168.059924995028
 20
760.7289395085707
 30
0.0
 40
13.71960830688478
100
AcDbArc
 50
339.7437173131551
 51
20.256301356171
  0
LINE
  5
835A
330
18
100
AcDbEntity
  8
DRAW2
100
AcDbLine
 10
2181.779529487217
 20
774.9789395085701
 30
0.0
 11
2173.779529487217
 21
774.9789395085707
 31
0.0
  0
ARC
  5
835B
330
18
100
AcDbEntity
  8
DRAW2
100
AcDbCircle
 10
2173.279529487217
 20
787.6677383607739
 30
0.0
 40
2.0
100
AcDbArc
 50
270.0
 51
0.0
  0
ARC
  5
835C
330
18
100
AcDbEntity
  8
DRAW2
100
AcDbCircle
 10
2173.279529487217
 20
783.6677383607739
 30
0.0
 40
2.0
100
AcDbArc
 50
90.0
 51
180.0
  0
LINE
  5
835D
330
18
100
AcDbEntity
  8
DRAW2
100
AcDbLine
 10
2171.279529487216
 20
775.9789395085704
 30
0.0
 11
2173.779529487216
 21
775.9789395085704
 31
0.0
  0
LINE
  5
835E
330
18
100
AcDbEntity
  8
DRAW2
100
AcDbLine
 10
1996.182069524402
 20
969.1571170482829
 30
0.0
 11
2004.6820717418
 21
974.064594448283
 31
0.0
  0
ARC
  5
835F
330
18
100
AcDbEntity
  8
DRAW2
100
AcDbCircle
 10
2004.682063824402
 20
964.2496349482831
 30
0.0
 40
9.0
100
AcDbArc
 50
100.8118733546228
 51
139.1881148324057
  0
ARC
  5
8360
330
18
100
AcDbEntity
  8
DRAW2
100
AcDbCircle
 10
2004.682063824402
 20
964.2496349482831
 30
0.0
 40
9.0
100
AcDbArc
 50
40.811987653761
 51
79.1880143320699
  0
LINE
  5
8361
330
18
100
AcDbEntity
  8
DRAW2
100
AcDbLine
 10
2004.682072687988
 20
974.0645916482831
 30
0.0
 11
2013.182060924401
 21
969.1571213482829
 31
0.0
  0
ARC
  5
8362
330
18
100
AcDbEntity
  8
DRAW2
100
AcDbCircle
 10
1889.877034114875
 20
964.2496349482831
 30
0.0
 40
9.0
100
AcDbArc
 50
40.811987653761
 51
79.18801433207071
  0
ARC
  5
8363
330
18
100
AcDbEntity
  8
DRAW2
100
AcDbCircle
 10
1889.877034114875
 20
964.2496349482831
 30
0.0
 40
9.0
100
AcDbArc
 50
100.8118733546204
 51
139.1881148324057
  0
LINE
  5
8364
330
18
100
AcDbEntity
  8
DRAW2
100
AcDbLine
 10
1881.377039814875
 20
969.1571170482829
 30
0.0
 11
1889.877042032273
 21
974.064594448283
 31
0.0
  0
LINE
  5
8365
330
18
100
AcDbEntity
  8
DRAW2
100
AcDbLine
 10
1889.877042978461
 20
974.0645916482831
 30
0.0
 11
1898.377031214875
 21
969.1571213482829
 31
0.0
  0
CIRCLE
  5
8366
330
18
100
AcDbEntity
  8
DRAW2
100
AcDbCircle
 10
1889.877034114875
 20
964.2496349482831
 30
0.0
 40
8.500000999999999
  0
CIRCLE
  5
8368
330
18
100
AcDbEntity
  8
DRAW2
100
AcDbCircle
 10
2004.682063824402
 20
964.2496349482831
 30
0.0
 40
8.500000999999999
  0
LINE
  5
836A
330
18
100
AcDbEntity
  8
DRAW2
100
AcDbLine
 10
1912.749527660527
 20
831.1677050715898
 30
0.0
 11
1929.749527660527
 21
831.1677050715898
 31
0.0
  0
LINE
  5
836B
330
18
100
AcDbEntity
  8
DRAW2
100
AcDbLine
 10
1912.749527660527
 20
820.1677050715897
 30
0.0
 11
1929.749527660527
 21
820.1677050715897
 31
0.0
  0
LINE
  5
836C
330
18
100
AcDbEntity
  8
DRAW2
100
AcDbLine
 10
1912.749527660527
 20
820.1677050715897
 30
0.0
 11
1912.749527660527
 21
831.1677050715898
 31
0.0
  0
LINE
  5
836E
330
18
100
AcDbEntity
  8
DRAW2
100
AcDbLine
 10
1889.877046977487
 20
954.4346706482828
 30
0.0
 11
1898.377049414875
 21
959.3421485482831
 31
0.0
  0
ARC
  5
836F
330
18
100
AcDbEntity
  8
DRAW2
100
AcDbCircle
 10
1889.877034114875
 20
964.2496349482831
 30
0.0
 40
9.0
100
AcDbArc
 50
220.8116936954073
 51
259.1882999565256
  0
LINE
  5
8370
330
18
100
AcDbEntity
  8
DRAW2
100
AcDbLine
 10
1881.377044614875
 20
959.342161848283
 30
0.0
 11
1889.877059309681
 21
954.434675448283
 31
0.0
  0
LINE
  5
8371
330
18
100
AcDbEntity
  8
DRAW2
100
AcDbLine
 10
1881.377057014875
 20
959.3421652482829
 30
0.0
 11
1881.377057014875
 21
969.1571294482828
 31
0.0
  0
ARC
  5
8372
330
18
100
AcDbEntity
  8
DRAW2
100
AcDbCircle
 10
1889.877034114875
 20
964.2496349482831
 30
0.0
 40
9.0
100
AcDbArc
 50
160.8114199894652
 51
199.1885800105347
  0
ARC
  5
8374
330
18
100
AcDbEntity
  8
DRAW2
100
AcDbCircle
 10
1889.877034114875
 20
964.2496349482831
 30
0.0
 40
9.0
100
AcDbArc
 50
280.8121538808861
 51
319.1878380774342
  0
ARC
  5
8375
330
18
100
AcDbEntity
  8
DRAW2
100
AcDbCircle
 10
1889.877034114875
 20
964.2496349482831
 30
0.0
 40
9.0
100
AcDbArc
 50
340.8119739527819
 51
19.1880260472181
  0
LINE
  5
8376
330
18
100
AcDbEntity
  8
DRAW2
100
AcDbLine
 10
1898.377039814875
 20
959.3421480482829
 30
0.0
 11
1898.377039814875
 21
969.157112348283
 31
0.0
  0
ARC
  5
8377
330
18
100
AcDbEntity
  8
DRAW2
100
AcDbCircle
 10
1947.279548969638
 20
825.6677050715898
 30
0.0
 40
10.0
100
AcDbArc
 50
23.57817847820036
 51
156.4218215217996
  0
ARC
  5
8378
330
18
100
AcDbEntity
  8
DRAW2
100
AcDbCircle
 10
1947.279548969638
 20
825.6677050715898
 30
0.0
 40
10.0
100
AcDbArc
 50
203.5781784782003
 51
336.4218215217996
  0
LINE
  5
8379
330
18
100
AcDbEntity
  8
DRAW2
100
AcDbLine
 10
1930.779548969638
 20
829.6677050715898
 30
0.0
 11
1963.779548969638
 21
829.6677050715898
 31
0.0
  0
LINE
  5
837A
330
18
100
AcDbEntity
  8
DRAW2
100
AcDbLine
 10
1930.779548969638
 20
821.6677050715897
 30
0.0
 11
1963.779548969638
 21
821.6677050715897
 31
0.0
  0
LINE
  5
837B
330
18
100
AcDbEntity
  8
DRAW2
100
AcDbLine
 10
1932.279526129666
 20
834.3279195493215
 30
0.0
 11
1947.279526129632
 21
842.9882527073315
 31
0.0
  0
ARC
  5
837C
330
18
100
AcDbEntity
  8
DRAW2
100
AcDbCircle
 10
1930.779548969638
 20
825.6677050715898
 30
0.0
 40
4.0
100
AcDbArc
 50
90.0
 51
180.0
  0
LINE
  5
837D
330
18
100
AcDbEntity
  8
DRAW2
100
AcDbLine
 10
1924.749527660527
 20
820.1677050715897
 30
0.0
 11
1924.749527660527
 21
831.1677050715898
 31
0.0
  0
LINE
  5
837E
330
18
100
AcDbEntity
  8
DRAW2
100
AcDbLine
 10
1929.749527660527
 20
829.5328125866245
 30
0.0
 11
1929.749527660527
 21
831.1677050715898
 31
0.0
  0
LINE
  5
837F
330
18
100
AcDbEntity
  8
DRAW2
100
AcDbLine
 10
1932.279548969638
 20
817.0074510337453
 30
0.0
 11
1932.279542824304
 21
821.6677050715899
 31
0.0
  0
LINE
  5
8380
330
18
100
AcDbEntity
  8
DRAW2
100
AcDbLine
 10
1930.749527660527
 20
821.3368925715897
 30
0.0
 11
1931.312921599921
 21
820.7734986321959
 31
0.0
  0
LINE
  5
8381
330
18
100
AcDbEntity
  8
DRAW3
100
AcDbLine
 10
1930.749527660527
 20
821.3368925715897
 30
0.0
 11
1932.279543197487
 21
821.3847055571198
 31
0.0
  0
LINE
  5
8382
330
18
100
AcDbEntity
  8
DRAW2
100
AcDbLine
 10
1926.779548969638
 20
825.6677050715898
 30
0.0
 11
1926.779548969638
 21
825.6677050715898
 31
0.0
  0
ARC
  5
8383
330
18
100
AcDbEntity
  8
DRAW2
100
AcDbCircle
 10
1930.779548969638
 20
825.6677050715898
 30
0.0
 40
4.0
100
AcDbArc
 50
180.0
 51
270.0
  0
LINE
  5
8384
330
18
100
AcDbEntity
  8
DRAW3
100
AcDbLine
 10
1924.749527660527
 20
829.4177050715898
 30
0.0
 11
1929.387607878931
 21
829.4177050715898
 31
0.0
  0
LINE
  5
8385
330
18
100
AcDbEntity
  8
DRAW3
100
AcDbLine
 10
1924.749527660527
 20
828.6677050715898
 30
0.0
 11
1928.133797658574
 21
828.6677050715898
 31
0.0
  0
LINE
  5
8386
330
18
100
AcDbEntity
  8
DRAW3
100
AcDbLine
 10
1924.749527660527
 20
827.9177050715897
 30
0.0
 11
1927.472359830807
 21
827.9177050715897
 31
0.0
  0
LINE
  5
8387
330
18
100
AcDbEntity
  8
DRAW3
100
AcDbLine
 10
1924.749527660527
 20
827.1677050715897
 30
0.0
 11
1927.07144972609
 21
827.1677050715897
 31
0.0
  0
LINE
  5
8388
330
18
100
AcDbEntity
  8
DRAW3
100
AcDbLine
 10
1924.749527660527
 20
826.4177050715897
 30
0.0
 11
1926.850490558263
 21
826.4177050715897
 31
0.0
  0
LINE
  5
8389
330
18
100
AcDbEntity
  8
DRAW3
100
AcDbLine
 10
1924.749527660527
 20
820.4177050715898
 30
0.0
 11
1929.749527660527
 21
820.4177050715898
 31
0.0
  0
LINE
  5
838A
330
18
100
AcDbEntity
  8
DRAW3
100
AcDbLine
 10
1924.749527660527
 20
821.1677050715898
 30
0.0
 11
1929.749527660527
 21
821.1677050715898
 31
0.0
  0
LINE
  5
838B
330
18
100
AcDbEntity
  8
DRAW3
100
AcDbLine
 10
1924.749527660527
 20
821.9177050715897
 30
0.0
 11
1929.387607878931
 21
821.9177050715897
 31
0.0
  0
LINE
  5
838C
330
18
100
AcDbEntity
  8
DRAW3
100
AcDbLine
 10
1924.749527660527
 20
822.6677050715897
 30
0.0
 11
1928.133797658574
 21
822.6677050715897
 31
0.0
  0
LINE
  5
838D
330
18
100
AcDbEntity
  8
DRAW3
100
AcDbLine
 10
1924.749527660527
 20
823.4177050715898
 30
0.0
 11
1927.472359830807
 21
823.4177050715898
 31
0.0
  0
LINE
  5
838E
330
18
100
AcDbEntity
  8
DRAW3
100
AcDbLine
 10
1924.749527660527
 20
824.1677050715898
 30
0.0
 11
1927.07144972609
 21
824.1677050715898
 31
0.0
  0
LINE
  5
838F
330
18
100
AcDbEntity
  8
DRAW3
100
AcDbLine
 10
1924.749527660527
 20
824.9177050715898
 30
0.0
 11
1926.850490558263
 21
824.9177050715898
 31
0.0
  0
LINE
  5
8390
330
18
100
AcDbEntity
  8
DRAW2
100
AcDbLine
 10
1930.749527660527
 20
821.3368925715897
 30
0.0
 11
1930.749527660527
 21
821.6678177330514
 31
0.0
  0
LINE
  5
8391
330
18
100
AcDbEntity
  8
DRAW2
100
AcDbLine
 10
1930.749527660527
 20
821.6677050715897
 30
0.0
 11
1929.749527660527
 21
821.6677050715897
 31
0.0
  0
LINE
  5
8392
330
18
100
AcDbEntity
  8
DRAW2
100
AcDbLine
 10
1929.749527660527
 20
820.1677050715897
 30
0.0
 11
1929.749527660527
 21
821.802597556555
 31
0.0
  0
LINE
  5
8393
330
18
100
AcDbEntity
  8
DRAW2
100
AcDbLine
 10
1931.312921599921
 20
820.7734986321959
 30
0.0
 11
1931.312921599921
 21
821.6677050715899
 31
0.0
  0
LINE
  5
8394
330
18
100
AcDbEntity
  8
DRAW2
100
AcDbLine
 10
1931.312921599921
 20
820.7734986321959
 30
0.0
 11
1932.279543963633
 21
820.8037055810619
 31
0.0
  0
LINE
  5
8395
330
18
100
AcDbEntity
  8
DRAW2
100
AcDbLine
 10
1930.749527660527
 20
829.9985175715899
 30
0.0
 11
1931.312921599921
 21
830.5619115109836
 31
0.0
  0
LINE
  5
8396
330
18
100
AcDbEntity
  8
DRAW3
100
AcDbLine
 10
1930.749527660527
 20
829.9985175715899
 30
0.0
 11
1932.279531901765
 21
829.9507049390511
 31
0.0
  0
LINE
  5
8397
330
18
100
AcDbEntity
  8
DRAW3
100
AcDbLine
 10
1924.749527660527
 20
830.9177050715899
 30
0.0
 11
1929.749527660527
 21
830.9177050715899
 31
0.0
  0
LINE
  5
8398
330
18
100
AcDbEntity
  8
DRAW3
100
AcDbLine
 10
1924.749527660527
 20
830.1677050715898
 30
0.0
 11
1929.749527660527
 21
830.1677050715898
 31
0.0
  0
LINE
  5
8399
330
18
100
AcDbEntity
  8
DRAW2
100
AcDbLine
 10
1930.749527660527
 20
829.6677050715898
 30
0.0
 11
1929.749527660527
 21
829.6677050715898
 31
0.0
  0
LINE
  5
839A
330
18
100
AcDbEntity
  8
DRAW3
100
AcDbLine
 10
1929.749527660527
 20
830.0461505796654
 30
0.0
 11
1929.779527660527
 21
830.0288300715896
 31
0.0
  0
LINE
  5
839B
330
18
100
AcDbEntity
  8
DRAW2
100
AcDbLine
 10
1930.749527660527
 20
829.6675924101281
 30
0.0
 11
1930.749527660527
 21
829.9985175715899
 31
0.0
  0
ARC
  5
839C
330
18
100
AcDbEntity
  8
DRAW2
100
AcDbCircle
 10
1947.279548969638
 20
825.6677050715898
 30
0.0
 40
17.32050807568884
100
AcDbArc
 50
149.9998488916121
 51
150.0001511083835
  0
LINE
  5
839D
330
18
100
AcDbEntity
  8
DRAW2
100
AcDbLine
 10
1932.279532274948
 20
829.6677050715898
 30
0.0
 11
1932.279526129666
 21
834.3279195493215
 31
0.0
  0
LINE
  5
839E
330
18
100
AcDbEntity
  8
DRAW2
100
AcDbLine
 10
1931.312921599921
 20
830.5619115109836
 30
0.0
 11
1932.279531135618
 21
830.5317049629932
 31
0.0
  0
LINE
  5
839F
330
18
100
AcDbEntity
  8
DRAW2
100
AcDbLine
 10
1931.312921599921
 20
829.6677050715898
 30
0.0
 11
1931.312921599921
 21
830.5619115109836
 31
0.0
  0
ARC
  5
83A0
330
18
100
AcDbEntity
  8
DRAW2
100
AcDbCircle
 10
1963.779548969638
 20
825.6677050715898
 30
0.0
 40
4.0
100
AcDbArc
 50
0.0
 51
90.0
  0
LINE
  5
83A2
330
18
100
AcDbEntity
  8
DRAW2
100
AcDbLine
 10
1962.279542824304
 20
821.6677050715897
 30
0.0
 11
1962.279548969639
 21
817.0074510337455
 31
0.0
  0
ARC
  5
83A3
330
18
100
AcDbEntity
  8
DRAW2
100
AcDbCircle
 10
1963.779548969638
 20
825.6677050715898
 30
0.0
 40
4.0
100
AcDbArc
 50
270.0
 51
0.0
  0
LINE
  5
83A4
330
18
100
AcDbEntity
  8
DRAW2
100
AcDbLine
 10
1967.779548969638
 20
825.6677050715898
 30
0.0
 11
1967.779548969638
 21
825.6677050715898
 31
0.0
  0
LINE
  5
83A5
330
18
100
AcDbEntity
  8
DRAW2
100
AcDbLine
 10
1947.279526129632
 20
842.9882527073315
 30
0.0
 11
1962.279526129562
 21
834.327998669487
 31
0.0
  0
ARC
  5
83A6
330
18
100
AcDbEntity
  8
DRAW2
100
AcDbCircle
 10
1947.279548969638
 20
825.6677050715898
 30
0.0
 40
17.32050807568884
100
AcDbArc
 50
89.99984889138257
 51
90.00030221585069
  0
LINE
  5
83A7
330
18
100
AcDbEntity
  8
DRAW2
100
AcDbLine
 10
1962.279526129562
 20
834.327998669487
 30
0.0
 11
1962.279532274949
 21
829.6677050715896
 31
0.0
  0
ARC
  5
83A9
330
18
100
AcDbEntity
  8
DRAW2
100
AcDbCircle
 10
2004.682063824402
 20
964.2496349482831
 30
0.0
 40
9.0
100
AcDbArc
 50
280.8121538808861
 51
319.1878380774342
  0
LINE
  5
83AA
330
18
100
AcDbEntity
  8
DRAW2
100
AcDbLine
 10
2004.682076687014
 20
954.4346706482828
 30
0.0
 11
2013.182079124402
 21
959.3421485482831
 31
0.0
  0
LINE
  5
83AB
330
18
100
AcDbEntity
  8
DRAW2
100
AcDbLine
 10
1996.182086724402
 20
959.3421652482829
 30
0.0
 11
1996.182086724402
 21
969.1571294482828
 31
0.0
  0
ARC
  5
83AC
330
18
100
AcDbEntity
  8
DRAW2
100
AcDbCircle
 10
2004.682063824402
 20
964.2496349482831
 30
0.0
 40
9.0
100
AcDbArc
 50
160.8114199894652
 51
199.1885800105347
  0
LINE
  5
83AE
330
18
100
AcDbEntity
  8
DRAW2
100
AcDbLine
 10
1996.182074324402
 20
959.342161848283
 30
0.0
 11
2004.682089019208
 21
954.434675448283
 31
0.0
  0
ARC
  5
83AF
330
18
100
AcDbEntity
  8
DRAW2
100
AcDbCircle
 10
2004.682063824402
 20
964.2496349482831
 30
0.0
 40
9.0
100
AcDbArc
 50
220.8116936954073
 51
259.188299956524
  0
ARC
  5
83B0
330
18
100
AcDbEntity
  8
DRAW2
100
AcDbCircle
 10
2004.682063824402
 20
964.2496349482831
 30
0.0
 40
9.0
100
AcDbArc
 50
340.8119739527819
 51
19.1880260472181
  0
LINE
  5
83B1
330
18
100
AcDbEntity
  8
DRAW2
100
AcDbLine
 10
2013.182069524402
 20
959.3421480482829
 30
0.0
 11
2013.182069524402
 21
969.157112348283
 31
0.0
  0
LINE
  5
83B2
330
18
100
AcDbEntity
  8
DRAW2
100
AcDbLine
 10
2112.579508969639
 20
874.6677733607738
 30
0.0
 11
2131.279498969638
 21
874.6677733607738
 31
0.0
  0
ARC
  5
83B4
330
18
100
AcDbEntity
  8
DRAW2
100
AcDbCircle
 10
2085.861478846332
 20
883.070219926353
 30
0.0
 40
9.0
100
AcDbArc
 50
40.81198765375261
 51
79.1880143320719
  0
ARC
  5
83B5
330
18
100
AcDbEntity
  8
DRAW2
100
AcDbCircle
 10
2085.861478846332
 20
883.070219926353
 30
0.0
 40
9.0
100
AcDbArc
 50
100.8118733546204
 51
139.1881148324057
  0
LINE
  5
83B6
330
18
100
AcDbEntity
  8
DRAW2
100
AcDbLine
 10
2077.361484546331
 20
887.9777020263528
 30
0.0
 11
2085.861486763729
 21
892.8851794263527
 31
0.0
  0
LINE
  5
83B8
330
18
100
AcDbEntity
  8
DRAW2
100
AcDbLine
 10
2085.861487709918
 20
892.8851766263528
 30
0.0
 11
2094.361475946331
 21
887.9777063263528
 31
0.0
  0
CIRCLE
  5
83B9
330
18
100
AcDbEntity
  8
DRAW2
100
AcDbCircle
 10
2085.861478846332
 20
883.0702199263528
 30
0.0
 40
8.500000999999999
  0
LINE
  5
83BA
330
18
100
AcDbEntity
  8
DRAW2
100
AcDbLine
 10
2077.929538969638
 20
817.1677177097164
 30
0.0
 11
2105.929538969638
 21
817.1677177097164
 31
0.0
  0
LINE
  5
83BB
330
18
100
AcDbEntity
  8
DRAW2
100
AcDbLine
 10
2078.688669271513
 20
825.6677177097163
 30
0.0
 11
2105.170381469693
 21
825.6677177097163
 31
0.0
  0
LINE
  5
83BC
330
18
100
AcDbEntity
  8
DRAW2
100
AcDbLine
 10
2077.929538969639
 20
834.167717709716
 30
0.0
 11
2105.929538969638
 21
834.167717709716
 31
0.0
  0
LINE
  5
83BD
330
18
100
AcDbEntity
  8
DRAW2
100
AcDbLine
 10
2073.979558969639
 20
817.221087709716
 30
0.0
 11
2073.979558969639
 21
834.11431363388
 31
0.0
  0
LINE
  5
83BE
330
18
100
AcDbEntity
  8
DRAW2
100
AcDbLine
 10
2077.929538969639
 20
834.167717709716
 30
0.0
 11
2077.929538969638
 21
817.1677177097164
 31
0.0
  0
ARC
  5
83BF
330
18
100
AcDbEntity
  8
DRAW2
100
AcDbCircle
 10
2090.205941827741
 20
829.9177177097162
 30
0.0
 40
12.27640285810306
100
AcDbArc
 50
159.7453856151085
 51
200.2546143848914
  0
LINE
  5
83C0
330
18
100
AcDbEntity
  8
DRAW3
100
AcDbLine
 10
2075.547798969638
 20
817.1720777097162
 30
0.0
 11
2073.979558969639
 21
818.0775077097163
 31
0.0
  0
LINE
  5
83C1
330
18
100
AcDbEntity
  8
DRAW2
100
AcDbLine
 10
2075.547798969638
 20
817.1720777097162
 30
0.0
 11
2069.94934601128
 21
817.3470327873589
 31
0.0
  0
LINE
  5
83C2
330
18
100
AcDbEntity
  8
DRAW3
100
AcDbLine
 10
2073.979558969639
 20
818.0775077097163
 30
0.0
 11
2070.013759201538
 21
818.2014337732635
 31
0.0
  0
ARC
  5
83C3
330
18
100
AcDbEntity
  8
DRAW2
100
AcDbCircle
 10
2090.205941827741
 20
821.4177177097164
 30
0.0
 40
12.2764028581025
100
AcDbArc
 50
159.7453856151085
 51
200.2546143848914
  0
LINE
  5
83C4
330
18
100
AcDbEntity
  8
DRAW2
100
AcDbLine
 10
2075.547798969638
 20
817.1720777097162
 30
0.0
 11
2077.929538969638
 21
817.1720777097162
 31
0.0
  0
LINE
  5
83C5
330
18
100
AcDbEntity
  8
DRAW3
100
AcDbLine
 10
2075.547798969638
 20
834.1633477097161
 30
0.0
 11
2073.979558969639
 21
833.2579277097162
 31
0.0
  0
LINE
  5
83C6
330
18
100
AcDbEntity
  8
DRAW2
100
AcDbLine
 10
2075.547798969638
 20
834.1633177097161
 30
0.0
 11
2069.9493459381
 21
833.9883782763878
 31
0.0
  0
LINE
  5
83C7
330
18
100
AcDbEntity
  8
DRAW3
100
AcDbLine
 10
2073.979558969639
 20
833.2579277097162
 30
0.0
 11
2070.013757710647
 21
833.1339972835765
 31
0.0
  0
LINE
  5
83C8
330
18
100
AcDbEntity
  8
DRAW2
100
AcDbLine
 10
2075.547798969638
 20
834.1633477097161
 30
0.0
 11
2077.929538969638
 21
834.1633477097161
 31
0.0
  0
LINE
  5
83C9
330
18
100
AcDbEntity
  8
DRAW2
100
AcDbLine
 10
2105.929538969638
 20
834.167717709716
 30
0.0
 11
2105.929538969638
 21
817.1677177097164
 31
0.0
  0
ARC
  5
83CA
330
18
100
AcDbEntity
  8
DRAW2
100
AcDbCircle
 10
2093.653548736346
 20
829.9177177097162
 30
0.0
 40
12.27599023329243
100
AcDbArc
 50
339.7446749553648
 51
20.25532504463508
  0
ARC
  5
83CB
330
18
100
AcDbEntity
  8
DRAW2
100
AcDbCircle
 10
2093.653548736345
 20
821.4177177097164
 30
0.0
 40
12.27599023329306
100
AcDbArc
 50
339.7446749553648
 51
20.25532504463508
  0
LINE
  5
83CD
330
18
100
AcDbEntity
  8
DRAW2
100
AcDbLine
 10
2085.861491708944
 20
873.2552556263529
 30
0.0
 11
2094.361494146331
 21
878.1627335263529
 31
0.0
  0
LINE
  5
83CE
330
18
100
AcDbEntity
  8
DRAW2
100
AcDbLine
 10
2077.361489346331
 20
878.1627468263527
 30
0.0
 11
2085.861504041138
 21
873.2552604263528
 31
0.0
  0
ARC
  5
83CF
330
18
100
AcDbEntity
  8
DRAW2
100
AcDbCircle
 10
2085.861478846332
 20
883.070219926353
 30
0.0
 40
9.0
100
AcDbArc
 50
220.8116936954073
 51
259.188299956524
  0
LINE
  5
83D0
330
18
100
AcDbEntity
  8
DRAW2
100
AcDbLine
 10
2077.361501746331
 20
878.1627502263527
 30
0.0
 11
2077.361501746331
 21
887.9777144263528
 31
0.0
  0
ARC
  5
83D1
330
18
100
AcDbEntity
  8
DRAW2
100
AcDbCircle
 10
2085.861478846332
 20
883.070219926353
 30
0.0
 40
9.0
100
AcDbArc
 50
160.8114199894652
 51
202.4999999999987
  0
ARC
  5
83D2
330
18
100
AcDbEntity
  8
DRAW2
100
AcDbCircle
 10
2085.861478846332
 20
883.070219926353
 30
0.0
 40
9.0
100
AcDbArc
 50
280.8121538808894
 51
319.1878380774259
  0
ARC
  5
83D4
330
18
100
AcDbEntity
  8
DRAW2
100
AcDbCircle
 10
2112.579508969639
 20
825.6677133607738
 30
0.0
 40
48.99999600000001
100
AcDbArc
 50
90.0
 51
99.8498304188404
  0
ARC
  5
83D5
330
18
100
AcDbEntity
  8
DRAW2
100
AcDbCircle
 10
2085.861478846332
 20
883.070219926353
 30
0.0
 40
9.0
100
AcDbArc
 50
340.8119739527819
 51
22.49999999999881
  0
LINE
  5
83D6
330
18
100
AcDbEntity
  8
DRAW2
100
AcDbLine
 10
2094.361484546331
 20
878.1627330263527
 30
0.0
 11
2094.361484546331
 21
887.9776973263529
 31
0.0
  0
LINE
  5
83D7
330
18
100
AcDbEntity
  8
DRAW2
100
AcDbLine
 10
2181.779529487217
 20
895.3564706346103
 30
0.0
 11
2181.779529487216
 21
876.3564706346103
 31
0.0
  0
ARC
  5
83D8
330
18
100
AcDbEntity
  8
DRAW2
100
AcDbCircle
 10
2168.059924995029
 20
890.6064706346107
 30
0.0
 40
13.71960830688478
100
AcDbArc
 50
339.7437173131551
 51
20.256301356171
  0
LINE
  5
83D9
330
18
100
AcDbEntity
  8
DRAW2
100
AcDbLine
 10
2173.779529487217
 20
896.3564706346105
 30
0.0
 11
2173.779529487216
 21
876.3564706346105
 31
0.0
  0
LINE
  5
83DA
330
18
100
AcDbEntity
  8
DRAW2
100
AcDbLine
 10
2137.179561813308
 20
875.0565439423647
 30
0.0
 11
2137.179561813308
 21
896.6565195283022
 31
0.0
  0
LINE
  5
83DB
330
18
100
AcDbEntity
  8
DRAW2
100
AcDbLine
 10
2118.779500004794
 20
880.7314706346105
 30
0.0
 11
2118.779500004794
 21
890.9814706346105
 31
0.0
  0
LINE
  5
83DC
330
18
100
AcDbEntity
  8
DRAW2
100
AcDbLine
 10
2119.654500004795
 20
879.8564706346105
 30
0.0
 11
2119.654500004795
 21
891.8564706346105
 31
0.0
  0
ARC
  5
83DD
330
18
100
AcDbEntity
  8
DRAW2
100
AcDbCircle
 10
2140.899166305496
 20
890.6065317353336
 30
0.0
 40
13.71960830688477
100
AcDbArc
 50
159.7437173131621
 51
200.2563013561711
  0
LINE
  5
83DE
330
18
100
AcDbEntity
  8
DRAW2
100
AcDbLine
 10
2127.179561813308
 20
876.3565317353336
 30
0.0
 11
2127.179561813308
 21
895.3565317353335
 31
0.0
  0
LINE
  5
83E0
330
18
100
AcDbEntity
  8
DRAW2
100
AcDbLine
 10
2127.179561813308
 20
876.3565317353336
 30
0.0
 11
2137.179561813308
 21
876.3565317353336
 31
0.0
  0
LINE
  5
83E1
330
18
100
AcDbEntity
  8
DRAW2
100
AcDbLine
 10
2128.028069437009
 20
885.8565335770595
 30
0.0
 11
2137.179561813308
 21
885.8565317353335
 31
0.0
  0
LINE
  5
83E2
330
18
100
AcDbEntity
  8
DRAW2
100
AcDbLine
 10
2119.654500004795
 20
879.8564706346105
 30
0.0
 11
2118.779500004794
 21
880.7314706346105
 31
0.0
  0
LINE
  5
83E3
330
18
100
AcDbEntity
  8
DRAW2
100
AcDbLine
 10
2119.654500004795
 20
879.8564706346105
 30
0.0
 11
2127.179561813308
 21
879.8564706346105
 31
0.0
  0
LINE
  5
83E4
330
18
100
AcDbEntity
  8
DRAW3
100
AcDbLine
 10
2118.779500004794
 20
880.7314706346105
 30
0.0
 11
2127.179561813308
 21
880.7314706346105
 31
0.0
  0
ARC
  5
83E5
330
18
100
AcDbEntity
  8
DRAW2
100
AcDbCircle
 10
2140.899166305496
 20
881.1065317353335
 30
0.0
 40
13.71960830688477
100
AcDbArc
 50
159.7437173131621
 51
200.2563013561711
  0
ARC
  5
83E6
330
18
100
AcDbEntity
  8
DRAW2
100
AcDbCircle
 10
2131.279498969638
 20
882.6677733607736
 30
0.0
 40
8.0
100
AcDbArc
 50
269.999989999999
 51
307.9166815801046
  0
LINE
  5
83E7
330
18
100
AcDbEntity
  8
DRAW2
100
AcDbLine
 10
2137.179561813308
 20
875.0565439423647
 30
0.0
 11
2139.279500004794
 21
875.0565439423647
 31
0.0
  0
LINE
  5
83E8
330
18
100
AcDbEntity
  8
DRAW2
100
AcDbLine
 10
2139.279561813308
 20
885.6064395994566
 30
0.0
 11
2137.179561813308
 21
885.6064395994566
 31
0.0
  0
LINE
  5
83E9
330
18
100
AcDbEntity
  8
DRAW2
100
AcDbLine
 10
2139.279561813308
 20
886.1064395994567
 30
0.0
 11
2137.179561813308
 21
886.1064395994567
 31
0.0
  0
LINE
  5
83EA
330
18
100
AcDbEntity
  8
DRAW2
100
AcDbLine
 10
2181.779529487217
 20
835.1677383607736
 30
0.0
 11
2181.779529487216
 21
816.1677383607736
 31
0.0
  0
ARC
  5
83EB
330
18
100
AcDbEntity
  8
DRAW2
100
AcDbCircle
 10
2168.059924995029
 20
830.4177383607742
 30
0.0
 40
13.71960830688478
100
AcDbArc
 50
339.7437173131551
 51
20.256301356171
  0
LINE
  5
83EC
330
18
100
AcDbEntity
  8
DRAW2
100
AcDbLine
 10
2181.779529487216
 20
816.1677383607736
 30
0.0
 11
2175.279529487216
 21
816.1677383607738
 31
0.0
  0
LINE
  5
83ED
330
18
100
AcDbEntity
  8
DRAW2
100
AcDbLine
 10
2180.931022543192
 20
825.6677383607732
 30
0.0
 11
2175.279529487216
 21
825.6677383607739
 31
0.0
  0
ARC
  5
83EE
330
18
100
AcDbEntity
  8
DRAW2
100
AcDbCircle
 10
2168.059924995028
 20
820.9177383607741
 30
0.0
 40
13.71960830688478
100
AcDbArc
 50
339.7437173131551
 51
20.256301356171
  0
LINE
  5
83EF
330
18
100
AcDbEntity
  8
DRAW2
100
AcDbLine
 10
2181.779529487217
 20
835.1677383607736
 30
0.0
 11
2175.279529487216
 21
835.1677383607739
 31
0.0
  0
ARC
  5
83F0
330
18
100
AcDbEntity
  8
DRAW2
100
AcDbCircle
 10
2173.279529487217
 20
863.6677383607738
 30
0.0
 40
2.0
100
AcDbArc
 50
0.0
 51
90.0
  0
ARC
  5
83F1
330
18
100
AcDbEntity
  8
DRAW2
100
AcDbCircle
 10
2173.279529487217
 20
867.6677383607737
 30
0.0
 40
2.0
100
AcDbArc
 50
180.0
 51
270.0
  0
LINE
  5
83F2
330
18
100
AcDbEntity
  8
DRAW2
100
AcDbLine
 10
2181.779529487216
 20
876.3564706346103
 30
0.0
 11
2173.779529487216
 21
876.3564706346105
 31
0.0
  0
LINE
  5
83F3
330
18
100
AcDbEntity
  8
DRAW2
100
AcDbLine
 10
2180.931022543192
 20
885.8564706346099
 30
0.0
 11
2173.779529487216
 21
885.8564706346106
 31
0.0
  0
LINE
  5
83F4
330
18
100
AcDbEntity
  8
DRAW2
100
AcDbLine
 10
2173.779529487216
 20
875.3564706346105
 30
0.0
 11
2173.779529487216
 21
882.8027634375649
 31
0.0
  0
LINE
  5
83F5
330
18
100
AcDbEntity
  8
DRAW2
100
AcDbLine
 10
2171.279529487216
 20
875.3564706346105
 30
0.0
 11
2173.779529487216
 21
875.3564706346105
 31
0.0
  0
ARC
  5
83F6
330
18
100
AcDbEntity
  8
DRAW2
100
AcDbCircle
 10
2168.059924995028
 20
881.1064706346108
 30
0.0
 40
13.71960830688478
100
AcDbArc
 50
339.7437173131551
 51
20.256301356171
  0
LINE
  5
83F7
330
18
100
AcDbEntity
  8
DRAW2
100
AcDbLine
 10
2154.279498969639
 20
907.6677383607739
 30
0.0
 11
2170.279529487217
 21
907.6677383607739
 31
0.0
  0
ARC
  5
83F8
330
18
100
AcDbEntity
  8
DRAW2
100
AcDbCircle
 10
2142.279498969638
 20
897.7389933607737
 30
0.0
 40
3.0
100
AcDbArc
 50
90.0
 51
180.0000030000042
  0
LINE
  5
83F9
330
18
100
AcDbEntity
  8
DRAW2
100
AcDbLine
 10
2127.179561813308
 20
895.3565317353335
 30
0.0
 11
2137.179561813308
 21
895.3565317353335
 31
0.0
  0
LINE
  5
83FA
330
18
100
AcDbEntity
  8
DRAW2
100
AcDbLine
 10
2119.654500004795
 20
891.8564706346105
 30
0.0
 11
2118.779530522373
 21
890.9814706346105
 31
0.0
  0
LINE
  5
83FB
330
18
100
AcDbEntity
  8
DRAW3
100
AcDbLine
 10
2118.779500004794
 20
890.9814706346105
 30
0.0
 11
2127.179561813308
 21
890.9814706346105
 31
0.0
  0
LINE
  5
83FC
330
18
100
AcDbEntity
  8
DRAW2
100
AcDbLine
 10
2119.654500004795
 20
891.8564706346105
 30
0.0
 11
2127.179561813308
 21
891.8564706346105
 31
0.0
  0
LINE
  5
83FD
330
18
100
AcDbEntity
  8
DRAW2
100
AcDbLine
 10
2137.179561813308
 20
896.6565195283022
 30
0.0
 11
2139.279500004794
 21
896.6565195283022
 31
0.0
  0
LINE
  5
83FE
330
18
100
AcDbEntity
  8
DRAW2
100
AcDbLine
 10
2153.279498969639
 20
906.6677383607739
 30
0.0
 11
2154.279498969639
 21
907.6677383607739
 31
0.0
  0
LINE
  5
83FF
330
18
100
AcDbEntity
  8
DRAW2
100
AcDbLine
 10
2153.279498969638
 20
900.7389933607738
 30
0.0
 11
2142.279498969638
 21
900.7389933607738
 31
0.0
  0
LINE
  5
8400
330
18
100
AcDbEntity
  8
DRAW2
100
AcDbLine
 10
2181.779529487217
 20
895.3564706346103
 30
0.0
 11
2173.779529487217
 21
895.3564706346108
 31
0.0
  0
LINE
  5
8401
330
18
100
AcDbEntity
  8
DRAW2
100
AcDbLine
 10
2171.279529487216
 20
906.6677383607739
 30
0.0
 11
2170.279529487217
 21
907.6677383607739
 31
0.0
  0
LINE
  5
8402
330
18
100
AcDbEntity
  8
DRAW2
100
AcDbLine
 10
2171.279529487216
 20
896.3564706346105
 30
0.0
 11
2173.779529487216
 21
896.3564706346105
 31
0.0
  0
ARC
  5
8404
330
18
100
AcDbEntity
  8
DRAW2
100
AcDbCircle
 10
2525.033024327854
 20
486.8856370872418
 30
0.0
 40
4.0
100
AcDbArc
 50
359.9999999999983
 51
180.0000000000016
  0
LINE
  5
8405
330
18
100
AcDbEntity
  8
DRAW2
100
AcDbLine
 10
2529.033024327853
 20
486.8856370872416
 30
0.0
 11
2529.033024327854
 21
459.7727470872415
 31
0.0
  0
LINE
  5
8406
330
18
100
AcDbEntity
  8
DRAW2
100
AcDbLine
 10
2521.033024327854
 20
486.8856370872416
 30
0.0
 11
2521.033024327853
 21
459.7727470872415
 31
0.0
  0
CIRCLE
  5
8409
330
18
100
AcDbEntity
  8
DRAW2
100
AcDbCircle
 10
2525.033024327854
 20
182.3856270872417
 30
0.0
 40
82.0
  0
LINE
  5
840B
330
18
100
AcDbEntity
  8
DRAW2
100
AcDbLine
 10
2648.033084327853
 20
375.3856370872416
 30
0.0
 11
2402.033024327853
 21
375.3856370872416
 31
0.0
  0
LINE
  5
840C
330
18
100
AcDbEntity
  8
DRAW2
100
AcDbLine
 10
2643.033024327853
 20
423.3856370872416
 30
0.0
 11
2407.032994327854
 21
423.3856370872416
 31
0.0
  0
LINE
  5
840D
330
18
100
AcDbEntity
  8
DRAW2
100
AcDbLine
 10
2648.033024327853
 20
418.3856370872416
 30
0.0
 11
2402.032994327853
 21
418.3856370872416
 31
0.0
  0
LWPOLYLINE
  5
840E
330
18
100
AcDbEntity
  8
DRAW2
100
AcDbPolyline
 90
        7
 70
     0
 43
0.0
 10
2604.913387438893
 20
200.9093305303582
 42
0.023310624710825
 10
2606.496114327853
 20
209.2819230872415
 42
0.00097192253
 10
2606.540424327853
 20
209.6004000872416
 42
0.00087386982
 10
2606.583744327853
 20
209.9204670872414
 42
0.00089538112
 10
2606.625974327853
 20
210.2409400872415
 42
0.00090183028
 10
2606.667184327854
 20
210.5625470872415
 42
0.00088751532
 10
2606.707134327853
 20
210.8834640872415
  0
LWPOLYLINE
  5
840F
330
18
100
AcDbEntity
  8
DRAW2
100
AcDbPolyline
 90
        3
 70
     0
 43
0.0
 10
2617.620364327853
 20
159.8507470872415
 42
-0.0056061594
 10
2609.947234327853
 20
157.9077970872416
 42
-0.0052210043589884
 10
2602.757086581215
 20
156.2519295525353
 42
-0.0052210043589884
  0
LWPOLYLINE
  5
8410
330
18
100
AcDbEntity
  8
DRAW2
100
AcDbPolyline
 90
        3
 70
     0
 43
0.0
 10
2619.856684327853
 20
152.1420970872414
 42
-0.009790901
 10
2606.120214327853
 20
148.7780370872416
 42
-0.0049428582720824
 10
2599.140779346087
 20
147.2851905350075
 42
-0.0049428582720824
  0
LWPOLYLINE
  5
8411
330
18
100
AcDbEntity
  8
DRAW2
100
AcDbPolyline
 90
        3
 70
     0
 43
0.0
 10
2621.067994327853
 20
152.1420970872414
 42
-0.010445415
 10
2606.406734327853
 20
148.5033570872416
 42
-0.0052715363263282
 10
2598.95769643308
 20
146.9012241172801
 42
-0.0052715363263282
  0
LINE
  5
8412
330
18
100
AcDbEntity
  8
DRAW2
100
AcDbLine
 10
2686.033084327853
 20
249.3856570872415
 30
0.0
 11
2572.308768425637
 21
249.3856570872415
 31
0.0
  0
LINE
  5
8413
330
18
100
AcDbEntity
  8
DRAW2
100
AcDbLine
 10
2590.783047202731
 20
231.3849586332244
 30
0.0
 11
2687.033061065037
 21
231.3856070872882
 31
0.0
  0
LINE
  5
8414
330
18
100
AcDbEntity
  8
DRAW2
100
AcDbLine
 10
2601.920931231345
 20
210.8856230872414
 30
0.0
 11
2687.317028500845
 21
210.8856230872414
 31
0.0
  0
LINE
  5
8415
330
18
100
AcDbEntity
  8
DRAW2
100
AcDbLine
 10
2591.152234849456
 20
230.8856270872416
 30
0.0
 11
2687.268846309828
 21
230.8856270872416
 31
0.0
  0
LINE
  5
8416
330
18
100
AcDbEntity
  8
DRAW2
100
AcDbLine
 10
2688.321183580439
 20
229.886997621371
 30
0.0
 11
2591.873280142589
 21
229.886997621371
 31
0.0
  0
LINE
  5
8417
330
18
100
AcDbEntity
  8
DRAW2
100
AcDbLine
 10
2689.212353959625
 20
212.8828820189827
 30
0.0
 11
2601.150810959024
 21
212.8828820189827
 31
0.0
  0
CIRCLE
  5
8419
330
18
100
AcDbEntity
  8
DRAW2
100
AcDbCircle
 10
2525.033024327854
 20
182.3856270872417
 30
0.0
 40
81.0
  0
CIRCLE
  5
841B
330
18
100
AcDbEntity
  8
DRAW3
100
AcDbCircle
 10
2525.033024327854
 20
182.3856270872417
 30
0.0
 40
29.8125
  0
CIRCLE
  5
841C
330
18
100
AcDbEntity
  8
DRAW2
100
AcDbCircle
 10
2525.033024327854
 20
182.3856270872417
 30
0.0
 40
40.0
  0
CIRCLE
  5
841D
330
18
100
AcDbEntity
  8
DRAW2
100
AcDbCircle
 10
2525.033024327854
 20
182.3856270872417
 30
0.0
 40
28.33
  0
LWPOLYLINE
  5
841F
330
18
100
AcDbEntity
  8
DRAW2
100
AcDbPolyline
 90
        7
 70
     0
 43
0.0
 10
2404.420234327854
 20
169.0423070872415
 42
0.028795153
 10
2407.617854327853
 20
165.1133470872415
 42
0.028800053
 10
2411.245174327853
 20
161.5772270872415
 42
0.028490741
 10
2415.252784327854
 20
158.4782470872415
 42
0.028284962
 10
2419.586194327854
 20
155.8544270872415
 42
0.028193125
 10
2424.187354327854
 20
153.7352870872415
 42
0.02780097
 10
2428.998054327854
 20
152.1420970872414
  0
LWPOLYLINE
  5
8420
330
18
100
AcDbEntity
  8
DRAW2
100
AcDbPolyline
 90
        7
 70
     0
 43
0.0
 10
2405.286564327854
 20
169.0423070872415
 42
0.029077547
 10
2408.537704327853
 20
165.0949270872414
 42
0.028976837
 10
2412.223584327853
 20
161.5500270872415
 42
0.028551328
 10
2416.291804327853
 20
158.4509070872415
 42
0.02820155
 10
2420.685444327853
 20
155.8336470872415
 42
0.027953594
 10
2425.344364327854
 20
153.7248370872415
 42
0.027397232
 10
2430.209364327853
 20
152.1420970872414
  0
LWPOLYLINE
  5
8421
330
18
100
AcDbEntity
  8
DRAW2
100
AcDbPolyline
 90
        7
 70
     0
 43
0.0
 10
2411.992074327853
 20
173.6781870872415
 42
0.029106101
 10
2414.663074327854
 20
170.4466170872416
 42
0.028974792
 10
2417.690074327853
 20
167.5457970872415
 42
0.028503061
 10
2421.029634327854
 20
165.0106770872415
 42
0.028133714
 10
2424.635624327853
 20
162.8696670872415
 42
0.027859738
 10
2428.457134327854
 20
161.1450870872414
 42
0.027299138
 10
2432.445684327853
 20
159.8507470872415
  0
LINE
  5
8423
330
18
100
AcDbEntity
  8
DRAW2
  6
Continuous
100
AcDbLine
 10
2476.130509473078
 20
81.0856570872416
 30
0.0
 11
2459.130509473077
 21
81.0856570872416
 31
0.0
  0
ARC
  5
8424
330
18
100
AcDbEntity
  8
DRAW2
  6
Continuous
100
AcDbCircle
 10
2463.380509473077
 20
93.36121555724156
 30
0.0
 40
12.275561
100
AcDbArc
 50
249.743929
 51
290.2560899999999
  0
LINE
  5
8425
330
18
100
AcDbEntity
  8
DRAW2
  6
Continuous
100
AcDbLine
 10
2459.130509473077
 20
81.0856570872416
 30
0.0
 11
2459.130509473077
 21
133.5915850757823
 31
0.0
  0
LWPOLYLINE
  5
8426
330
18
100
AcDbEntity
  8
DRAW2
100
AcDbPolyline
 90
        3
 70
     0
 43
0.0
 10
2432.445684327853
 20
159.8507470872415
 42
0.0056061594
 10
2440.118814327854
 20
157.9077970872416
 42
0.0052210043589883
 10
2447.308962074491
 20
156.2519295525353
 42
0.0052210043589883
  0
LWPOLYLINE
  5
8427
330
18
100
AcDbEntity
  8
DRAW2
100
AcDbPolyline
 90
        3
 70
     0
 43
0.0
 10
2430.209364327853
 20
152.1420970872414
 42
0.009790901
 10
2443.945834327854
 20
148.7780370872416
 42
0.0049428582720824
 10
2450.925269309619
 20
147.2851905350075
 42
0.0049428582720824
  0
LWPOLYLINE
  5
8428
330
18
100
AcDbEntity
  8
DRAW2
100
AcDbPolyline
 90
        3
 70
     0
 43
0.0
 10
2428.998054327854
 20
152.1420970872414
 42
0.010445415
 10
2443.659314327854
 20
148.5033570872416
 42
0.005271536326328
 10
2451.108352222626
 20
146.9012241172802
 42
0.005271536326328
  0
LINE
  5
8429
330
18
100
AcDbEntity
  8
DRAW2
  6
Continuous
100
AcDbLine
 10
2467.630509473078
 20
81.84484035213813
 30
0.0
 11
2467.630509473078
 21
123.8283791298175
 31
0.0
  0
LINE
  5
842A
330
18
100
AcDbEntity
  8
DRAW2
  6
Continuous
100
AcDbLine
 10
2476.130539973078
 20
81.0856570872416
 30
0.0
 11
2476.130539973078
 21
116.563540946411
 31
0.0
  0
ARC
  5
842B
330
18
100
AcDbEntity
  8
DRAW2
  6
Continuous
100
AcDbCircle
 10
2471.880509473078
 20
93.36121555724156
 30
0.0
 40
12.275561
100
AcDbArc
 50
249.743929
 51
290.2560899999999
  0
LINE
  5
842C
330
18
100
AcDbEntity
  8
DRAW2
  6
Continuous
100
AcDbLine
 10
2525.033015219849
 20
123.6370360714917
 30
0.0
 11
2534.343976867203
 21
118.2613502012667
 31
0.0
  0
LINE
  5
842D
330
18
100
AcDbEntity
  8
DRAW2
  6
Continuous
100
AcDbLine
 10
2525.033136702912
 20
123.6370507638255
 30
0.0
 11
2515.722175055556
 21
118.2613648936006
 31
0.0
  0
CIRCLE
  5
842E
330
18
100
AcDbEntity
  8
DRAW2
  6
Continuous
100
AcDbCircle
 10
2525.033024327854
 20
112.8856270872417
 30
0.0
 40
9.31095
  0
LINE
  5
842F
330
18
100
AcDbEntity
  8
DRAW2
  6
Continuous
100
AcDbLine
 10
2525.032967027599
 20
102.1342536538917
 30
0.0
 11
2534.343927773103
 21
107.5099411323717
 31
0.0
  0
LINE
  5
8430
330
18
100
AcDbEntity
  8
DRAW2
  6
Continuous
100
AcDbLine
 10
2525.033184895161
 20
102.1342683462256
 30
0.0
 11
2515.722224149656
 21
107.5099558247055
 31
0.0
  0
LINE
  5
8431
330
18
100
AcDbEntity
  8
DRAW2
  6
Continuous
100
AcDbLine
 10
2515.722074328007
 20
118.2613535511706
 30
0.0
 11
2515.722074328007
 21
107.5100074581555
 31
0.0
  0
LINE
  5
8432
330
18
100
AcDbEntity
  8
DRAW2
  6
Continuous
100
AcDbLine
 10
2534.344077594754
 20
118.2613388588367
 30
0.0
 11
2534.344077594754
 21
107.5099927658217
 31
0.0
  0
LINE
  5
8433
330
18
100
AcDbEntity
  8
DRAW2
  6
Continuous
100
AcDbLine
 10
2590.935539182629
 20
81.0856570872416
 30
0.0
 11
2590.935539182629
 21
133.5915850757823
 31
0.0
  0
LINE
  5
8434
330
18
100
AcDbEntity
  8
DRAW2
  6
Continuous
100
AcDbLine
 10
2582.435539182629
 20
81.84484035213813
 30
0.0
 11
2582.435539182629
 21
123.8283791298175
 31
0.0
  0
ARC
  5
8435
330
18
100
AcDbEntity
  8
DRAW2
  6
Continuous
100
AcDbCircle
 10
2578.185539182629
 20
93.36121555724156
 30
0.0
 40
12.275561
100
AcDbArc
 50
249.74391
 51
290.2560709999999
  0
LINE
  5
8436
330
18
100
AcDbEntity
  8
DRAW2
  6
Continuous
100
AcDbLine
 10
2573.935539182629
 20
81.0856570872416
 30
0.0
 11
2590.935539182629
 21
81.0856570872416
 31
0.0
  0
LINE
  5
8437
330
18
100
AcDbEntity
  8
DRAW2
  6
Continuous
100
AcDbLine
 10
2573.935508682628
 20
81.0856570872416
 30
0.0
 11
2573.935508682628
 21
116.563540946411
 31
0.0
  0
ARC
  5
8438
330
18
100
AcDbEntity
  8
DRAW2
  6
Continuous
100
AcDbCircle
 10
2586.685539182629
 20
93.36121555724156
 30
0.0
 40
12.275561
100
AcDbArc
 50
249.74391
 51
290.2560709999999
  0
LWPOLYLINE
  5
8439
330
18
100
AcDbEntity
  8
DRAW2
100
AcDbPolyline
 90
        7
 70
     0
 43
0.0
 10
2394.951114327853
 20
204.5626240300594
 42
0.0068107303769298
 10
2396.382524327853
 20
201.0785950872415
 42
0.01143893
 10
2398.996054327854
 20
195.3240280872415
 42
0.011437192
 10
2401.870094327853
 20
189.6947470872415
 42
0.011441261
 10
2404.998744327853
 20
184.2028470872415
 42
0.011447694
 10
2408.375224327853
 20
178.8600670872416
 42
0.011445537
 10
2411.992074327853
 20
173.6781870872415
  0
LINE
  5
843A
330
18
100
AcDbEntity
  8
DRAW2
100
AcDbLine
 10
2364.032964327853
 20
249.3856570872415
 30
0.0
 11
2477.75728023007
 21
249.3856570872415
 31
0.0
  0
LINE
  5
843B
330
18
100
AcDbEntity
  8
DRAW2
100
AcDbLine
 10
2459.283001452976
 20
231.3849586332244
 30
0.0
 11
2363.032987590669
 21
231.3856070872882
 31
0.0
  0
LINE
  5
843C
330
18
100
AcDbEntity
  8
DRAW2
100
AcDbLine
 10
2448.145117424362
 20
210.8856230872414
 30
0.0
 11
2362.749020154861
 21
210.8856230872414
 31
0.0
  0
LINE
  5
843D
330
18
100
AcDbEntity
  8
DRAW2
100
AcDbLine
 10
2458.913813806251
 20
230.8856270872416
 30
0.0
 11
2362.797202345878
 21
230.8856270872416
 31
0.0
  0
LINE
  5
843E
330
18
100
AcDbEntity
  8
DRAW2
100
AcDbLine
 10
2361.744865075268
 20
229.886997621371
 30
0.0
 11
2458.192768513117
 21
229.886997621371
 31
0.0
  0
LINE
  5
843F
330
18
100
AcDbEntity
  8
DRAW2
100
AcDbLine
 10
2360.853694696082
 20
212.8828820189827
 30
0.0
 11
2448.915237696683
 21
212.8828820189827
 31
0.0
  0
LINE
  5
8440
330
18
100
AcDbEntity
  8
DRAW2
100
AcDbLine
 10
2394.609025009523
 20
258.3856217872416
 30
0.0
 11
2404.655034327853
 21
373.2113170872415
 31
0.0
  0
LINE
  5
8441
330
18
100
AcDbEntity
  8
DRAW2
100
AcDbLine
 10
2362.032994327853
 20
232.3856070872654
 30
0.0
 11
2362.032994327853
 21
247.3856270872414
 31
0.0
  0
ARC
  5
8443
330
18
100
AcDbEntity
  8
DRAW2
100
AcDbCircle
 10
2363.032994327853
 20
232.3856070872654
 30
0.0
 40
1.0
100
AcDbArc
 50
180.0
 51
269.9996139877848
  0
LINE
  5
8444
330
18
100
AcDbEntity
  8
DRAW2
100
AcDbLine
 10
2360.853694696082
 20
212.8828820189827
 30
0.0
 11
2362.749020154861
 21
210.8856230872414
 31
0.0
  0
LINE
  5
8445
330
18
100
AcDbEntity
  8
DRAW2
100
AcDbLine
 10
2362.797202345878
 20
230.8856270872416
 30
0.0
 11
2361.744865075268
 21
229.886997621371
 31
0.0
  0
LINE
  5
8446
330
18
100
AcDbEntity
  8
DRAW2
100
AcDbLine
 10
2361.744865075268
 20
229.886997621371
 30
0.0
 11
2360.853694696082
 21
212.8828820189827
 31
0.0
  0
LINE
  5
8447
330
18
100
AcDbEntity
  8
DRAW2
100
AcDbLine
 10
2394.951114327853
 20
201.0856230872414
 30
0.0
 11
2394.951114327853
 21
209.0856230872414
 31
0.0
  0
LINE
  5
8448
330
18
100
AcDbEntity
  8
DRAW2
100
AcDbLine
 10
2386.451114327853
 20
201.844806382138
 30
0.0
 11
2386.451114327853
 21
209.0856230872414
 31
0.0
  0
LINE
  5
8449
330
18
100
AcDbEntity
  8
DRAW2
100
AcDbLine
 10
2377.951114327853
 20
201.0856230872414
 30
0.0
 11
2377.951114327853
 21
209.0856230872414
 31
0.0
  0
ARC
  5
844A
330
18
100
AcDbEntity
  8
DRAW2
100
AcDbCircle
 10
2382.201114327853
 20
213.3611815872413
 30
0.0
 40
12.275561
100
AcDbArc
 50
249.7439100000075
 51
290.2560643631631
  0
LINE
  5
844B
330
18
100
AcDbEntity
  8
DRAW2
100
AcDbLine
 10
2382.201114327854
 20
191.3856230872414
 30
0.0
 11
2390.701114327853
 21
191.3856230872414
 31
0.0
  0
LINE
  5
844C
330
18
100
AcDbEntity
  8
DRAW2
100
AcDbLine
 10
2381.451114327854
 20
192.1356230872414
 30
0.0
 11
2391.451114327853
 21
192.1356230872414
 31
0.0
  0
LINE
  5
844D
330
18
100
AcDbEntity
  8
DRAW2
100
AcDbLine
 10
2377.951114327853
 20
201.0856230872414
 30
0.0
 11
2394.951114327853
 21
201.0856230872414
 31
0.0
  0
LINE
  5
844E
330
18
100
AcDbEntity
  8
DRAW2
100
AcDbLine
 10
2381.451114327854
 20
192.1356230872414
 30
0.0
 11
2382.201114327854
 21
191.3856230872414
 31
0.0
  0
LINE
  5
844F
330
18
100
AcDbEntity
  8
DRAW2
100
AcDbLine
 10
2381.451114327853
 20
201.0856230872414
 30
0.0
 11
2381.451114327854
 21
192.1356230872414
 31
0.0
  0
LINE
  5
8450
330
18
100
AcDbEntity
  8
DRAW3
100
AcDbLine
 10
2382.201114327853
 20
201.0856230872414
 30
0.0
 11
2382.201114327853
 21
191.3856230872414
 31
0.0
  0
LWPOLYLINE
  5
8451
330
18
100
AcDbEntity
  8
DRAW2
100
AcDbPolyline
 90
        5
 70
     0
 43
0.0
 10
2390.983198249936
 20
191.6677070093246
 42
0.006520854031499
 10
2392.688994327853
 20
188.2208170872414
 42
0.012723631
 10
2396.272414327853
 20
181.6309570872414
 42
0.012740741
 10
2400.186364327854
 20
175.2323670872416
 42
0.012729282
 10
2404.420234327854
 20
169.0423070872415
  0
LWPOLYLINE
  5
8452
330
18
100
AcDbEntity
  8
DRAW2
100
AcDbPolyline
 90
        5
 70
     0
 43
0.0
 10
2391.451114327853
 20
192.219002257939
 42
0.0076521149074022
 10
2393.444794327853
 20
188.2060970872415
 42
0.012842387
 10
2397.062264327853
 20
181.6174470872416
 42
0.012857129
 10
2401.013154327854
 20
175.2236570872415
 42
0.012849503
 10
2405.286564327854
 20
169.0423070872415
  0
LINE
  5
8453
330
18
100
AcDbEntity
  8
DRAW2
100
AcDbLine
 10
2391.451114327853
 20
192.1356230872414
 30
0.0
 11
2390.701114327853
 21
191.3856230872414
 31
0.0
  0
LINE
  5
8454
330
18
100
AcDbEntity
  8
DRAW3
100
AcDbLine
 10
2390.701114327853
 20
201.0856230872414
 30
0.0
 11
2390.701114327853
 21
191.3856230872414
 31
0.0
  0
LINE
  5
8455
330
18
100
AcDbEntity
  8
DRAW2
100
AcDbLine
 10
2391.451114327853
 20
201.0856230872414
 30
0.0
 11
2391.451114327853
 21
192.1356230872414
 31
0.0
  0
ARC
  5
8456
330
18
100
AcDbEntity
  8
DRAW2
100
AcDbCircle
 10
2390.701114327853
 20
213.3611815872413
 30
0.0
 40
12.275561
100
AcDbArc
 50
249.7439356368368
 51
290.2560709999952
  0
LINE
  5
8457
330
18
100
AcDbEntity
  8
DRAW2
100
AcDbLine
 10
2377.151114327852
 20
209.0856230872414
 30
0.0
 11
2395.751114327853
 21
209.0856230872414
 31
0.0
  0
LINE
  5
8458
330
18
100
AcDbEntity
  8
DRAW2
100
AcDbLine
 10
2386.201114327853
 20
210.8856230872414
 30
0.0
 11
2386.201114327853
 21
209.0856230872414
 31
0.0
  0
LINE
  5
8459
330
18
100
AcDbEntity
  8
DRAW2
100
AcDbLine
 10
2377.151114327852
 20
209.0856230872414
 30
0.0
 11
2377.151114327852
 21
210.8856230872414
 31
0.0
  0
LINE
  5
845A
330
18
100
AcDbEntity
  8
DRAW2
100
AcDbLine
 10
2382.033024327853
 20
231.3854790805426
 30
0.0
 11
2382.033024327853
 21
230.8856270872416
 31
0.0
  0
LINE
  5
845B
330
18
100
AcDbEntity
  8
DRAW2
100
AcDbLine
 10
2395.751114327853
 20
209.0856230872414
 30
0.0
 11
2395.751114327853
 21
210.8856230872417
 31
0.0
  0
LINE
  5
845C
330
18
100
AcDbEntity
  8
DRAW2
100
AcDbLine
 10
2386.701114327853
 20
210.8856230872414
 30
0.0
 11
2386.701114327853
 21
209.0856230872414
 31
0.0
  0
ARC
  5
845D
330
18
100
AcDbEntity
  8
DRAW2
100
AcDbCircle
 10
2364.032964327853
 20
247.3856570872415
 30
0.0
 40
2.0
100
AcDbArc
 50
90.00000300000001
 51
180.00001
  0
ARC
  5
845E
330
18
100
AcDbEntity
  8
DRAW2
100
AcDbCircle
 10
2382.201114327853
 20
246.1100985872413
 30
0.0
 40
12.27556100000129
100
AcDbArc
 50
69.74392900000473
 51
110.2560899999929
  0
LINE
  5
845F
330
18
100
AcDbEntity
  8
DRAW2
100
AcDbLine
 10
2395.451114327853
 20
251.3856570872427
 30
0.0
 11
2377.451114327853
 21
251.3856570872427
 31
0.0
  0
LINE
  5
8460
330
18
100
AcDbEntity
  8
DRAW2
100
AcDbLine
 10
2377.951114327853
 20
258.3856570872427
 30
0.0
 11
2394.951114327853
 21
258.3856570872427
 31
0.0
  0
LINE
  5
8461
330
18
100
AcDbEntity
  8
DRAW2
100
AcDbLine
 10
2377.951114327853
 20
258.3856570872427
 30
0.0
 11
2377.951114327853
 21
251.3856570872427
 31
0.0
  0
LINE
  5
8462
330
18
100
AcDbEntity
  8
DRAW2
100
AcDbLine
 10
2377.451114327853
 20
251.3856570872427
 30
0.0
 11
2377.451114327853
 21
249.3856570872427
 31
0.0
  0
LINE
  5
8463
330
18
100
AcDbEntity
  8
DRAW2
100
AcDbLine
 10
2394.951114327853
 20
258.3856570872427
 30
0.0
 11
2394.951114327853
 21
251.3856570872427
 31
0.0
  0
LINE
  5
8464
330
18
100
AcDbEntity
  8
DRAW2
100
AcDbLine
 10
2395.451114327853
 20
251.3856570872427
 30
0.0
 11
2395.451114327853
 21
249.3856570872427
 31
0.0
  0
LINE
  5
8465
330
18
100
AcDbEntity
  8
DRAW2
100
AcDbLine
 10
2386.451114327853
 20
257.6264712872426
 30
0.0
 11
2386.451114327853
 21
251.3856570872427
 31
0.0
  0
ARC
  5
8466
330
18
100
AcDbEntity
  8
DRAW2
100
AcDbCircle
 10
2390.701114327853
 20
246.1100985872419
 30
0.0
 40
12.27556100000075
100
AcDbArc
 50
69.74392900000473
 51
110.2560899999929
  0
LINE
  5
8467
330
18
100
AcDbEntity
  8
DRAW2
100
AcDbLine
 10
2402.033024327853
 20
418.3856370872416
 30
0.0
 11
2402.033024327853
 21
375.3856370872416
 31
0.0
  0
ARC
  5
8468
330
18
100
AcDbEntity
  8
DRAW2
100
AcDbCircle
 10
2402.662604327854
 20
373.3856370872416
 30
0.0
 40
2.0
100
AcDbArc
 50
355.0
 51
90.00000300000001
  0
LINE
  5
8469
330
18
100
AcDbEntity
  8
DRAW2
100
AcDbLine
 10
2402.033024327853
 20
418.3856670872415
 30
0.0
 11
2407.033024327853
 21
423.3856670872415
 31
0.0
  0
LINE
  5
846B
330
18
100
AcDbEntity
  8
DRAW2
  6
Continuous
100
AcDbLine
 10
2464.844316065088
 20
206.3842536538889
 30
0.0
 11
2455.533355319583
 21
211.759941132369
 31
0.0
  0
LINE
  5
846C
330
18
100
AcDbEntity
  8
DRAW2
  6
Continuous
100
AcDbLine
 10
2464.844267872839
 20
227.8870360714889
 30
0.0
 11
2455.533306225483
 21
222.511350201264
 31
0.0
  0
CIRCLE
  5
846D
330
18
100
AcDbEntity
  8
DRAW2
  6
Continuous
100
AcDbCircle
 10
2464.844258764833
 20
217.135627087239
 30
0.0
 40
9.31095
  0
LWPOLYLINE
  5
846E
330
18
100
AcDbEntity
  8
DRAW2
100
AcDbPolyline
 90
        7
 70
     0
 43
0.0
 10
2445.152661216814
 20
200.9093305303581
 42
-0.0233106247108252
 10
2443.569934327854
 20
209.2819230872415
 42
-0.00097192253
 10
2443.525624327854
 20
209.6004000872416
 42
-0.00087386982
 10
2443.482304327853
 20
209.9204670872414
 42
-0.00089538112
 10
2443.440074327853
 20
210.2409400872415
 42
-0.00090183028
 10
2443.398864327853
 20
210.5625470872415
 42
-0.00088751532
 10
2443.358914327854
 20
210.8834640872415
  0
LWPOLYLINE
  5
846F
330
18
100
AcDbEntity
  8
DRAW2
100
AcDbPolyline
 90
        5
 70
     0
 43
0.0
 10
2438.699774327853
 20
208.9619480872414
 42
0.0058674655
 10
2439.763714327853
 20
202.2176930872416
 42
0.0062437501
 10
2440.990584327854
 20
195.5012110872415
 42
0.0064865648
 10
2442.388134327853
 20
188.8181870872414
 42
0.0032252641205061
 10
2443.100543528273
 20
185.7125761440126
 42
0.0029588426264957
  0
LINE
  5
8470
330
18
100
AcDbEntity
  8
DRAW2
  6
Continuous
100
AcDbLine
 10
2455.533205497933
 20
222.511338858834
 30
0.0
 11
2455.533205497933
 21
211.759992765819
 31
0.0
  0
LWPOLYLINE
  5
8471
330
18
100
AcDbEntity
  8
DRAW2
100
AcDbPolyline
 90
        7
 70
     0
 43
0.0
 10
2438.699774327853
 20
208.9619480872414
 42
-0.00092982918
 10
2438.653714327854
 20
209.2819190872416
 42
-0.00091456296
 10
2438.609064327854
 20
209.6003950872415
 42
-0.00089818365
 10
2438.565374327853
 20
209.9204670872414
 42
-0.00091337131
 10
2438.522814327853
 20
210.2409400872415
 42
-0.00084462831
 10
2438.481274327853
 20
210.5625440872414
 42
-0.00093841652
 10
2438.440954327854
 20
210.8834620872416
  0
LINE
  5
8472
330
18
100
AcDbEntity
  8
DRAW2
  6
Continuous
100
AcDbLine
 10
2474.155105497933
 20
222.511313042109
 30
0.0
 11
2474.155105497933
 21
211.759941132369
 31
0.0
  0
LINE
  5
8473
330
18
100
AcDbEntity
  8
DRAW2
  6
Continuous
100
AcDbLine
 10
2474.155214689983
 20
211.760000891739
 30
0.0
 11
2464.844253229364
 21
206.3843154447389
 31
0.0
  0
LINE
  5
8474
330
18
100
AcDbEntity
  8
DRAW2
  6
Continuous
100
AcDbLine
 10
2474.155266323433
 20
222.511286802159
 30
0.0
 11
2464.844305478155
 21
227.886974280639
 31
0.0
  0
ARC
  5
8475
330
18
100
AcDbEntity
  8
DRAW2
100
AcDbCircle
 10
2463.380509473077
 20
246.1100985872402
 30
0.0
 40
12.27556100000129
100
AcDbArc
 50
69.74392900000473
 51
110.2560899999929
  0
LINE
  5
8476
330
18
100
AcDbEntity
  8
DRAW2
100
AcDbLine
 10
2476.630509473078
 20
251.3856570872416
 30
0.0
 11
2458.630509473078
 21
251.3856570872416
 31
0.0
  0
LINE
  5
8477
330
18
100
AcDbEntity
  8
DRAW2
100
AcDbLine
 10
2459.130509473077
 20
258.3856570872416
 30
0.0
 11
2476.130509473078
 21
258.3856570872416
 31
0.0
  0
LINE
  5
8478
330
18
100
AcDbEntity
  8
DRAW2
100
AcDbLine
 10
2459.130509473077
 20
258.3856570872416
 30
0.0
 11
2459.130509473077
 21
251.3856570872416
 31
0.0
  0
LINE
  5
8479
330
18
100
AcDbEntity
  8
DRAW2
100
AcDbLine
 10
2458.630509473078
 20
251.3856570872416
 30
0.0
 11
2458.630509473078
 21
249.3856570872415
 31
0.0
  0
ARC
  5
847A
330
18
100
AcDbEntity
  8
DRAW2
100
AcDbCircle
 10
2471.880509473078
 20
246.1100985872408
 30
0.0
 40
12.27556100000075
100
AcDbArc
 50
69.74392900000473
 51
110.2560899999929
  0
LINE
  5
847B
330
18
100
AcDbEntity
  8
DRAW2
100
AcDbLine
 10
2467.630509473078
 20
257.6264712872415
 30
0.0
 11
2467.630509473078
 21
251.3856570872416
 31
0.0
  0
LINE
  5
847C
330
18
100
AcDbEntity
  8
DRAW2
100
AcDbLine
 10
2476.130509473078
 20
258.3856570872416
 30
0.0
 11
2476.130509473078
 21
251.3856570872416
 31
0.0
  0
LINE
  5
847D
330
18
100
AcDbEntity
  8
DRAW2
100
AcDbLine
 10
2476.630509473078
 20
251.3856570872416
 30
0.0
 11
2476.630509473078
 21
249.3856570872415
 31
0.0
  0
LINE
  5
847F
330
18
100
AcDbEntity
  8
DRAW2
  6
Continuous
100
AcDbLine
 10
2575.910782332273
 20
222.511286802159
 30
0.0
 11
2585.221743177552
 21
227.886974280639
 31
0.0
  0
CIRCLE
  5
8480
330
18
100
AcDbEntity
  8
DRAW2
  6
Continuous
100
AcDbCircle
 10
2585.221789890874
 20
217.135627087239
 30
0.0
 40
9.31095
  0
LINE
  5
8481
330
18
100
AcDbEntity
  8
DRAW2
  6
Continuous
100
AcDbLine
 10
2575.910833965723
 20
211.760000891739
 30
0.0
 11
2585.221795426342
 21
206.3843154447389
 31
0.0
  0
LINE
  5
8482
330
18
100
AcDbEntity
  8
DRAW2
  6
Continuous
100
AcDbLine
 10
2575.910943157774
 20
222.511313042109
 30
0.0
 11
2575.910943157774
 21
211.759941132369
 31
0.0
  0
LINE
  5
8483
330
18
100
AcDbEntity
  8
DRAW2
100
AcDbLine
 10
2594.532693336124
 20
211.759941132369
 30
0.0
 11
2594.532742430223
 21
222.511350201264
 31
0.0
  0
LINE
  5
8484
330
18
100
AcDbEntity
  8
DRAW2
  6
Continuous
100
AcDbLine
 10
2585.221732590619
 20
206.3842536538889
 30
0.0
 11
2594.532693336124
 21
211.759941132369
 31
0.0
  0
LINE
  5
8485
330
18
100
AcDbEntity
  8
DRAW2
  6
Continuous
100
AcDbLine
 10
2585.221780782868
 20
227.8870360714889
 30
0.0
 11
2594.532742430223
 21
222.511350201264
 31
0.0
  0
ARC
  5
8486
330
18
100
AcDbEntity
  8
DRAW2
100
AcDbCircle
 10
2578.185539182629
 20
246.1100985872402
 30
0.0
 40
12.27556100000129
100
AcDbArc
 50
69.74392900000473
 51
110.2560899999929
  0
LINE
  5
8487
330
18
100
AcDbEntity
  8
DRAW2
100
AcDbLine
 10
2591.435539182629
 20
251.3856570872416
 30
0.0
 11
2573.435539182629
 21
251.3856570872416
 31
0.0
  0
LINE
  5
8488
330
18
100
AcDbEntity
  8
DRAW2
100
AcDbLine
 10
2573.935539182629
 20
258.3856570872416
 30
0.0
 11
2590.935539182629
 21
258.3856570872416
 31
0.0
  0
LINE
  5
8489
330
18
100
AcDbEntity
  8
DRAW2
100
AcDbLine
 10
2573.935539182629
 20
258.3856570872416
 30
0.0
 11
2573.935539182629
 21
251.3856570872416
 31
0.0
  0
LINE
  5
848A
330
18
100
AcDbEntity
  8
DRAW2
100
AcDbLine
 10
2573.435539182629
 20
251.3856570872416
 30
0.0
 11
2573.435539182629
 21
249.3856570872415
 31
0.0
  0
LINE
  5
848B
330
18
100
AcDbEntity
  8
DRAW2
100
AcDbLine
 10
2590.935539182629
 20
258.3856570872416
 30
0.0
 11
2590.935539182629
 21
251.3856570872416
 31
0.0
  0
LINE
  5
848C
330
18
100
AcDbEntity
  8
DRAW2
100
AcDbLine
 10
2591.435539182629
 20
251.3856570872416
 30
0.0
 11
2591.435539182629
 21
249.3856570872415
 31
0.0
  0
LINE
  5
848D
330
18
100
AcDbEntity
  8
DRAW2
100
AcDbLine
 10
2582.435539182629
 20
257.6264712872415
 30
0.0
 11
2582.435539182629
 21
251.3856570872416
 31
0.0
  0
ARC
  5
848E
330
18
100
AcDbEntity
  8
DRAW2
100
AcDbCircle
 10
2586.685539182629
 20
246.1100985872408
 30
0.0
 40
12.27556100000075
100
AcDbArc
 50
69.74392900000473
 51
110.2560899999929
  0
LINE
  5
8490
330
18
100
AcDbEntity
  8
DRAW2
100
AcDbLine
 10
2542.725533662354
 20
442.3856370872417
 30
0.0
 11
2507.340514993353
 21
442.3856370872417
 31
0.0
  0
LINE
  5
8491
330
18
100
AcDbEntity
  8
DRAW2
100
AcDbLine
 10
2507.340514993353
 20
442.3856461964869
 30
0.0
 11
2507.340514993353
 21
423.3856461964869
 31
0.0
  0
LINE
  5
8492
330
18
100
AcDbEntity
  8
DRAW2
100
AcDbLine
 10
2533.533024327853
 20
393.7931343753536
 30
0.0
 11
2525.033024327854
 21
398.7006116634654
 31
0.0
  0
LINE
  5
8493
330
18
100
AcDbEntity
  8
DRAW2
100
AcDbLine
 10
2533.533024327854
 20
383.9781797991302
 30
0.0
 11
2525.033024327854
 21
379.070702511018
 31
0.0
  0
CIRCLE
  5
8494
330
18
100
AcDbEntity
  8
DRAW2
100
AcDbCircle
 10
2525.033024327854
 20
388.8856570872417
 30
0.0
 40
8.5
  0
LINE
  5
8495
330
18
100
AcDbEntity
  8
DRAW2
100
AcDbLine
 10
2516.533024327853
 20
383.9781797991303
 30
0.0
 11
2516.533024327854
 21
393.7931343753536
 31
0.0
  0
CIRCLE
  5
8496
330
18
100
AcDbEntity
  8
DRAW2
100
AcDbCircle
 10
2525.033024327854
 20
388.8856570872417
 30
0.0
 40
5.75
  0
CIRCLE
  5
8497
330
18
100
AcDbEntity
  8
DRAW3
100
AcDbCircle
 10
2525.033024327854
 20
388.8856570872417
 30
0.0
 40
6.5
  0
LINE
  5
8498
330
18
100
AcDbEntity
  8
DRAW2
100
AcDbLine
 10
2516.533024327853
 20
383.9781797991302
 30
0.0
 11
2525.033024327854
 21
379.070702511018
 31
0.0
  0
LINE
  5
8499
330
18
100
AcDbEntity
  8
DRAW2
100
AcDbLine
 10
2516.533024327854
 20
393.7931343753536
 30
0.0
 11
2525.033024327854
 21
398.7006116634653
 31
0.0
  0
LINE
  5
849A
330
18
100
AcDbEntity
  8
DRAW2
100
AcDbLine
 10
2533.533024327854
 20
383.9781797991303
 30
0.0
 11
2533.533024327853
 21
393.7931343753536
 31
0.0
  0
LINE
  5
849B
330
18
100
AcDbEntity
  8
DRAW2
100
AcDbLine
 10
2516.386877156731
 20
457.8599028299891
 30
0.0
 11
2515.033054327853
 21
442.3856370872417
 31
0.0
  0
LINE
  5
849C
330
18
100
AcDbEntity
  8
DRAW2
100
AcDbLine
 10
2533.679171498976
 20
457.8599028299891
 30
0.0
 11
2535.032994327854
 21
442.3856370872417
 31
0.0
  0
LINE
  5
849D
330
18
100
AcDbEntity
  8
DRAW2
100
AcDbLine
 10
2516.372730729957
 20
442.3856370872415
 30
0.0
 11
2516.372730729956
 21
423.3856370872414
 31
0.0
  0
LINE
  5
849E
330
18
100
AcDbEntity
  8
DRAW2
100
AcDbLine
 10
2533.69331792575
 20
442.3856370872415
 30
0.0
 11
2533.693317925751
 21
423.3856370872414
 31
0.0
  0
LINE
  5
849F
330
18
100
AcDbEntity
  8
DRAW2
100
AcDbLine
 10
2542.725533662354
 20
442.3856461964869
 30
0.0
 11
2542.725533662354
 21
423.3856461964869
 31
0.0
  0
ARC
  5
84A1
330
18
100
AcDbEntity
  8
DRAW2
100
AcDbCircle
 10
2532.682976800884
 20
457.7727470872413
 30
0.0
 40
1.0
100
AcDbArc
 50
5.000000000014554
 51
89.99999999998697
  0
LINE
  5
84A2
330
18
100
AcDbEntity
  8
DRAW2
100
AcDbLine
 10
2532.682976800884
 20
458.7727470872415
 30
0.0
 11
2517.383071854823
 21
458.7727470872413
 31
0.0
  0
ARC
  5
84A3
330
18
100
AcDbEntity
  8
DRAW2
100
AcDbCircle
 10
2520.033024327853
 20
459.7727470872415
 30
0.0
 40
1.0
100
AcDbArc
 50
270.0
 51
0.000000000000007
  0
ARC
  5
84A4
330
18
100
AcDbEntity
  8
DRAW2
100
AcDbCircle
 10
2517.383071854823
 20
457.7727470872413
 30
0.0
 40
1.0
100
AcDbArc
 50
90.00000000001302
 51
174.9999999999854
  0
ARC
  5
84A5
330
18
100
AcDbEntity
  8
DRAW2
100
AcDbCircle
 10
2530.033024327854
 20
459.7727470872415
 30
0.0
 40
1.0
100
AcDbArc
 50
180.0
 51
270.0
  0
LWPOLYLINE
  5
84A6
330
18
100
AcDbEntity
  8
DRAW2
100
AcDbPolyline
 90
        7
 70
     0
 43
0.0
 10
2644.779484327853
 20
169.0423070872415
 42
-0.029077547
 10
2641.528344327853
 20
165.0949270872414
 42
-0.028976837
 10
2637.842464327853
 20
161.5500270872415
 42
-0.028551328
 10
2633.774244327853
 20
158.4509070872415
 42
-0.02820155
 10
2629.380604327853
 20
155.8336470872415
 42
-0.027953594
 10
2624.721684327853
 20
153.7248370872415
 42
-0.027397232
 10
2619.856684327853
 20
152.1420970872414
  0
LWPOLYLINE
  5
84A7
330
18
100
AcDbEntity
  8
DRAW2
100
AcDbPolyline
 90
        7
 70
     0
 43
0.0
 10
2638.073974327853
 20
173.6781870872415
 42
-0.029106101
 10
2635.402974327853
 20
170.4466170872416
 42
-0.028974792
 10
2632.375974327853
 20
167.5457970872415
 42
-0.028503061
 10
2629.036414327853
 20
165.0106770872415
 42
-0.028133714
 10
2625.430424327853
 20
162.8696670872415
 42
-0.027859738
 10
2621.608914327853
 20
161.1450870872414
 42
-0.027299138
 10
2617.620364327853
 20
159.8507470872415
  0
LWPOLYLINE
  5
84A8
330
18
100
AcDbEntity
  8
DRAW2
100
AcDbPolyline
 90
        7
 70
     0
 43
0.0
 10
2645.645814327853
 20
169.0423070872415
 42
-0.028795153
 10
2642.448194327853
 20
165.1133470872415
 42
-0.028800053
 10
2638.820874327854
 20
161.5772270872415
 42
-0.028490741
 10
2634.813264327853
 20
158.4782470872415
 42
-0.028284962
 10
2630.479854327854
 20
155.8544270872415
 42
-0.028193125
 10
2625.878694327853
 20
153.7352870872415
 42
-0.02780097
 10
2621.067994327853
 20
152.1420970872414
  0
LINE
  5
84A9
330
18
100
AcDbEntity
  8
DRAW2
100
AcDbLine
 10
2655.457023646183
 20
258.3856217872416
 30
0.0
 11
2645.411014327853
 21
373.2113170872415
 31
0.0
  0
LINE
  5
84AA
330
18
100
AcDbEntity
  8
DRAW2
100
AcDbLine
 10
2688.033054327853
 20
232.3856070872655
 30
0.0
 11
2688.033054327853
 21
247.3856270872414
 31
0.0
  0
LINE
  5
84AC
330
18
100
AcDbEntity
  8
DRAW2
100
AcDbLine
 10
2655.114934327853
 20
201.0856230872412
 30
0.0
 11
2672.114934327854
 21
201.0856230872412
 31
0.0
  0
LINE
  5
84AD
330
18
100
AcDbEntity
  8
DRAW2
100
AcDbLine
 10
2654.314934327854
 20
209.0856230872412
 30
0.0
 11
2672.914934327853
 21
209.0856230872412
 31
0.0
  0
ARC
  5
84AE
330
18
100
AcDbEntity
  8
DRAW2
100
AcDbCircle
 10
2659.364934327854
 20
213.3611815872412
 30
0.0
 40
12.275561
100
AcDbArc
 50
249.7439100000075
 51
290.2560643631631
  0
LINE
  5
84AF
330
18
100
AcDbEntity
  8
DRAW2
100
AcDbLine
 10
2654.314934327854
 20
210.8856230872413
 30
0.0
 11
2672.914934327853
 21
210.8856230872415
 31
0.0
  0
LWPOLYLINE
  5
84B0
330
18
100
AcDbEntity
  8
DRAW2
100
AcDbPolyline
 90
        5
 70
     0
 43
0.0
 10
2659.08285040577
 20
191.6677070093247
 42
-0.0065208540314991
 10
2657.377054327853
 20
188.2208170872414
 42
-0.012723631
 10
2653.793634327853
 20
181.6309570872414
 42
-0.012740741
 10
2649.879684327853
 20
175.2323670872416
 42
-0.012729282
 10
2645.645814327853
 20
169.0423070872415
  0
LWPOLYLINE
  5
84B1
330
18
100
AcDbEntity
  8
DRAW2
100
AcDbPolyline
 90
        5
 70
     0
 43
0.0
 10
2658.614934327854
 20
192.2190022579393
 42
-0.0076521149074029
 10
2656.621254327853
 20
188.2060970872415
 42
-0.012842387
 10
2653.003784327853
 20
181.6174470872416
 42
-0.012857129
 10
2649.052894327853
 20
175.2236570872415
 42
-0.012849503
 10
2644.779484327853
 20
169.0423070872415
  0
LINE
  5
84B2
330
18
100
AcDbEntity
  8
DRAW2
100
AcDbLine
 10
2655.114934327853
 20
201.0856230872412
 30
0.0
 11
2655.114934327853
 21
209.0856230872412
 31
0.0
  0
LWPOLYLINE
  5
84B3
330
18
100
AcDbEntity
  8
DRAW2
100
AcDbPolyline
 90
        5
 70
     0
 43
0.0
 10
2611.366274327854
 20
208.9619480872414
 42
-0.0058674655
 10
2610.302334327853
 20
202.2176930872416
 42
-0.0062437501
 10
2609.075464327853
 20
195.5012110872415
 42
-0.0064865648
 10
2607.677914327853
 20
188.8181870872414
 42
-0.0032252641205058
 10
2606.965505127433
 20
185.7125761440129
 42
-0.0029588426264957
  0
LWPOLYLINE
  5
84B4
330
18
100
AcDbEntity
  8
DRAW2
100
AcDbPolyline
 90
        7
 70
     0
 43
0.0
 10
2655.114934327853
 20
204.56262403006
 42
-0.0068107303769308
 10
2653.683524327854
 20
201.0785950872415
 42
-0.01143893
 10
2651.069994327853
 20
195.3240280872415
 42
-0.011437192
 10
2648.195954327853
 20
189.6947470872415
 42
-0.011441261
 10
2645.067304327853
 20
184.2028470872415
 42
-0.011447694
 10
2641.690824327853
 20
178.8600670872416
 42
-0.011445537
 10
2638.073974327853
 20
173.6781870872415
  0
LWPOLYLINE
  5
84B5
330
18
100
AcDbEntity
  8
DRAW2
100
AcDbPolyline
 90
        7
 70
     0
 43
0.0
 10
2611.366274327854
 20
208.9619480872414
 42
0.00092982918
 10
2611.412334327853
 20
209.2819190872416
 42
0.00091456296
 10
2611.456984327853
 20
209.6003950872415
 42
0.00089818365
 10
2611.500674327853
 20
209.9204670872414
 42
0.00091337131
 10
2611.543234327853
 20
210.2409400872415
 42
0.00084462831
 10
2611.584774327853
 20
210.5625440872414
 42
0.00093841652
 10
2611.625094327853
 20
210.8834620872416
  0
LINE
  5
84B6
330
18
100
AcDbEntity
  8
DRAW2
100
AcDbLine
 10
2654.314934327854
 20
209.0856230872412
 30
0.0
 11
2654.314934327854
 21
210.8856230872413
 31
0.0
  0
LINE
  5
84B7
330
18
100
AcDbEntity
  8
DRAW2
100
AcDbLine
 10
2663.614934327854
 20
201.8448063821379
 30
0.0
 11
2663.614934327854
 21
209.0856230872412
 31
0.0
  0
LINE
  5
84B8
330
18
100
AcDbEntity
  8
DRAW2
100
AcDbLine
 10
2672.114934327854
 20
201.0856230872412
 30
0.0
 11
2672.114934327854
 21
209.0856230872412
 31
0.0
  0
LINE
  5
84B9
330
18
100
AcDbEntity
  8
DRAW2
100
AcDbLine
 10
2658.614934327854
 20
192.1356230872413
 30
0.0
 11
2668.614934327854
 21
192.1356230872413
 31
0.0
  0
ARC
  5
84BA
330
18
100
AcDbEntity
  8
DRAW2
100
AcDbCircle
 10
2667.864934327853
 20
213.3611815872412
 30
0.0
 40
12.275561
100
AcDbArc
 50
249.7439356368368
 51
290.2560709999952
  0
LINE
  5
84BB
330
18
100
AcDbEntity
  8
DRAW2
100
AcDbLine
 10
2659.364934327854
 20
191.3856230872413
 30
0.0
 11
2667.864934327853
 21
191.3856230872413
 31
0.0
  0
LINE
  5
84BC
330
18
100
AcDbEntity
  8
DRAW2
100
AcDbLine
 10
2658.614934327853
 20
201.0856230872412
 30
0.0
 11
2658.614934327854
 21
192.1356230872413
 31
0.0
  0
LINE
  5
84BD
330
18
100
AcDbEntity
  8
DRAW3
100
AcDbLine
 10
2659.364934327854
 20
201.0856230872412
 30
0.0
 11
2659.364934327854
 21
191.3856230872413
 31
0.0
  0
LINE
  5
84BE
330
18
100
AcDbEntity
  8
DRAW2
100
AcDbLine
 10
2658.614934327854
 20
192.1356230872413
 30
0.0
 11
2659.364934327854
 21
191.3856230872413
 31
0.0
  0
LINE
  5
84C0
330
18
100
AcDbEntity
  8
DRAW2
100
AcDbLine
 10
2668.614934327854
 20
201.0856230872412
 30
0.0
 11
2668.614934327854
 21
192.1356230872413
 31
0.0
  0
LINE
  5
84C1
330
18
100
AcDbEntity
  8
DRAW3
100
AcDbLine
 10
2667.864934327853
 20
201.0856230872412
 30
0.0
 11
2667.864934327853
 21
191.3856230872413
 31
0.0
  0
LINE
  5
84C2
330
18
100
AcDbEntity
  8
DRAW2
100
AcDbLine
 10
2668.614934327854
 20
192.1356230872413
 30
0.0
 11
2667.864934327853
 21
191.3856230872413
 31
0.0
  0
LINE
  5
84C3
330
18
100
AcDbEntity
  8
DRAW2
100
AcDbLine
 10
2663.364934327853
 20
210.8856230872413
 30
0.0
 11
2663.364934327853
 21
209.0856230872412
 31
0.0
  0
LINE
  5
84C4
330
18
100
AcDbEntity
  8
DRAW2
100
AcDbLine
 10
2663.864934327854
 20
210.8856230872413
 30
0.0
 11
2663.864934327854
 21
209.0856230872412
 31
0.0
  0
LINE
  5
84C5
330
18
100
AcDbEntity
  8
DRAW2
100
AcDbLine
 10
2672.914934327853
 20
209.0856230872412
 30
0.0
 11
2672.914934327853
 21
210.8856230872415
 31
0.0
  0
LINE
  5
84C6
330
18
100
AcDbEntity
  8
DRAW2
100
AcDbLine
 10
2668.033024327853
 20
231.3854790805426
 30
0.0
 11
2668.033024327853
 21
230.8856270872416
 31
0.0
  0
LINE
  5
84C7
330
18
100
AcDbEntity
  8
DRAW2
100
AcDbLine
 10
2688.321183580439
 20
229.886997621371
 30
0.0
 11
2689.212353959625
 21
212.8828820189827
 31
0.0
  0
LINE
  5
84C8
330
18
100
AcDbEntity
  8
DRAW2
100
AcDbLine
 10
2689.212353959625
 20
212.8828820189827
 30
0.0
 11
2687.317028500845
 21
210.8856230872414
 31
0.0
  0
ARC
  5
84C9
330
18
100
AcDbEntity
  8
DRAW2
100
AcDbCircle
 10
2687.033054327853
 20
232.3856070872655
 30
0.0
 40
1.0
100
AcDbArc
 50
270.0003860122151
 51
0.0
  0
LINE
  5
84CA
330
18
100
AcDbEntity
  8
DRAW2
100
AcDbLine
 10
2687.268846309828
 20
230.8856270872416
 30
0.0
 11
2688.321183580439
 21
229.886997621371
 31
0.0
  0
ARC
  5
84CB
330
18
100
AcDbEntity
  8
DRAW2
100
AcDbCircle
 10
2659.364934327854
 20
246.1100985872402
 30
0.0
 40
12.27556100000129
100
AcDbArc
 50
69.74392900000473
 51
110.2560899999929
  0
LINE
  5
84CC
330
18
100
AcDbEntity
  8
DRAW2
100
AcDbLine
 10
2672.614934327854
 20
251.3856570872416
 30
0.0
 11
2654.614934327854
 21
251.3856570872416
 31
0.0
  0
LINE
  5
84CD
330
18
100
AcDbEntity
  8
DRAW2
100
AcDbLine
 10
2655.114934327853
 20
258.3856570872416
 30
0.0
 11
2672.114934327854
 21
258.3856570872416
 31
0.0
  0
LINE
  5
84CE
330
18
100
AcDbEntity
  8
DRAW2
100
AcDbLine
 10
2655.114934327853
 20
258.3856570872416
 30
0.0
 11
2655.114934327853
 21
251.3856570872416
 31
0.0
  0
LINE
  5
84CF
330
18
100
AcDbEntity
  8
DRAW2
100
AcDbLine
 10
2654.614934327854
 20
251.3856570872416
 30
0.0
 11
2654.614934327854
 21
249.3856570872415
 31
0.0
  0
ARC
  5
84D0
330
18
100
AcDbEntity
  8
DRAW2
100
AcDbCircle
 10
2667.864934327853
 20
246.1100985872408
 30
0.0
 40
12.27556100000075
100
AcDbArc
 50
69.74392900000473
 51
110.2560899999929
  0
LINE
  5
84D1
330
18
100
AcDbEntity
  8
DRAW2
100
AcDbLine
 10
2663.614934327854
 20
257.6264712872415
 30
0.0
 11
2663.614934327854
 21
251.3856570872416
 31
0.0
  0
LINE
  5
84D2
330
18
100
AcDbEntity
  8
DRAW2
100
AcDbLine
 10
2672.114934327854
 20
258.3856570872416
 30
0.0
 11
2672.114934327854
 21
251.3856570872416
 31
0.0
  0
LINE
  5
84D3
330
18
100
AcDbEntity
  8
DRAW2
100
AcDbLine
 10
2672.614934327854
 20
251.3856570872416
 30
0.0
 11
2672.614934327854
 21
249.3856570872415
 31
0.0
  0
ARC
  5
84D4
330
18
100
AcDbEntity
  8
DRAW2
100
AcDbCircle
 10
2686.033084327853
 20
247.3856570872415
 30
0.0
 40
2.0
100
AcDbArc
 50
359.9999899999999
 51
89.99999700000001
  0
LINE
  5
84D5
330
18
100
AcDbEntity
  8
DRAW2
100
AcDbLine
 10
2648.033024327853
 20
418.3856370872416
 30
0.0
 11
2648.033024327853
 21
375.3856370872416
 31
0.0
  0
ARC
  5
84D6
330
18
100
AcDbEntity
  8
DRAW2
100
AcDbCircle
 10
2647.403444327853
 20
373.3856370872416
 30
0.0
 40
2.0
100
AcDbArc
 50
89.99999700000001
 51
185.0
  0
LINE
  5
84D7
330
18
100
AcDbEntity
  8
DRAW2
100
AcDbLine
 10
2648.033024327853
 20
418.3856670872415
 30
0.0
 11
2643.033024327853
 21
423.3856670872415
 31
0.0
  0
VIEWPORT
  5
BD5
330
15
100
AcDbEntity
 67
     1
  8
0
100
AcDbViewport
 10
296.9950122070312
 20
209.9950000476836
 30
0.0
 40
632.1056339387388
 41
423.1939163498098
 68
     1
 69
     1
 12
296.9950122070312
 22
209.9950000476836
 13
0.0
 23
0.0
 14
10.0
 24
10.0
 15
10.0
 25
10.0
 16
0.0
 26
0.0
 36
1.0
 17
0.0
 27
0.0
 37
0.0
 42
50.0
 43
0.0
 44
0.0
 45
423.1939163498098
 50
0.0
 51
0.0
 72
   100
 90
    32768
  1

281
     0
 71
     1
 74
     0
110
0.0
120
0.0
130
0.0
111
1.0
121
0.0
131
0.0
112
0.0
122
1.0
132
0.0
 79
     0
146
0.0
  0
ENDSEC
  0
SECTION
  2
OBJECTS
  0
DICTIONARY
  5
C
330
0
100
AcDbDictionary
281
     1
  3
ACAD_GROUP
350
D
  3
ACAD_LAYOUT
350
6B4F
  3
ACAD_MLINESTYLE
350
E
  3
ACAD_PLOTSETTINGS
350
6B50
  3
ACAD_PLOTSTYLENAME
350
6B4D
  0
DICTIONARY
  5
7C33
330
2
100
AcDbDictionary
280
     1
281
     1
  3
ACAD_LAYERFILTERS
360
7C34
  0
DICTIONARY
  5
D
102
{ACAD_REACTORS
330
C
102
}
330
C
100
AcDbDictionary
281
     1
  3
*A1
350
7893
  3
*A2
350
7FB4
  3
*A3
350
85E9
  0
DICTIONARY
  5
6B4F
102
{ACAD_REACTORS
330
C
102
}
330
C
100
AcDbDictionary
281
     1
  3
Model
350
6B51
  3
ﾚｲｱｳﾄ1
350
6B52
  0
DICTIONARY
  5
E
102
{ACAD_REACTORS
330
C
102
}
330
C
100
AcDbDictionary
281
     1
  3
STANDARD
350
1B
  0
DICTIONARY
  5
6B50
102
{ACAD_REACTORS
330
C
102
}
330
C
100
AcDbDictionary
281
     1
  3
AdobePDF_A1
350
6B5E
  3
AdobePDF_A2
350
7A9B
  0
ACDBDICTIONARYWDFLT
  5
6B4D
102
{ACAD_REACTORS
330
C
102
}
330
C
100
AcDbDictionary
281
     1
  3
Normal
350
6B4E
100
AcDbDictionaryWithDefault
340
6B4E
  0
DICTIONARY
  5
7C34
102
{ACAD_REACTORS
330
7C33
102
}
330
7C33
100
AcDbDictionary
280
     1
281
     1
  3
0 画層
360
7C35
  3
06
360
7C36
  3
06siki
360
7C37
  3
06siki2
360
7C38
  3
2
360
7C39
  3
A 画層
360
7C3A
  3
aaa
360
7C3B
  3
B 画層
360
7C3C
  3
E 画層
360
7C3D
  3
H 画層
360
7C3E
  3
L 画層
360
7C3F
  3
sekkei
360
7C40
  3
一般画層
360
7C41
  3
開発画層
360
7C42
  3
外構一般画層
360
7C43
  3
建築一般画層
360
7C44
  3
座席のみ
360
7C45
  3
詳細一般画層
360
7C46
  3
全階平面図
360
7C47
  0
GROUP
  5
7893
102
{ACAD_REACTORS
330
D
102
}
330
D
100
AcDbGroup
300

 70
     1
 71
     1
  0
GROUP
  5
7FB4
102
{ACAD_REACTORS
330
D
102
}
330
D
100
AcDbGroup
300

 70
     1
 71
     1
  0
GROUP
  5
85E9
102
{ACAD_REACTORS
330
D
102
}
330
D
100
AcDbGroup
300

 70
     1
 71
     1
  0
LAYOUT
  5
6B51
102
{ACAD_REACTORS
330
6B4F
102
}
330
6B4F
100
AcDbPlotSettings
  1

  2
Acrobat Distiller
  4

  6

 40
0.0
 41
0.0
 42
0.0
 43
0.0
 44
0.0
 45
0.0
 46
0.0
 47
0.0
 48
0.0
 49
0.0
140
0.0
141
0.0
142
1.0
143
1.0
 70
  1712
 72
     0
 73
     0
 74
     0
  7

 75
     0
147
1.0
148
0.0
149
0.0
100
AcDbLayout
  1
Model
 70
     1
 71
     0
 10
0.0
 20
0.0
 11
12.0
 21
9.0
 12
0.0
 22
0.0
 32
0.0
 14
0.0
 24
0.0
 34
0.0
 15
0.0
 25
0.0
 35
0.0
146
0.0
 13
0.0
 23
0.0
 33
0.0
 16
1.0
 26
0.0
 36
0.0
 17
0.0
 27
1.0
 37
0.0
 76
     0
330
18
  0
LAYOUT
  5
6B52
102
{ACAD_REACTORS
330
6B4F
102
}
330
6B4F
100
AcDbPlotSettings
  1
AdobePDF_A2
  2
Adobe PDF
  4
User66
  6
A1
 40
3.174999952316284
 41
3.174999952316284
 42
3.17498779296875
 43
3.17498779296875
 44
420.0
 45
594.0
 46
-3.169999999999999
 47
-3.169999999999999
 48
0.0
 49
0.0
140
594.0
141
420.0
142
1.0
143
1.0
 70
   692
 72
     1
 73
     1
 74
     4
  7
LineScale_10.ctb
 75
    16
147
1.0
148
0.0
149
0.0
100
AcDbLayout
  1
ﾚｲｱｳﾄ1
 70
     1
 71
     1
 10
-0.0049877929687501
 20
-0.0049999523162843
 11
593.9950122070312
 21
419.9950000476837
 12
0.0
 22
0.0
 32
0.0
 14
1.000000000000000E+20
 24
1.000000000000000E+20
 34
1.000000000000000E+20
 15
-1.000000000000000E+20
 25
-1.000000000000000E+20
 35
-1.000000000000000E+20
146
0.0
 13
0.0
 23
0.0
 33
0.0
 16
1.0
 26
0.0
 36
0.0
 17
0.0
 27
1.0
 37
0.0
 76
     0
330
15
331
BD5
  0
MLINESTYLE
  5
1B
102
{ACAD_REACTORS
330
E
102
}
330
E
100
AcDbMlineStyle
  2
STANDARD
 70
     0
  3

 62
     0
 51
90.0
 52
90.0
 71
     2
 49
0.5
 62
   256
  6
BYLAYER
 49
-0.5
 62
   256
  6
BYLAYER
  0
PLOTSETTINGS
  5
6B5E
102
{ACAD_REACTORS
330
6B50
102
}
330
6B50
100
AcDbPlotSettings
  1
AdobePDF_A1
  2
Adobe PDF
  4
User120
  6
A1
 40
3.174999952316284
 41
3.174999952316284
 42
3.17498779296875
 43
3.17498779296875
 44
594.0
 45
841.0
 46
-3.169999999999999
 47
-3.169999999999999
 48
0.0
 49
0.0
140
841.0
141
594.0
142
1.0
143
1.0
 70
   692
 72
     1
 73
     1
 74
     4
  7
LineScale_10.ctb
 75
    16
147
1.0
148
0.0
149
0.0
  0
PLOTSETTINGS
  5
7A9B
102
{ACAD_REACTORS
330
6B50
102
}
330
6B50
100
AcDbPlotSettings
  1
AdobePDF_A2
  2
Adobe PDF
  4
User66
  6
A1
 40
3.174999952316284
 41
3.174999952316284
 42
3.17498779296875
 43
3.17498779296875
 44
420.0
 45
594.0
 46
-3.169999999999999
 47
-3.169999999999999
 48
0.0
 49
0.0
140
594.0
141
420.0
142
1.0
143
1.0
 70
   692
 72
     1
 73
     1
 74
     4
  7
LineScale_10.ctb
 75
    16
147
1.0
148
0.0
149
0.0
  0
ACDBPLACEHOLDER
  5
6B4E
102
{ACAD_REACTORS
330
6B4D
102
}
330
6B4D
  0
XRECORD
  5
7C35
102
{ACAD_REACTORS
330
7C34
102
}
330
7C34
100
AcDbXrecord
280
     1
  1
0 画層
  1
0*,*.
  1
*
  1
*
 70
     0
  1
*
  1
*
  0
XRECORD
  5
7C36
102
{ACAD_REACTORS
330
7C34
102
}
330
7C34
100
AcDbXrecord
280
     1
  1
06
  1
06*
  1
*
  1
*
 70
     0
  1
*
  1
*
  0
XRECORD
  5
7C37
102
{ACAD_REACTORS
330
7C34
102
}
330
7C34
100
AcDbXrecord
280
     1
  1
06siki
  1
06*siki*,sikiti,00waku,*|*
  1
*
  1
*
 70
     0
  1
*
  1
*
  0
XRECORD
  5
7C38
102
{ACAD_REACTORS
330
7C34
102
}
330
7C34
100
AcDbXrecord
280
     1
  1
06siki2
  1
06*siki*,sikiti,00waku,*|*
  1
*
  1
*
 70
     0
  1
*
  1
*
  0
XRECORD
  5
7C39
102
{ACAD_REACTORS
330
7C34
102
}
330
7C34
100
AcDbXrecord
280
     1
  1
2
  1
2*
  1
*
  1
*
 70
     0
  1
*
  1
*
  0
XRECORD
  5
7C3A
102
{ACAD_REACTORS
330
7C34
102
}
330
7C34
100
AcDbXrecord
280
     1
  1
A 画層
  1
A*,*.
  1
*
  1
*
 70
     0
  1
*
  1
*
  0
XRECORD
  5
7C3B
102
{ACAD_REACTORS
330
7C34
102
}
330
7C34
100
AcDbXrecord
280
     1
  1
aaa
  1
*moji*
  1
*
  1
*
 70
     0
  1
*
  1
*
  0
XRECORD
  5
7C3C
102
{ACAD_REACTORS
330
7C34
102
}
330
7C34
100
AcDbXrecord
280
     1
  1
B 画層
  1
B*,*.
  1
*
  1
*
 70
     0
  1
*
  1
*
  0
XRECORD
  5
7C3D
102
{ACAD_REACTORS
330
7C34
102
}
330
7C34
100
AcDbXrecord
280
     1
  1
E 画層
  1
E*,*.
  1
*
  1
*
 70
     0
  1
*
  1
*
  0
XRECORD
  5
7C3E
102
{ACAD_REACTORS
330
7C34
102
}
330
7C34
100
AcDbXrecord
280
     1
  1
H 画層
  1
H*,*.
  1
*
  1
*
 70
     0
  1
*
  1
*
  0
XRECORD
  5
7C3F
102
{ACAD_REACTORS
330
7C34
102
}
330
7C34
100
AcDbXrecord
280
     1
  1
L 画層
  1
L*,*.
  1
*
  1
*
 70
     0
  1
*
  1
*
  0
XRECORD
  5
7C40
102
{ACAD_REACTORS
330
7C34
102
}
330
7C34
100
AcDbXrecord
280
     1
  1
sekkei
  1
34
  1
*
  1
*
 70
     0
  1
*
  1
*
  0
XRECORD
  5
7C41
102
{ACAD_REACTORS
330
7C34
102
}
330
7C34
100
AcDbXrecord
280
     1
  1
一般画層
  1
.*
  1
*
  1
*
 70
     0
  1
*
  1
*
  0
XRECORD
  5
7C42
102
{ACAD_REACTORS
330
7C34
102
}
330
7C34
100
AcDbXrecord
280
     1
  1
開発画層
  1
L*,B*
  1
*
  1
*
 70
     0
  1
*
  1
*
  0
XRECORD
  5
7C43
102
{ACAD_REACTORS
330
7C34
102
}
330
7C34
100
AcDbXrecord
280
     1
  1
外構一般画層
  1
L*,B*
  1
*
  1
*
 70
     0
  1
*
  1
*
  0
XRECORD
  5
7C44
102
{ACAD_REACTORS
330
7C34
102
}
330
7C34
100
AcDbXrecord
280
     1
  1
建築一般画層
  1
B*,A*
  1
*
  1
*
 70
     0
  1
*
  1
*
  0
XRECORD
  5
7C45
102
{ACAD_REACTORS
330
7C34
102
}
330
7C34
100
AcDbXrecord
280
     1
  1
座席のみ
  1
*
  1
*
  1
*
 70
     0
  1
*
  1
*
  0
XRECORD
  5
7C46
102
{ACAD_REACTORS
330
7C34
102
}
330
7C34
100
AcDbXrecord
280
     1
  1
詳細一般画層
  1
B*,A*,D*
  1
*
  1
*
 70
     0
  1
*
  1
*
  0
XRECORD
  5
7C47
102
{ACAD_REACTORS
330
7C34
102
}
330
7C34
100
AcDbXrecord
280
     1
  1
全階平面図
  1
*
  1
*
  1
*
 70
     0
  1
*
  1
*
  0
ENDSEC
  0
EOF
