  0
SECTION
  2
HEADER
  9
$ACADVER
  1
AC1015
  9
$ACADMAINTVER
 70
     6
  9
$DWGCODEPAGE
  3
ANSI_932
  9
$INSBASE
 10
0.0
 20
0.0
 30
0.0
  9
$EXTMIN
 10
2319.208614161598
 20
20.9663230417168
 30
-0.0015258207003583
  9
$EXTMAX
 10
3318.116788018686
 20
937.1079825188799
 30
0.0000000349246037
  9
$LIMMIN
 10
0.0
 20
0.0
  9
$LIMMAX
 10
841.0
 20
594.0
  9
$ORTHOMODE
 70
     1
  9
$REGENMODE
 70
     1
  9
$FILLMODE
 70
     1
  9
$QTEXTMODE
 70
     0
  9
$MIRRTEXT
 70
     0
  9
$LTSCALE
 40
7.0
  9
$ATTMODE
 70
     1
  9
$TEXTSIZE
 40
3.2
  9
$TRACEWID
 40
0.05
  9
$TEXTSTYLE
  7
DIMFONT
  9
$CLAYER
  8
DRAW2
  9
$CELTYPE
  6
BYLAYER
  9
$CECOLOR
 62
   256
  9
$CELTSCALE
 40
1.0
  9
$DISPSILH
 70
     0
  9
$DIMSCALE
 40
2.5
  9
$DIMASZ
 40
3.0
  9
$DIMEXO
 40
0.0
  9
$DIMDLI
 40
10.0
  9
$DIMRND
 40
0.0
  9
$DIMDLE
 40
0.0
  9
$DIMEXE
 40
1.0
  9
$DIMTP
 40
0.5
  9
$DIMTM
 40
0.0
  9
$DIMTXT
 40
3.2
  9
$DIMCEN
 40
0.0
  9
$DIMTSZ
 40
0.0
  9
$DIMTOL
 70
     0
  9
$DIMLIM
 70
     0
  9
$DIMTIH
 70
     0
  9
$DIMTOH
 70
     0
  9
$DIMSE1
 70
     0
  9
$DIMSE2
 70
     0
  9
$DIMTAD
 70
     3
  9
$DIMZIN
 70
     8
  9
$DIMBLK
  1

  9
$DIMASO
 70
     1
  9
$DIMSHO
 70
     1
  9
$DIMPOST
  1

  9
$DIMAPOST
  1

  9
$DIMALT
 70
     0
  9
$DIMALTD
 70
     2
  9
$DIMALTF
 40
25.4
  9
$DIMLFAC
 40
1.0
  9
$DIMTOFL
 70
     1
  9
$DIMTVP
 40
0.0
  9
$DIMTIX
 70
     0
  9
$DIMSOXD
 70
     0
  9
$DIMSAH
 70
     1
  9
$DIMBLK1
  1
OPEN
  9
$DIMBLK2
  1
OPEN
  9
$DIMSTYLE
  2
２44５
  9
$DIMCLRD
 70
     0
  9
$DIMCLRE
 70
     0
  9
$DIMCLRT
 70
     0
  9
$DIMTFAC
 40
0.75
  9
$DIMGAP
 40
1.0
  9
$DIMJUST
 70
     0
  9
$DIMSD1
 70
     0
  9
$DIMSD2
 70
     0
  9
$DIMTOLJ
 70
     1
  9
$DIMTZIN
 70
     8
  9
$DIMALTZ
 70
     0
  9
$DIMALTTZ
 70
     0
  9
$DIMUPT
 70
     0
  9
$DIMDEC
 70
     3
  9
$DIMTDEC
 70
     3
  9
$DIMALTU
 70
     2
  9
$DIMALTTD
 70
     2
  9
$DIMTXSTY
  7
DIMFONT
  9
$DIMAUNIT
 70
     0
  9
$DIMADEC
 70
     0
  9
$DIMALTRND
 40
0.0
  9
$DIMAZIN
 70
     0
  9
$DIMDSEP
 70
    46
  9
$DIMATFIT
 70
     3
  9
$DIMFRAC
 70
     0
  9
$DIMLDRBLK
  1
OPEN
  9
$DIMLUNIT
 70
     2
  9
$DIMLWD
 70
    -2
  9
$DIMLWE
 70
    -2
  9
$DIMTMOVE
 70
     0
  9
$LUNITS
 70
     2
  9
$LUPREC
 70
     4
  9
$SKETCHINC
 40
0.1
  9
$FILLETRAD
 40
2.0
  9
$AUNITS
 70
     0
  9
$AUPREC
 70
     4
  9
$MENU
  1
acad
  9
$ELEVATION
 40
0.0
  9
$PELEVATION
 40
0.0
  9
$THICKNESS
 40
0.0
  9
$LIMCHECK
 70
     0
  9
$CHAMFERA
 40
0.0
  9
$CHAMFERB
 40
0.0
  9
$CHAMFERC
 40
0.0
  9
$CHAMFERD
 40
0.0
  9
$SKPOLY
 70
     0
  9
$TDCREATE
 40
2451359.366146990
  9
$TDUCREATE
 40
2451358.991146990
  9
$TDUPDATE
 40
2454973.354590382
  9
$TDUUPDATE
 40
2454972.979590382
  9
$TDINDWG
 40
0.1988375463
  9
$TDUSRTIMER
 40
0.1988375463
  9
$USRTIMER
 70
     1
  9
$ANGBASE
 50
0.0
  9
$ANGDIR
 70
     0
  9
$PDMODE
 70
    35
  9
$PDSIZE
 40
0.5
  9
$PLINEWID
 40
0.0
  9
$SPLFRAME
 70
     0
  9
$SPLINETYPE
 70
     6
  9
$SPLINESEGS
 70
     8
  9
$HANDSEED
  5
5F04
  9
$SURFTAB1
 70
     6
  9
$SURFTAB2
 70
     6
  9
$SURFTYPE
 70
     6
  9
$SURFU
 70
     6
  9
$SURFV
 70
     6
  9
$UCSBASE
  2

  9
$UCSNAME
  2

  9
$UCSORG
 10
0.0
 20
0.0
 30
0.0
  9
$UCSXDIR
 10
1.0
 20
0.0
 30
0.0
  9
$UCSYDIR
 10
0.0
 20
1.0
 30
0.0
  9
$UCSORTHOREF
  2

  9
$UCSORTHOVIEW
 70
     0
  9
$UCSORGTOP
 10
0.0
 20
0.0
 30
0.0
  9
$UCSORGBOTTOM
 10
0.0
 20
0.0
 30
0.0
  9
$UCSORGLEFT
 10
0.0
 20
0.0
 30
0.0
  9
$UCSORGRIGHT
 10
0.0
 20
0.0
 30
0.0
  9
$UCSORGFRONT
 10
0.0
 20
0.0
 30
0.0
  9
$UCSORGBACK
 10
0.0
 20
0.0
 30
0.0
  9
$PUCSBASE
  2

  9
$PUCSNAME
  2

  9
$PUCSORG
 10
0.0
 20
0.0
 30
0.0
  9
$PUCSXDIR
 10
1.0
 20
0.0
 30
0.0
  9
$PUCSYDIR
 10
0.0
 20
1.0
 30
0.0
  9
$PUCSORTHOREF
  2

  9
$PUCSORTHOVIEW
 70
     0
  9
$PUCSORGTOP
 10
0.0
 20
0.0
 30
0.0
  9
$PUCSORGBOTTOM
 10
0.0
 20
0.0
 30
0.0
  9
$PUCSORGLEFT
 10
0.0
 20
0.0
 30
0.0
  9
$PUCSORGRIGHT
 10
0.0
 20
0.0
 30
0.0
  9
$PUCSORGFRONT
 10
0.0
 20
0.0
 30
0.0
  9
$PUCSORGBACK
 10
0.0
 20
0.0
 30
0.0
  9
$USERI1
 70
     0
  9
$USERI2
 70
     0
  9
$USERI3
 70
     0
  9
$USERI4
 70
     0
  9
$USERI5
 70
     0
  9
$USERR1
 40
0.0
  9
$USERR2
 40
0.0
  9
$USERR3
 40
0.0
  9
$USERR4
 40
0.0
  9
$USERR5
 40
0.0
  9
$WORLDVIEW
 70
     1
  9
$SHADEDGE
 70
     3
  9
$SHADEDIF
 70
    70
  9
$TILEMODE
 70
     1
  9
$MAXACTVP
 70
    16
  9
$PINSBASE
 10
0.0
 20
0.0
 30
0.0
  9
$PLIMCHECK
 70
     0
  9
$PEXTMIN
 10
1.000000000000000E+20
 20
1.000000000000000E+20
 30
1.000000000000000E+20
  9
$PEXTMAX
 10
-1.000000000000000E+20
 20
-1.000000000000000E+20
 30
-1.000000000000000E+20
  9
$PLIMMIN
 10
-0.0049877929687501
 20
-0.0049999523162843
  9
$PLIMMAX
 10
593.9950122070312
 20
419.9950000476837
  9
$UNITMODE
 70
     0
  9
$VISRETAIN
 70
     0
  9
$PLINEGEN
 70
     1
  9
$PSLTSCALE
 70
     1
  9
$TREEDEPTH
 70
  3020
  9
$CMLSTYLE
  2
STANDARD
  9
$CMLJUST
 70
     0
  9
$CMLSCALE
 40
1.0
  9
$PROXYGRAPHICS
 70
     1
  9
$MEASUREMENT
 70
     1
  9
$CELWEIGHT
370
    -1
  9
$ENDCAPS
280
     0
  9
$JOINSTYLE
280
     0
  9
$LWDISPLAY
290
     0
  9
$INSUNITS
 70
     0
  9
$HYPERLINKBASE
  1

  9
$STYLESHEET
  1

  9
$XEDIT
290
     1
  9
$CEPSNTYPE
380
     0
  9
$PSTYLEMODE
290
     1
  9
$FINGERPRINTGUID
  2
{7764B895-A565-4995-B03C-82095446B0C7}
  9
$VERSIONGUID
  2
{9AEB12FC-5B3F-4217-8442-C86BB4D0C674}
  9
$EXTNAMES
290
     1
  9
$PSVPSCALE
 40
0.0
  9
$OLESTARTUP
290
     0
  0
ENDSEC
  0
SECTION
  2
CLASSES
  0
CLASS
  1
ACDBDICTIONARYWDFLT
  2
AcDbDictionaryWithDefault
  3
AutoCAD 2000
 90
        0
280
     0
281
     0
  0
CLASS
  1
ACDBPLACEHOLDER
  2
AcDbPlaceHolder
  3
AutoCAD 2000
 90
        0
280
     0
281
     0
  0
CLASS
  1
LAYOUT
  2
AcDbLayout
  3
AutoCAD 2000
 90
        0
280
     0
281
     0
  0
CLASS
  1
PLOTSETTINGS
  2
AcDbPlotSettings
  3
AutoCAD 2000
 90
        0
280
     0
281
     0
  0
ENDSEC
  0
SECTION
  2
TABLES
  0
TABLE
  2
VPORT
  5
8
330
0
100
AcDbSymbolTable
 70
     3
  0
VPORT
  5
5F03
330
8
100
AcDbSymbolTableRecord
100
AcDbViewportTableRecord
  2
*Active
 70
     0
 10
0.0
 20
0.0
 11
1.0
 21
1.0
 12
2818.662701090142
 22
479.0371527802983
 13
0.0
 23
0.0
 14
5.0
 24
5.0
 15
10.0
 25
10.0
 16
0.0
 26
0.0
 36
1.0
 17
0.0
 27
0.0
 37
0.0
 40
923.1085162032252
 41
1.493654822335025
 42
50.0
 43
0.0
 44
0.0
 50
0.0
 51
0.0
 71
     0
 72
   100
 73
     1
 74
     0
 75
     0
 76
     0
 77
     0
 78
     0
281
     0
 65
     1
110
0.0
120
0.0
130
0.0
111
1.0
121
0.0
131
0.0
112
0.0
122
1.0
132
0.0
 79
     0
146
0.0
  0
ENDTAB
  0
TABLE
  2
LTYPE
  5
5
330
0
100
AcDbSymbolTable
 70
     4
  0
LTYPE
  5
12
330
5
100
AcDbSymbolTableRecord
100
AcDbLinetypeTableRecord
  2
BYBLOCK
 70
     0
  3

 72
    65
 73
     0
 40
0.0
  0
LTYPE
  5
13
330
5
100
AcDbSymbolTableRecord
100
AcDbLinetypeTableRecord
  2
BYLAYER
 70
     0
  3

 72
    65
 73
     0
 40
0.0
  0
LTYPE
  5
14
330
5
100
AcDbSymbolTableRecord
100
AcDbLinetypeTableRecord
  2
CONTINUOUS
 70
     0
  3
Solid line
 72
    65
 73
     0
 40
0.0
  0
LTYPE
  5
21
330
5
100
AcDbSymbolTableRecord
100
AcDbLinetypeTableRecord
  2
HIDDEN
 70
     0
  3
__ __ __ __ __ __ __ __ __ __ __ __ __ __ __ __
 72
    65
 73
     2
 40
0.375
 49
0.25
 74
     0
 49
-0.125
 74
     0
  0
ENDTAB
  0
TABLE
  2
LAYER
  5
2
102
{ACAD_XDICTIONARY
360
432F
102
}
330
0
100
AcDbSymbolTable
 70
    17
  0
LAYER
  5
F
330
2
100
AcDbSymbolTableRecord
100
AcDbLayerTableRecord
  2
0
 70
     0
 62
     7
  6
CONTINUOUS
370
    -3
390
426A
  0
LAYER
  5
2B
330
2
100
AcDbSymbolTableRecord
100
AcDbLayerTableRecord
  2
HIDDEN
 70
     0
 62
     7
  6
HIDDEN
370
    -3
390
426A
  0
LAYER
  5
30
330
2
100
AcDbSymbolTableRecord
100
AcDbLayerTableRecord
  2
DRAW2
 70
     0
 62
     4
  6
CONTINUOUS
370
    -3
390
426A
  0
LAYER
  5
B93
330
2
100
AcDbSymbolTableRecord
100
AcDbLayerTableRecord
  2
DRAW3
 70
     0
 62
     1
  6
CONTINUOUS
370
    -3
390
426A
  0
LAYER
  5
3B43
330
2
100
AcDbSymbolTableRecord
100
AcDbLayerTableRecord
  2
DEFPOINTS
 70
     0
 62
     7
  6
CONTINUOUS
290
     0
370
    -3
390
426A
  0
ENDTAB
  0
TABLE
  2
STYLE
  5
3
330
0
100
AcDbSymbolTable
 70
     4
  0
STYLE
  5
10
330
3
100
AcDbSymbolTableRecord
100
AcDbTextStyleTableRecord
  2
STANDARD
 70
     0
 40
0.0
 41
1.0
 50
0.0
 71
     0
 42
0.2
  3
ROMANS.SHX
  4

  0
STYLE
  5
20
330
3
100
AcDbSymbolTableRecord
100
AcDbTextStyleTableRecord
  2
DIMFONT
 70
     0
 40
0.0
 41
1.0
 50
10.0
 71
     0
 42
3.2
  3
romans.shx
  4
extfont.shx
  0
ENDTAB
  0
TABLE
  2
VIEW
  5
6
330
0
100
AcDbSymbolTable
 70
     4
  0
VIEW
  5
24
330
6
100
AcDbSymbolTableRecord
100
AcDbViewTableRecord
  2
OLE1
 70
     0
 40
300.0
 10
232.1482602118003
 20
150.0
 41
464.2965204236006
 11
0.0
 21
0.0
 31
1.0
 12
0.0
 22
0.0
 32
0.0
 42
50.0
 43
0.0
 44
0.0
 50
0.0
 71
     0
281
     0
 72
     0
  0
VIEW
  5
E0E
330
6
100
AcDbSymbolTableRecord
100
AcDbViewTableRecord
  2
A1
 70
     1
 40
660.0
 10
511.7119266055046
 20
297.0
 41
1137.137614678899
 11
0.0
 21
0.0
 31
1.0
 12
0.0
 22
0.0
 32
0.0
 42
50.0
 43
0.0
 44
0.0
 50
0.0
 71
     0
281
     0
 72
     0
  0
VIEW
  5
E0F
330
6
100
AcDbSymbolTableRecord
100
AcDbViewTableRecord
  2
A2
 70
     1
 40
466.6666666666666
 10
361.8165137614679
 20
210.0
 41
804.0366972477063
 11
0.0
 21
0.0
 31
1.0
 12
0.0
 22
0.0
 32
0.0
 42
50.0
 43
0.0
 44
0.0
 50
0.0
 71
     0
281
     0
 72
     0
  0
VIEW
  5
E10
330
6
100
AcDbSymbolTableRecord
100
AcDbViewTableRecord
  2
A3
 70
     1
 40
330.0
 10
255.8559633027523
 20
148.5
 41
568.5688073394495
 11
0.0
 21
0.0
 31
1.0
 12
0.0
 22
0.0
 32
0.0
 42
50.0
 43
0.0
 44
0.0
 50
0.0
 71
     0
281
     0
 72
     0
  0
ENDTAB
  0
TABLE
  2
UCS
  5
7
330
0
100
AcDbSymbolTable
 70
     0
  0
ENDTAB
  0
TABLE
  2
APPID
  5
9
330
0
100
AcDbSymbolTable
 70
     1
  0
APPID
  5
11
330
9
100
AcDbSymbolTableRecord
100
AcDbRegAppTableRecord
  2
ACAD
 70
     0
  0
ENDTAB
  0
TABLE
  2
DIMSTYLE
  5
A
330
0
100
AcDbSymbolTable
 70
    12
100
AcDbDimStyleTable
 71
     1
340
3B45
  0
DIMSTYLE
105
3B44
330
A
100
AcDbSymbolTableRecord
100
AcDbDimStyleTableRecord
  2
STANDARD
 70
     0
 41
2.5
 42
0.625
 43
3.75
 44
1.25
 73
     0
 74
     0
 77
     1
 78
     8
140
2.5
141
2.5
143
0.0394
147
0.625
171
     4
172
     1
273
     8
274
     4
277
     6
340
10
  0
DIMSTYLE
105
3B45
102
{ACAD_REACTORS
330
4147
330
5375
330
413D
330
413B
330
413C
330
51F7
330
535F
102
}
330
A
100
AcDbSymbolTableRecord
100
AcDbDimStyleTableRecord
  2
２44５
 70
     0
 40
2.5
 41
3.0
 42
0.0
 43
10.0
 44
1.0
 47
0.5
 73
     0
 74
     0
 77
     3
 78
     8
140
3.2
141
0.0
146
0.75
147
1.0
172
     1
173
     1
271
     3
272
     3
284
     8
340
20
341
E20
343
E20
344
E20
  0
ENDTAB
  0
TABLE
  2
BLOCK_RECORD
  5
1
330
0
100
AcDbSymbolTable
 70
    63
  0
BLOCK_RECORD
  5
18
330
1
100
AcDbSymbolTableRecord
100
AcDbBlockTableRecord
  2
*MODEL_SPACE
340
426D
  0
BLOCK_RECORD
  5
15
330
1
100
AcDbSymbolTableRecord
100
AcDbBlockTableRecord
  2
*PAPER_SPACE
340
426E
  0
BLOCK_RECORD
  5
E20
330
1
100
AcDbSymbolTableRecord
100
AcDbBlockTableRecord
  2
_OPEN
340
0
102
{BLKREFS
331
58A3
331
58A4
331
58AE
331
58AF
331
58B9
331
58BA
331
58C2
331
58C3
331
58CB
331
58CC
331
58D4
331
58D5
331
58DD
331
58DE
331
58E6
331
58E7
331
58EF
331
58F0
331
58F8
331
58F9
331
5901
331
5902
331
590A
331
590B
331
5913
331
5914
331
591C
331
591D
331
5E8A
331
5E8B
331
5E93
331
5E94
331
5E9C
331
5E9D
331
5EA5
331
5EA6
331
5EAE
331
5EAF
331
5EB7
331
5EB8
331
5EC0
331
5EC1
331
5EC9
331
5ECA
331
5ED2
331
5ED3
331
5EDB
331
5EDC
331
5EE4
331
5EE5
331
5EED
331
5EEE
331
5EF6
331
5EF7
102
}
  0
ENDTAB
  0
ENDSEC
  0
SECTION
  2
BLOCKS
  0
BLOCK
  5
36
330
18
100
AcDbEntity
  8
0
100
AcDbBlockBegin
  2
*MODEL_SPACE
 70
     0
 10
0.0
 20
0.0
 30
0.0
  3
*MODEL_SPACE
  1

  0
ENDBLK
  5
37
330
18
100
AcDbEntity
  8
0
100
AcDbBlockEnd
  0
BLOCK
  5
34
330
15
100
AcDbEntity
 67
     1
  8
0
100
AcDbBlockBegin
  2
*PAPER_SPACE
 70
     0
 10
0.0
 20
0.0
 30
0.0
  3
*PAPER_SPACE
  1

  0
ENDBLK
  5
35
330
15
100
AcDbEntity
 67
     1
  8
0
100
AcDbBlockEnd
  0
BLOCK
  5
E24
330
E20
100
AcDbEntity
  8
0
100
AcDbBlockBegin
  2
_OPEN
 70
     0
 10
0.0
 20
0.0
 30
0.0
  3
_OPEN
  1

  0
LINE
  5
E21
330
E20
100
AcDbEntity
  8
0
  6
ByBlock
 62
     0
100
AcDbLine
 10
-1.0
 20
0.1666666666666666
 30
0.0
 11
0.0
 21
0.0
 31
0.0
  0
LINE
  5
E22
330
E20
100
AcDbEntity
  8
0
  6
ByBlock
 62
     0
100
AcDbLine
 10
0.0
 20
0.0
 30
0.0
 11
-1.0
 21
-0.1666666666666666
 31
0.0
  0
LINE
  5
E23
330
E20
100
AcDbEntity
  8
0
  6
ByBlock
 62
     0
100
AcDbLine
 10
0.0
 20
0.0
 30
0.0
 11
-1.0
 21
0.0
 31
0.0
  0
ENDBLK
  5
E25
330
E20
100
AcDbEntity
  8
0
100
AcDbBlockEnd
  0
ENDSEC
  0
SECTION
  2
ENTITIES
  0
CIRCLE
  5
5927
330
18
100
AcDbEntity
  8
DRAW2
100
AcDbCircle
 10
2586.000000353827
 20
774.0404374471654
 30
0.0
 40
123.0
  0
CIRCLE
  5
5928
330
18
100
AcDbEntity
  8
DRAW2
100
AcDbCircle
 10
2586.000000353827
 20
774.0404374471654
 30
0.0
 40
118.0
  0
CIRCLE
  5
5929
330
18
100
AcDbEntity
  8
DRAW2
100
AcDbCircle
 10
2586.000000353827
 20
774.0404374471654
 30
0.0
 40
163.0
  0
ARC
  5
592C
330
18
100
AcDbEntity
  8
DRAW2
100
AcDbCircle
 10
2599.261600353827
 20
367.4885392001964
 30
0.0
 40
300.0
100
AcDbArc
 50
279.4272252386714
 51
292.3528499999999
  0
ARC
  5
592D
330
18
100
AcDbEntity
  8
DRAW2
100
AcDbCircle
 10
2641.000000353827
 20
121.4061392001964
 30
0.0
 40
50.0
100
AcDbArc
 50
278.511064548703
 51
321.13341
  0
ARC
  5
592F
330
18
100
AcDbEntity
  8
DRAW2
100
AcDbCircle
 10
2661.000000353826
 20
170.0307392001963
 30
0.0
 40
100.0
100
AcDbArc
 50
262.5296978795398
 51
294.7785799999999
  0
LINE
  5
5930
330
18
100
AcDbEntity
  8
DRAW2
100
AcDbLine
 10
2470.739990353826
 20
128.0307392001962
 30
0.0
 11
2701.842220353826
 21
128.0307392001962
 31
0.0
  0
LINE
  5
5931
330
18
100
AcDbEntity
  8
DRAW2
100
AcDbLine
 10
2742.140930702892
 20
92.0307492001965
 30
0.0
 11
2426.500000353826
 21
92.0307492001965
 31
0.0
  0
LINE
  5
5932
330
18
100
AcDbEntity
  8
DRAW2
100
AcDbLine
 10
2463.000000353826
 20
357.5307492001964
 30
0.0
 11
2709.000000353826
 21
357.5307492001964
 31
0.0
  0
LINE
  5
5933
330
18
100
AcDbEntity
  8
DRAW2
100
AcDbLine
 10
2462.999940353826
 20
314.5307492001963
 30
0.0
 11
2709.000000353826
 21
314.5307492001963
 31
0.0
  0
LINE
  5
5934
330
18
100
AcDbEntity
  8
DRAW2
100
AcDbLine
 10
2467.999970353827
 20
362.5307492001963
 30
0.0
 11
2704.000000353826
 21
362.5307492001963
 31
0.0
  0
LINE
  5
5935
330
18
100
AcDbEntity
  8
DRAW2
100
AcDbLine
 10
2426.500035559092
 20
170.0307392001963
 30
0.0
 11
2749.000000353826
 21
170.0307392001963
 31
0.0
  0
LINE
  5
5936
330
18
100
AcDbEntity
  8
DRAW2
100
AcDbLine
 10
2426.500035253748
 20
170.5306894316828
 30
0.0
 11
2748.000060446419
 21
170.5307192001991
 31
0.0
  0
LINE
  5
5937
330
18
100
AcDbEntity
  8
DRAW2
100
AcDbLine
 10
2747.000060458546
 20
188.5307492001959
 30
0.0
 11
2426.500024260224
 21
188.5307492001959
 31
0.0
  0
ARC
  5
593A
330
18
100
AcDbEntity
  8
DRAW2
100
AcDbCircle
 10
2586.000000353827
 20
409.5307492001963
 30
0.0
 40
20.5
100
AcDbArc
 50
310.0631
 51
229.9368999999999
  0
LINE
  5
593E
330
18
100
AcDbEntity
  8
DRAW2
100
AcDbLine
 10
2379.500000120256
 20
75.53074920019594
 30
0.0
 11
2379.500000120256
 21
206.0307492001961
 31
0.0
  0
LINE
  5
593F
330
18
100
AcDbEntity
  8
HIDDEN
100
AcDbLine
 10
2359.500000353826
 20
62.37183489080962
 30
0.0
 11
2359.500000120255
 21
206.0307492001961
 31
0.0
  0
LINE
  5
5940
330
18
100
AcDbEntity
  8
DRAW2
100
AcDbLine
 10
2426.500000353826
 20
50.4182498759448
 30
0.0
 11
2426.500000353826
 21
138.9563498759449
 31
0.0
  0
LINE
  5
5941
330
18
100
AcDbEntity
  8
DRAW2
100
AcDbLine
 10
2333.00000000476
 20
50.40619940385005
 30
0.0
 11
2333.000000004761
 21
193.7397386964669
 31
0.0
  0
LINE
  5
5945
330
18
100
AcDbEntity
  8
DRAW2
100
AcDbLine
 10
2382.000000353826
 20
50.41824987594495
 30
0.0
 11
2382.000000353826
 21
210.5307492001957
 31
0.0
  0
LINE
  5
5946
330
18
100
AcDbEntity
  8
DRAW2
100
AcDbLine
 10
2377.499615522769
 20
50.41824987594492
 30
0.0
 11
2377.499615522773
 21
210.5307491325
 31
0.0
  0
LINE
  5
5948
330
18
100
AcDbEntity
  8
DRAW2
100
AcDbLine
 10
2457.399960353826
 20
90.03073920019625
 30
0.0
 11
2437.399960353826
 21
90.03073920019625
 31
0.0
  0
ARC
  5
5949
330
18
100
AcDbEntity
  8
DRAW2
100
AcDbCircle
 10
2454.761176285994
 20
26.37564787251511
 30
0.0
 40
4.344898672318797
100
AcDbArc
 50
235.6157525319537
 51
304.3842474680423
  0
LINE
  5
594A
330
18
100
AcDbEntity
  8
DRAW2
100
AcDbLine
 10
2455.899960353826
 20
22.03074920019634
 30
0.0
 11
2438.899960353826
 21
22.03074920019634
 31
0.0
  0
ARC
  5
594B
330
18
100
AcDbEntity
  8
DRAW2
100
AcDbCircle
 10
2454.761176285994
 20
83.18585052787733
 30
0.0
 40
4.344898672318797
100
AcDbArc
 50
55.61575253195769
 51
124.3842474680461
  0
LINE
  5
594C
330
18
100
AcDbEntity
  8
DRAW2
100
AcDbLine
 10
2456.599960353826
 20
87.53074920019622
 30
0.0
 11
2438.199960353826
 21
87.53074920019612
 31
0.0
  0
LINE
  5
594D
330
18
100
AcDbEntity
  8
DRAW2
100
AcDbLine
 10
2456.599960353826
 20
90.03073920019625
 30
0.0
 11
2438.199960353826
 21
90.03073920019625
 31
0.0
  0
LINE
  5
594E
330
18
100
AcDbEntity
  8
DRAW2
100
AcDbLine
 10
2335.000000353826
 20
48.41824987594495
 30
0.0
 11
2375.499615522769
 21
48.41824987594498
 31
0.0
  0
ARC
  5
5950
330
18
100
AcDbEntity
  8
DRAW2
100
AcDbCircle
 10
2335.000000353826
 20
50.4182498759452
 30
0.0
 40
2.0
100
AcDbArc
 50
180.0
 51
270.00001
  0
LINE
  5
5951
330
18
100
AcDbEntity
  8
DRAW2
  6
Continuous
100
AcDbLine
 10
2320.348511053826
 20
80.50042975019596
 30
0.0
 11
2327.500000353826
 21
80.50042975019596
 31
0.0
  0
LINE
  5
5952
330
18
100
AcDbEntity
  8
DRAW2
  6
Continuous
100
AcDbLine
 10
2320.348483911092
 20
75.01559520176755
 30
0.0
 11
2327.500003711092
 21
75.01559520176755
 31
0.0
  0
LINE
  5
5953
330
18
100
AcDbEntity
  8
DRAW2
  6
Continuous
100
AcDbLine
 10
2320.348495853826
 20
58.561113750196
 30
0.0
 11
2327.500000353826
 21
58.561113750196
 31
0.0
  0
LINE
  5
5954
330
18
100
AcDbEntity
  8
DRAW2
  6
Continuous
100
AcDbLine
 10
2320.348499211092
 20
64.04594490176743
 30
0.0
 11
2327.500003711092
 21
64.04594490176743
 31
0.0
  0
LINE
  5
5955
330
18
100
AcDbEntity
  8
DRAW2
  6
Continuous
100
AcDbLine
 10
2319.500000353826
 20
60.03073395019601
 30
0.0
 11
2319.500000353826
 21
79.03076445019599
 31
0.0
  0
ARC
  5
5956
330
18
100
AcDbEntity
  8
DRAW2
  6
Continuous
100
AcDbCircle
 10
2337.651733353826
 20
69.53077975019596
 30
0.0
 40
18.151737
100
AcDbArc
 50
162.4123269999999
 51
197.5877499999999
  0
LINE
  5
5957
330
18
100
AcDbEntity
  8
DRAW2
  6
Continuous
100
AcDbLine
 10
2320.348495853826
 20
58.561113750196
 30
0.0
 11
2319.500004153826
 21
60.03074475019605
 31
0.0
  0
ARC
  5
5958
330
18
100
AcDbEntity
  8
DRAW2
  6
Continuous
100
AcDbCircle
 10
2324.356125253826
 20
61.30353065019597
 30
0.0
 40
4.856120099999999
100
AcDbArc
 50
145.616205
 51
205.6176999999999
  0
LINE
  5
5959
330
18
100
AcDbEntity
  8
DRAW2
  6
Continuous
100
AcDbLine
 10
2319.499999353826
 20
79.03077115019596
 30
0.0
 11
2320.348509653826
 21
80.50043475019595
 31
0.0
  0
ARC
  5
595A
330
18
100
AcDbEntity
  8
DRAW2
  6
Continuous
100
AcDbCircle
 10
2324.356048953827
 20
77.75801365019595
 30
0.0
 40
4.856048099999999
100
AcDbArc
 50
154.3845799999999
 51
214.3844199999999
  0
LINE
  5
595B
330
18
100
AcDbEntity
  8
DRAW2
  6
Continuous
100
AcDbLine
 10
2330.500000353826
 20
57.5306797501957
 30
0.0
 11
2330.500000353826
 21
81.53067975019576
 31
0.0
  0
LINE
  5
595C
330
18
100
AcDbEntity
  8
DRAW2
  6
Continuous
100
AcDbLine
 10
2327.500000353826
 20
58.561113750196
 30
0.0
 11
2327.500000353826
 21
80.50042975019596
 31
0.0
  0
LINE
  5
595D
330
18
100
AcDbEntity
  8
DRAW2
  6
Continuous
100
AcDbLine
 10
2327.499958353826
 20
68.95343277019595
 30
0.0
 11
2330.499966753826
 21
70.6854886501959
 31
0.0
  0
LINE
  5
595E
330
18
100
AcDbEntity
  8
DRAW2
  6
Continuous
100
AcDbLine
 10
2327.499993653826
 20
68.37610155019593
 30
0.0
 11
2330.499949053826
 21
70.10812685019596
 31
0.0
  0
LINE
  5
595F
330
18
100
AcDbEntity
  8
DRAW2
  6
Continuous
100
AcDbLine
 10
2327.500000353826
 20
58.79283022229106
 30
0.0
 11
2330.500000353826
 21
58.79283022229106
 31
0.0
  0
LINE
  5
5960
330
18
100
AcDbEntity
  8
DRAW2
100
AcDbLine
 10
2333.000000353826
 20
57.53067975019575
 30
0.0
 11
2330.500000353826
 21
57.5306797501957
 31
0.0
  0
LINE
  5
5961
330
18
100
AcDbEntity
  8
DRAW2
  6
Continuous
100
AcDbLine
 10
2327.500000353826
 20
80.29283022229106
 30
0.0
 11
2330.500000353826
 21
80.29283022229106
 31
0.0
  0
LINE
  5
5962
330
18
100
AcDbEntity
  8
DRAW2
100
AcDbLine
 10
2333.000000353826
 20
81.53067975019576
 30
0.0
 11
2330.500000353826
 21
81.53067975019576
 31
0.0
  0
LINE
  5
5963
330
18
100
AcDbEntity
  8
DRAW2
100
AcDbLine
 10
2424.500000353826
 20
48.41824987594481
 30
0.0
 11
2384.000000353826
 21
48.41824987594495
 31
0.0
  0
ARC
  5
5964
330
18
100
AcDbEntity
  8
DRAW2
100
AcDbCircle
 10
2375.499615522769
 20
50.41824987594498
 30
0.0
 40
2.0
100
AcDbArc
 50
270.0
 51
359.9999999999981
  0
ARC
  5
5965
330
18
100
AcDbEntity
  8
DRAW2
100
AcDbCircle
 10
2384.000000353826
 20
50.41824987594495
 30
0.0
 40
2.0
100
AcDbArc
 50
180.0
 51
269.9999999999997
  0
LINE
  5
5966
330
18
100
AcDbEntity
  8
HIDDEN
100
AcDbLine
 10
2359.500000120255
 20
62.37183489080962
 30
0.0
 11
2377.499615522769
 21
62.37183489080962
 31
0.0
  0
LINE
  5
5967
330
18
100
AcDbEntity
  8
HIDDEN
100
AcDbLine
 10
2359.500000120255
 20
77.03074920019623
 30
0.0
 11
2379.500000120256
 21
77.03074920019623
 31
0.0
  0
LINE
  5
5968
330
18
100
AcDbEntity
  8
DRAW2
100
AcDbLine
 10
2379.500000120256
 20
62.37183489080962
 30
0.0
 11
2377.499615522769
 21
62.37183489080962
 31
0.0
  0
LINE
  5
5969
330
18
100
AcDbEntity
  8
DRAW2
100
AcDbLine
 10
2379.500000120256
 20
62.37183489080962
 30
0.0
 11
2379.500000120256
 21
63.53074920019764
 31
0.0
  0
LINE
  5
596A
330
18
100
AcDbEntity
  8
DRAW2
100
AcDbLine
 10
2377.499615522769
 20
63.53074920019759
 30
0.0
 11
2382.000000353826
 21
63.53074920019759
 31
0.0
  0
LINE
  5
596B
330
18
100
AcDbEntity
  8
DRAW2
100
AcDbLine
 10
2377.49961552277
 20
75.53074920019759
 30
0.0
 11
2382.000000353826
 21
75.53074920019764
 31
0.0
  0
LINE
  5
596C
330
18
100
AcDbEntity
  8
DRAW2
100
AcDbLine
 10
2379.499965718839
 20
79.03074920019645
 30
0.0
 11
2380.999965718839
 21
79.03074920019645
 31
0.0
  0
ARC
  5
596D
330
18
100
AcDbEntity
  8
DRAW2
100
AcDbCircle
 10
2380.999965718839
 20
77.03074920019645
 30
0.0
 40
2.0
100
AcDbArc
 50
59.99885427722749
 51
90.00000865142139
  0
LINE
  5
596E
330
18
100
AcDbEntity
  8
DRAW2
100
AcDbLine
 10
2442.492483065713
 20
86.77155982164203
 30
0.0
 11
2442.492483065715
 21
22.78993857875144
 31
0.0
  0
LINE
  5
596F
330
18
100
AcDbEntity
  8
DRAW2
100
AcDbLine
 10
2437.585005777601
 20
86.77155982164038
 30
0.0
 11
2437.585005777603
 21
22.7899385787511
 31
0.0
  0
LINE
  5
5970
330
18
100
AcDbEntity
  8
DRAW2
100
AcDbLine
 10
2452.307437641939
 20
86.77155982164192
 30
0.0
 11
2452.307437641938
 21
22.7899385787511
 31
0.0
  0
ARC
  5
5971
330
18
100
AcDbEntity
  8
DRAW2
100
AcDbCircle
 10
2424.500000353826
 20
50.4182498759448
 30
0.0
 40
2.0
100
AcDbArc
 50
269.9999999999997
 51
0.0000000000000382
  0
ARC
  5
5972
330
18
100
AcDbEntity
  8
DRAW2
100
AcDbCircle
 10
2440.038744421658
 20
26.37564787251511
 30
0.0
 40
4.344898672318797
100
AcDbArc
 50
235.6157525319577
 51
304.3842474680461
  0
LINE
  5
5973
330
18
100
AcDbEntity
  8
DRAW2
100
AcDbLine
 10
2438.899960353826
 20
22.03074920019634
 30
0.0
 11
2437.585005777603
 21
22.7899385787511
 31
0.0
  0
ARC
  5
5974
330
18
100
AcDbEntity
  8
DRAW2
100
AcDbCircle
 10
2447.399960353827
 20
38.27155982163884
 30
0.0
 40
16.24081062144249
100
AcDbArc
 50
252.4120462260022
 51
287.5879537739943
  0
LINE
  5
5975
330
18
100
AcDbEntity
  8
DRAW3
100
AcDbLine
 10
2426.500000353826
 20
74.655749200196
 30
0.0
 11
2433.000000353827
 21
74.655749200196
 31
0.0
  0
LINE
  5
5976
330
18
100
AcDbEntity
  8
DRAW2
100
AcDbLine
 10
2426.500000353826
 20
75.530749200196
 30
0.0
 11
2432.124954296347
 21
75.530749200196
 31
0.0
  0
LINE
  5
5977
330
18
100
AcDbEntity
  8
DRAW3
100
AcDbLine
 10
2426.500000353826
 20
64.40580919956454
 30
0.0
 11
2433.000000353827
 21
64.4058091995646
 31
0.0
  0
LINE
  5
5978
330
18
100
AcDbEntity
  8
DRAW2
100
AcDbLine
 10
2426.500000353826
 20
63.530749200196
 30
0.0
 11
2432.124954296347
 21
63.530749200196
 31
0.0
  0
LINE
  5
5979
330
18
100
AcDbEntity
  8
DRAW2
100
AcDbLine
 10
2433.000000353827
 20
64.40574920019662
 30
0.0
 11
2433.000000353827
 21
74.655749200196
 31
0.0
  0
LINE
  5
597A
330
18
100
AcDbEntity
  8
DRAW2
100
AcDbLine
 10
2432.124954296347
 20
63.53074920019622
 30
0.0
 11
2432.124954296347
 21
75.53074920019622
 31
0.0
  0
LINE
  5
597B
330
18
100
AcDbEntity
  8
DRAW2
100
AcDbLine
 10
2432.124954296347
 20
63.530749200196
 30
0.0
 11
2433.000000353827
 21
64.40574920019622
 31
0.0
  0
ARC
  5
597C
330
18
100
AcDbEntity
  8
DRAW2
100
AcDbCircle
 10
2440.038744421658
 20
83.18585052787733
 30
0.0
 40
4.344898672318797
100
AcDbArc
 50
55.61575253195385
 51
124.3842474680423
  0
LINE
  5
597D
330
18
100
AcDbEntity
  8
DRAW2
100
AcDbLine
 10
2437.399960353826
 20
90.03073920019625
 30
0.0
 11
2437.399960353826
 21
92.03073920019624
 31
0.0
  0
LINE
  5
597E
330
18
100
AcDbEntity
  8
DRAW2
100
AcDbLine
 10
2438.899960353826
 20
87.53074920019622
 30
0.0
 11
2437.585005777603
 21
86.77155982164135
 31
0.0
  0
LINE
  5
597F
330
18
100
AcDbEntity
  8
DRAW2
100
AcDbLine
 10
2438.199960353826
 20
90.03073920019625
 30
0.0
 11
2438.199960353826
 21
87.53074920019622
 31
0.0
  0
LINE
  5
5980
330
18
100
AcDbEntity
  8
DRAW2
100
AcDbLine
 10
2432.124954296347
 20
75.53074920019622
 30
0.0
 11
2433.000000353827
 21
74.655749200196
 31
0.0
  0
LINE
  5
5981
330
18
100
AcDbEntity
  8
DRAW2
100
AcDbLine
 10
2446.389597382744
 20
90.03074920019622
 30
0.0
 11
2447.832973055719
 21
87.53074920019633
 31
0.0
  0
LINE
  5
5982
330
18
100
AcDbEntity
  8
DRAW2
100
AcDbLine
 10
2446.966947651934
 20
90.03074920019622
 30
0.0
 11
2448.410323324908
 21
87.53074920019633
 31
0.0
  0
ARC
  5
5983
330
18
100
AcDbEntity
  8
DRAW2
100
AcDbCircle
 10
2447.399960353827
 20
71.28993857875371
 30
0.0
 40
16.24081062144249
100
AcDbArc
 50
72.41204622600562
 51
107.5879537739977
  0
ARC
  5
5984
330
18
100
AcDbEntity
  8
DRAW2
100
AcDbCircle
 10
2572.738400353827
 20
367.4885392001964
 30
0.0
 40
300.0
100
AcDbArc
 50
261.8334375767917
 51
268.33713
  0
LWPOLYLINE
  5
5985
330
18
100
AcDbEntity
  8
DRAW2
100
AcDbPolyline
 90
        4
 70
     0
 43
0.0
 10
2572.358700353826
 20
67.62593920019646
 42
-0.03580531
 10
2560.513050353826
 20
69.60773920019625
 42
-0.038763599
 10
2549.093460353827
 20
73.32173920019641
 42
-0.0420894173503982
 10
2538.017566669234
 20
79.06050542295571
  0
LWPOLYLINE
  5
5986
330
18
100
AcDbEntity
  8
DRAW2
100
AcDbPolyline
 90
        4
 70
     0
 43
0.0
 10
2538.414937053826
 20
81.78016759053713
 42
0.0394569949986983
 10
2549.458680353826
 20
75.27753920019637
 42
0.038449671
 10
2561.388090353826
 20
70.59023920019632
 42
0.036077628
 10
2573.882320353826
 20
67.71993920019628
  0
ARC
  5
5987
330
18
100
AcDbEntity
  8
DRAW2
100
AcDbCircle
 10
2531.000000353826
 20
121.4061392001964
 30
0.0
 40
50.0
100
AcDbArc
 50
218.8665699999999
 51
261.4889354512972
  0
ARC
  5
5988
330
18
100
AcDbEntity
  8
DRAW2
100
AcDbCircle
 10
2511.000000353826
 20
170.0307392001963
 30
0.0
 40
100.0
100
AcDbArc
 50
237.4625433197534
 51
277.4703021204603
  0
ARC
  5
5989
330
18
100
AcDbEntity
  8
DRAW2
100
AcDbCircle
 10
2572.738400353827
 20
367.4885392001964
 30
0.0
 40
300.0
100
AcDbArc
 50
247.6471499999999
 51
260.5727747613285
  0
LINE
  5
598A
330
18
100
AcDbEntity
  8
DRAW2
100
AcDbLine
 10
2457.214914930049
 20
86.77155982164203
 30
0.0
 11
2457.21491493005
 21
22.7899385787511
 31
0.0
  0
LINE
  5
598B
330
18
100
AcDbEntity
  8
DRAW2
100
AcDbLine
 10
2455.899960353826
 20
22.03074920019634
 30
0.0
 11
2457.21491493005
 21
22.7899385787511
 31
0.0
  0
LINE
  5
598C
330
18
100
AcDbEntity
  8
DRAW2
100
AcDbLine
 10
2457.399960353826
 20
90.03073920019625
 30
0.0
 11
2457.399960353826
 21
92.03073920019624
 31
0.0
  0
LINE
  5
598D
330
18
100
AcDbEntity
  8
DRAW2
100
AcDbLine
 10
2455.899960353826
 20
87.53074920019622
 30
0.0
 11
2457.21491493005
 21
86.77155982164135
 31
0.0
  0
LINE
  5
598E
330
18
100
AcDbEntity
  8
DRAW2
100
AcDbLine
 10
2456.599960353826
 20
90.03073920019625
 30
0.0
 11
2456.599960353826
 21
87.53074920019622
 31
0.0
  0
LINE
  5
598F
330
18
100
AcDbEntity
  8
DRAW2
100
AcDbLine
 10
2537.799980353826
 20
87.40625799717554
 30
0.0
 11
2519.399980353826
 21
87.40625799717554
 31
0.0
  0
LINE
  5
5990
330
18
100
AcDbEntity
  8
DRAW2
100
AcDbLine
 10
2538.589017555719
 20
90.03056752943564
 30
0.0
 11
2518.589017555719
 21
90.03056752943564
 31
0.0
  0
ARC
  5
5991
330
18
100
AcDbEntity
  8
DRAW2
100
AcDbCircle
 10
2528.589017555699
 20
95.77168550019649
 30
0.0
 40
16.24093999999999
100
AcDbArc
 50
252.4122100000016
 51
287.5878439999976
  0
LINE
  5
5992
330
18
100
AcDbEntity
  8
DRAW2
100
AcDbLine
 10
2520.088987055698
 20
79.53074920019651
 30
0.0
 11
2537.089017555699
 21
79.53074920019651
 31
0.0
  0
LINE
  5
5993
330
18
100
AcDbEntity
  8
DRAW2
100
AcDbLine
 10
2532.849980353826
 20
70.53074920019634
 30
0.0
 11
2524.349980353826
 21
70.53074920019634
 31
0.0
  0
LINE
  5
5994
330
18
100
AcDbEntity
  8
DRAW2
100
AcDbLine
 10
2533.599980353826
 20
71.28074920019628
 30
0.0
 11
2523.599980353826
 21
71.28074920019628
 31
0.0
  0
LINE
  5
5995
330
18
100
AcDbEntity
  8
DRAW2
100
AcDbLine
 10
2518.774060855719
 20
87.40625799717554
 30
0.0
 11
2538.414937053826
 21
87.40625799717554
 31
0.0
  0
LINE
  5
5996
330
18
100
AcDbEntity
  8
DRAW3
100
AcDbLine
 10
2524.349980353826
 20
70.53074920019634
 30
0.0
 11
2524.349980353826
 21
79.53074920019651
 31
0.0
  0
LINE
  5
5997
330
18
100
AcDbEntity
  8
DRAW2
100
AcDbLine
 10
2523.599980353826
 20
71.28074920019628
 30
0.0
 11
2523.599980353826
 21
79.53074920019651
 31
0.0
  0
LINE
  5
5998
330
18
100
AcDbEntity
  8
DRAW2
100
AcDbLine
 10
2524.349980353826
 20
70.53074920019628
 30
0.0
 11
2523.599980353826
 21
71.28074920019628
 31
0.0
  0
LINE
  5
5999
330
18
100
AcDbEntity
  8
DRAW2
100
AcDbLine
 10
2519.399980353826
 20
89.90625799717554
 30
0.0
 11
2519.399980353826
 21
87.40625799717554
 31
0.0
  0
LINE
  5
599A
330
18
100
AcDbEntity
  8
DRAW2
100
AcDbLine
 10
2518.589017555719
 20
90.03056752943564
 30
0.0
 11
2518.589017555719
 21
92.03056752943565
 31
0.0
  0
LINE
  5
599C
330
18
100
AcDbEntity
  8
DRAW2
100
AcDbLine
 10
2518.774057055699
 20
80.28993930019657
 30
0.0
 11
2520.088986055698
 21
79.53076540019663
 31
0.0
  0
ARC
  5
599D
330
18
100
AcDbEntity
  8
DRAW2
100
AcDbCircle
 10
2521.227811455698
 20
83.87570460019645
 30
0.0
 40
4.3449545
100
AcDbArc
 50
244.3823400000015
 51
304.3836480000022
  0
LINE
  5
599E
330
18
100
AcDbEntity
  8
DRAW2
100
AcDbLine
 10
2518.774060855719
 20
80.28993710625554
 30
0.0
 11
2518.774060855719
 21
87.40625799717554
 31
0.0
  0
LINE
  5
599F
330
18
100
AcDbEntity
  8
DRAW2
100
AcDbLine
 10
2523.681546855719
 20
80.2899264459919
 30
0.0
 11
2523.681546855719
 21
87.40625799717554
 31
0.0
  0
LINE
  5
59A0
330
18
100
AcDbEntity
  8
DRAW2
100
AcDbLine
 10
2533.599980353827
 20
71.28074920019639
 30
0.0
 11
2533.599980353826
 21
79.53074920019651
 31
0.0
  0
LINE
  5
59A1
330
18
100
AcDbEntity
  8
DRAW3
100
AcDbLine
 10
2532.849980353826
 20
70.53074920019634
 30
0.0
 11
2532.849980353826
 21
79.53074920019651
 31
0.0
  0
ARC
  5
59A2
330
18
100
AcDbEntity
  8
DRAW2
100
AcDbCircle
 10
2531.000000353826
 20
121.4061392001964
 30
0.0
 40
50.0
100
AcDbArc
 50
272.9807019292554
 51
288.6800899999999
  0
LINE
  5
59A3
330
18
100
AcDbEntity
  8
DRAW2
100
AcDbLine
 10
2541.000000353827
 20
72.03073920019625
 30
0.0
 11
2552.429440353826
 21
72.03073920019625
 31
0.0
  0
LINE
  5
59A4
330
18
100
AcDbEntity
  8
DRAW2
100
AcDbLine
 10
2532.849980353827
 20
70.53074920019628
 30
0.0
 11
2533.599980353826
 21
71.28074920019628
 31
0.0
  0
ARC
  5
59A5
330
18
100
AcDbEntity
  8
DRAW2
100
AcDbCircle
 10
2541.000000353827
 20
74.03073920019631
 30
0.0
 40
2.0
100
AcDbArc
 50
243.41588
 51
270.00001
  0
LINE
  5
59A6
330
18
100
AcDbEntity
  8
DRAW2
100
AcDbLine
 10
2533.599980353827
 20
75.03073920019625
 30
0.0
 11
2545.284850353827
 21
75.03073920019625
 31
0.0
  0
LINE
  5
59A7
330
18
100
AcDbEntity
  8
DRAW2
100
AcDbLine
 10
2537.799980353826
 20
89.90625799717554
 30
0.0
 11
2537.799980353826
 21
87.40625799717554
 31
0.0
  0
LINE
  5
59A8
330
18
100
AcDbEntity
  8
DRAW2
100
AcDbLine
 10
2538.589017555719
 20
90.03056752943564
 30
0.0
 11
2538.589017555719
 21
92.03056752943565
 31
0.0
  0
LINE
  5
59A9
330
18
100
AcDbEntity
  8
DRAW2
100
AcDbLine
 10
2537.089030955698
 20
79.53076680019638
 30
0.0
 11
2538.403978955698
 21
80.28995260019645
 31
0.0
  0
ARC
  5
59AA
330
18
100
AcDbEntity
  8
DRAW2
100
AcDbCircle
 10
2535.950238855698
 20
83.87565890019635
 30
0.0
 40
4.3449049
100
AcDbArc
 50
235.6158800000016
 51
295.6157409999972
  0
LINE
  5
59AB
330
18
100
AcDbEntity
  8
DRAW2
100
AcDbLine
 10
2533.496503555719
 20
80.28993977180936
 30
0.0
 11
2533.496503555719
 21
87.40625799717554
 31
0.0
  0
LINE
  5
59AC
330
18
100
AcDbEntity
  8
DRAW2
100
AcDbLine
 10
2538.403974255719
 20
80.28994988666136
 30
0.0
 11
2538.403974255719
 21
87.40625799717554
 31
0.0
  0
LWPOLYLINE
  5
59AE
330
18
100
AcDbEntity
  8
DRAW2
100
AcDbPolyline
 90
        4
 70
     0
 43
0.0
 10
2601.509910353826
 20
67.82433920019645
 42
0.034212518
 10
2612.701720353826
 20
69.91253920019636
 42
0.037015631
 10
2623.483690353826
 20
73.5640392001963
 42
0.0399029960471353
 10
2633.982487711143
 20
79.06048693421786
  0
LINE
  5
59AF
330
18
100
AcDbEntity
  8
DRAW2
100
AcDbLine
 10
2610.946230353826
 20
75.03073920019625
 30
0.0
 11
2588.000000353826
 21
75.03073920019625
 31
0.0
  0
ARC
  5
59B0
330
18
100
AcDbEntity
  8
DRAW2
100
AcDbCircle
 10
2586.000000353827
 20
108.0307392001963
 30
0.0
 40
46.0
100
AcDbArc
 50
236.81347
 51
303.1862999999999
  0
LWPOLYLINE
  5
59B1
330
18
100
AcDbEntity
  8
DRAW2
100
AcDbPolyline
 90
        4
 70
     0
 43
0.0
 10
2633.585063653827
 20
81.78016759053736
 42
-0.0394569949986995
 10
2622.541320353827
 20
75.27753920019637
 42
-0.038449671
 10
2610.611900353826
 20
70.59023920019632
 42
-0.036077628
 10
2598.117680353826
 20
67.71993920019628
  0
LINE
  5
59B2
330
18
100
AcDbEntity
  8
DRAW2
100
AcDbLine
 10
2561.053770353826
 20
75.03073920019625
 30
0.0
 11
2584.000000353826
 21
75.03073920019625
 31
0.0
  0
LINE
  5
59B3
330
18
100
AcDbEntity
  8
DRAW2
100
AcDbLine
 10
2567.473880353826
 20
72.03073920019625
 30
0.0
 11
2586.000000353827
 21
72.03073920019625
 31
0.0
  0
ARC
  5
59B4
330
18
100
AcDbEntity
  8
DRAW2
100
AcDbCircle
 10
2561.053770353826
 20
77.0307392001963
 30
0.0
 40
2.0
100
AcDbArc
 50
179.9999959999999
 51
270.00001
  0
LINE
  5
59B5
330
18
100
AcDbEntity
  8
DRAW2
100
AcDbLine
 10
2565.473880353826
 20
75.03073920019625
 30
0.0
 11
2565.473880353826
 21
74.03073920019625
 31
0.0
  0
ARC
  5
59B6
330
18
100
AcDbEntity
  8
DRAW2
100
AcDbCircle
 10
2567.473880353826
 20
74.03073920019631
 30
0.0
 40
2.0
100
AcDbArc
 50
179.9999959999999
 51
270.00001
  0
LWPOLYLINE
  5
59B7
330
18
100
AcDbEntity
  8
DRAW2
100
AcDbPolyline
 90
        6
 70
     0
 43
0.0
 10
2567.999210353827
 20
90.04963920019628
 42
0.049693757
 10
2568.590510353827
 20
87.20033920019643
 42
0.035417535
 10
2569.657270353827
 20
84.48983920019628
 42
0.022086939
 10
2571.027760353826
 20
81.91683920019642
 42
0.011066696
 10
2572.563680353826
 20
79.43893920019633
 42
0.18328613
 10
2574.773440353826
 20
77.63023920019628
  0
LINE
  5
59B8
330
18
100
AcDbEntity
  8
DRAW2
100
AcDbLine
 10
2559.053770353826
 20
90.03073920019625
 30
0.0
 11
2559.053770353826
 21
77.03073920019625
 31
0.0
  0
LINE
  5
59B9
330
18
100
AcDbEntity
  8
DRAW2
100
AcDbLine
 10
2576.789860353827
 20
90.03073920019625
 30
0.0
 11
2576.789860353827
 21
78.76883920019628
 31
0.0
  0
LWPOLYLINE
  5
59BA
330
18
100
AcDbEntity
  8
DRAW2
100
AcDbPolyline
 90
       12
 70
     0
 43
0.0
 10
2574.429810353827
 20
77.87573920019628
 42
0.19472715
 10
2574.635350353826
 20
77.69983920019632
 42
0.065289757
 10
2574.906490353826
 20
77.63993920019635
 42
0.01868165
 10
2575.183980353826
 20
77.62233920019645
 42
0.015569829
 10
2575.461360353826
 20
77.62363920019635
 42
0.012000422
 10
2575.738730353826
 20
77.63933920019628
 42
0.059021138
 10
2576.011390353826
 20
77.69203920019624
 42
0.10217228
 10
2576.249390353826
 20
77.83163920019643
 42
0.052061197
 10
2576.429990353827
 20
78.04193920019639
 42
-0.021575536
 10
2576.608080353826
 20
78.25623920019626
 42
0.10402367
 10
2576.745430353826
 20
78.49563920019642
 42
0.07145709
 10
2576.789860353827
 20
78.76883920019628
  0
LWPOLYLINE
  5
59BB
330
18
100
AcDbEntity
  8
DRAW2
100
AcDbPolyline
 90
        4
 70
     0
 43
0.0
 10
2571.265500353826
 20
90.03073920019625
 42
0.083901425
 10
2571.575210353826
 20
85.64463920019631
 42
0.10840828
 10
2573.527850353826
 20
81.71973920019633
 42
0.080234411
 10
2576.789860353827
 20
78.76883920019628
  0
LINE
  5
59BC
330
18
100
AcDbEntity
  8
DRAW2
100
AcDbLine
 10
2588.000000353826
 20
72.03073920019625
 30
0.0
 11
2588.000000353826
 21
90.03073920019625
 31
0.0
  0
LINE
  5
59BD
330
18
100
AcDbEntity
  8
DRAW2
100
AcDbLine
 10
2584.000000353826
 20
72.03073920019625
 30
0.0
 11
2584.000000353826
 21
90.03073920019625
 31
0.0
  0
LINE
  5
59BE
330
18
100
AcDbEntity
  8
DRAW2
100
AcDbLine
 10
2606.526120353827
 20
75.03073920019625
 30
0.0
 11
2606.526120353827
 21
74.03073920019625
 31
0.0
  0
LINE
  5
59BF
330
18
100
AcDbEntity
  8
DRAW2
100
AcDbLine
 10
2604.526120353826
 20
72.03073920019625
 30
0.0
 11
2586.000000353827
 21
72.03073920019625
 31
0.0
  0
ARC
  5
59C1
330
18
100
AcDbEntity
  8
DRAW2
100
AcDbCircle
 10
2604.526120353826
 20
74.03073920019631
 30
0.0
 40
2.0
100
AcDbArc
 50
269.99999
 51
0.0
  0
LWPOLYLINE
  5
59C2
330
18
100
AcDbEntity
  8
DRAW2
100
AcDbPolyline
 90
       12
 70
     0
 43
0.0
 10
2597.570190353826
 20
77.87573920019628
 42
-0.19472715
 10
2597.364650353826
 20
77.69983920019632
 42
-0.065289757
 10
2597.093510353826
 20
77.63993920019635
 42
-0.01868165
 10
2596.816020353827
 20
77.62233920019645
 42
-0.015569829
 10
2596.538640353827
 20
77.62363920019635
 42
-0.012000422
 10
2596.261270353826
 20
77.63933920019628
 42
-0.059021138
 10
2595.988610353826
 20
77.69203920019624
 42
-0.10217228
 10
2595.750610353826
 20
77.83163920019643
 42
-0.052061197
 10
2595.570010353826
 20
78.04193920019639
 42
0.021575536
 10
2595.391920353826
 20
78.25623920019626
 42
-0.10402367
 10
2595.254560353826
 20
78.49563920019642
 42
-0.07145709
 10
2595.210140353827
 20
78.76883920019628
  0
LINE
  5
59C3
330
18
100
AcDbEntity
  8
DRAW2
100
AcDbLine
 10
2595.210140353827
 20
90.03073920019625
 30
0.0
 11
2595.210140353827
 21
78.76883920019628
 31
0.0
  0
LWPOLYLINE
  5
59C4
330
18
100
AcDbEntity
  8
DRAW2
100
AcDbPolyline
 90
        6
 70
     0
 43
0.0
 10
2604.000790353826
 20
90.04963920019628
 42
-0.049693757
 10
2603.409480353827
 20
87.20033920019643
 42
-0.035417535
 10
2602.342730353826
 20
84.48983920019628
 42
-0.022086939
 10
2600.972240353826
 20
81.91683920019642
 42
-0.011066696
 10
2599.436320353826
 20
79.43893920019633
 42
-0.18328613
 10
2597.226560353826
 20
77.63023920019628
  0
LWPOLYLINE
  5
59C5
330
18
100
AcDbEntity
  8
DRAW2
100
AcDbPolyline
 90
        4
 70
     0
 43
0.0
 10
2600.734500353826
 20
90.03073920019625
 42
-0.083901425
 10
2600.424790353827
 20
85.64463920019631
 42
-0.10840828
 10
2598.472150353826
 20
81.71973920019633
 42
-0.080234411
 10
2595.210140353827
 20
78.76883920019628
  0
LINE
  5
59C6
330
18
100
AcDbEntity
  8
DRAW2
100
AcDbLine
 10
2638.400020353827
 20
75.03073920019625
 30
0.0
 11
2626.715150353826
 21
75.03073920019625
 31
0.0
  0
ARC
  5
59C7
330
18
100
AcDbEntity
  8
DRAW2
100
AcDbCircle
 10
2599.261600353827
 20
367.4885392001964
 30
0.0
 40
300.0
100
AcDbArc
 50
271.66287
 51
278.1665624232082
  0
ARC
  5
59C8
330
18
100
AcDbEntity
  8
DRAW2
100
AcDbCircle
 10
2641.000000353827
 20
121.4061392001964
 30
0.0
 40
50.0
100
AcDbArc
 50
251.31992
 51
267.019298070745
  0
ARC
  5
59C9
330
18
100
AcDbEntity
  8
DRAW2
100
AcDbCircle
 10
2610.946230353826
 20
77.0307392001963
 30
0.0
 40
2.0
100
AcDbArc
 50
269.99999
 51
0.0
  0
LINE
  5
59CA
330
18
100
AcDbEntity
  8
DRAW2
100
AcDbLine
 10
2631.000000353826
 20
72.03073920019625
 30
0.0
 11
2619.570560353826
 21
72.03073920019625
 31
0.0
  0
LINE
  5
59CB
330
18
100
AcDbEntity
  8
DRAW2
100
AcDbLine
 10
2612.946230353827
 20
90.03073920019625
 30
0.0
 11
2612.946230353827
 21
77.03073920019625
 31
0.0
  0
LINE
  5
59CC
330
18
100
AcDbEntity
  8
DRAW2
100
AcDbLine
 10
2648.400020353827
 20
71.28074920019639
 30
0.0
 11
2648.400020353827
 21
79.53074920019651
 31
0.0
  0
LINE
  5
59CD
330
18
100
AcDbEntity
  8
DRAW3
100
AcDbLine
 10
2639.150020353827
 20
70.53074920019634
 30
0.0
 11
2639.150020353826
 21
79.53074920019651
 31
0.0
  0
LINE
  5
59CE
330
18
100
AcDbEntity
  8
DRAW2
100
AcDbLine
 10
2638.400020353827
 20
71.28074920019628
 30
0.0
 11
2638.400020353827
 21
79.53074920019651
 31
0.0
  0
LINE
  5
59CF
330
18
100
AcDbEntity
  8
DRAW3
100
AcDbLine
 10
2647.650020353827
 20
70.53074920019634
 30
0.0
 11
2647.650020353827
 21
79.53074920019651
 31
0.0
  0
LINE
  5
59D0
330
18
100
AcDbEntity
  8
DRAW2
100
AcDbLine
 10
2647.650020353827
 20
70.53074920019634
 30
0.0
 11
2639.150020353827
 21
70.53074920019634
 31
0.0
  0
LINE
  5
59D1
330
18
100
AcDbEntity
  8
DRAW2
100
AcDbLine
 10
2648.400020353827
 20
71.28074920019628
 30
0.0
 11
2638.400020353827
 21
71.28074920019628
 31
0.0
  0
LINE
  5
59D2
330
18
100
AcDbEntity
  8
DRAW2
100
AcDbLine
 10
2639.150020353827
 20
70.53074920019628
 30
0.0
 11
2638.400020353827
 21
71.28074920019628
 31
0.0
  0
LINE
  5
59D3
330
18
100
AcDbEntity
  8
DRAW2
100
AcDbLine
 10
2647.650020353827
 20
70.53074920019628
 30
0.0
 11
2648.400020353827
 21
71.28074920019628
 31
0.0
  0
LINE
  5
59D4
330
18
100
AcDbEntity
  8
DRAW2
100
AcDbLine
 10
2653.389057555719
 20
90.03056752943564
 30
0.0
 11
2633.389057555719
 21
90.03056752943564
 31
0.0
  0
LINE
  5
59D5
330
18
100
AcDbEntity
  8
DRAW2
100
AcDbLine
 10
2652.600020353827
 20
87.40625799717554
 30
0.0
 11
2634.200020353826
 21
87.40625799717554
 31
0.0
  0
LINE
  5
59D6
330
18
100
AcDbEntity
  8
DRAW2
100
AcDbLine
 10
2633.574100855719
 20
87.40625799717554
 30
0.0
 11
2653.214977053826
 21
87.40625799717554
 31
0.0
  0
ARC
  5
59D7
330
18
100
AcDbEntity
  8
DRAW2
100
AcDbCircle
 10
2643.389057555699
 20
95.77168550019649
 30
0.0
 40
16.24093999999999
100
AcDbArc
 50
252.4122100000016
 51
287.5878439999976
  0
LINE
  5
59D8
330
18
100
AcDbEntity
  8
DRAW2
100
AcDbLine
 10
2634.889027055699
 20
79.53074920019651
 30
0.0
 11
2651.889057555699
 21
79.53074920019651
 31
0.0
  0
LINE
  5
59D9
330
18
100
AcDbEntity
  8
DRAW2
100
AcDbLine
 10
2633.389057555719
 20
90.03056752943564
 30
0.0
 11
2633.389057555719
 21
92.03056752943565
 31
0.0
  0
LINE
  5
59DA
330
18
100
AcDbEntity
  8
DRAW2
100
AcDbLine
 10
2634.200020353826
 20
89.90625799717554
 30
0.0
 11
2634.200020353826
 21
87.40625799717554
 31
0.0
  0
ARC
  5
59DB
330
18
100
AcDbEntity
  8
DRAW2
100
AcDbCircle
 10
2636.027851455699
 20
83.87570460019645
 30
0.0
 40
4.3449545
100
AcDbArc
 50
244.3823400000015
 51
304.3836480000022
  0
LINE
  5
59DD
330
18
100
AcDbEntity
  8
DRAW2
100
AcDbLine
 10
2633.574097055699
 20
80.28993930019657
 30
0.0
 11
2634.889026055699
 21
79.53076540019663
 31
0.0
  0
LINE
  5
59DE
330
18
100
AcDbEntity
  8
DRAW2
100
AcDbLine
 10
2638.48158685572
 20
80.2899264459919
 30
0.0
 11
2638.48158685572
 21
87.40625799717554
 31
0.0
  0
LINE
  5
59DF
330
18
100
AcDbEntity
  8
DRAW2
100
AcDbLine
 10
2633.574100855719
 20
80.28993710625554
 30
0.0
 11
2633.574100855719
 21
87.40625799717554
 31
0.0
  0
LINE
  5
59E0
330
18
100
AcDbEntity
  8
DRAW2
100
AcDbLine
 10
2653.389057555719
 20
90.03056752943564
 30
0.0
 11
2653.389057555719
 21
92.03056752943565
 31
0.0
  0
LINE
  5
59E1
330
18
100
AcDbEntity
  8
DRAW2
100
AcDbLine
 10
2652.600020353826
 20
89.90625799717554
 30
0.0
 11
2652.600020353827
 21
87.40625799717554
 31
0.0
  0
ARC
  5
59E2
330
18
100
AcDbEntity
  8
DRAW2
100
AcDbCircle
 10
2650.750278855699
 20
83.87565890019635
 30
0.0
 40
4.3449049
100
AcDbArc
 50
235.6158800000016
 51
295.6157409999972
  0
LINE
  5
59E3
330
18
100
AcDbEntity
  8
DRAW2
100
AcDbLine
 10
2651.889070955699
 20
79.53076680019638
 30
0.0
 11
2653.204018955699
 21
80.28995260019645
 31
0.0
  0
LINE
  5
59E4
330
18
100
AcDbEntity
  8
DRAW2
100
AcDbLine
 10
2653.20401425572
 20
80.28994988666136
 30
0.0
 11
2653.20401425572
 21
87.40625799717554
 31
0.0
  0
LINE
  5
59E5
330
18
100
AcDbEntity
  8
DRAW2
100
AcDbLine
 10
2648.296543555719
 20
80.28993977180936
 30
0.0
 11
2648.296543555719
 21
87.40625799717554
 31
0.0
  0
LINE
  5
59E6
330
18
100
AcDbEntity
  8
DRAW2
100
AcDbLine
 10
2432.000000353827
 20
131.0307392001962
 30
0.0
 11
2468.739990353826
 21
131.0307392001962
 31
0.0
  0
LINE
  5
59E7
330
18
100
AcDbEntity
  8
DRAW2
100
AcDbLine
 10
2432.000000353827
 20
125.0307392001962
 30
0.0
 11
2468.739990353826
 21
125.0307392001962
 31
0.0
  0
LINE
  5
59E8
330
18
100
AcDbEntity
  8
DRAW2
  6
Continuous
100
AcDbLine
 10
2438.918043383452
 20
197.5307492001959
 30
0.0
 11
2455.918077324202
 21
197.5307492001959
 31
0.0
  0
ARC
  5
59E9
330
18
100
AcDbEntity
  8
DRAW2
  6
Continuous
100
AcDbCircle
 10
2454.779295183451
 20
193.1858395001959
 30
0.0
 40
4.3449049
100
AcDbArc
 50
55.61586056647438
 51
124.38412
  0
LINE
  5
59EA
330
18
100
AcDbEntity
  8
DRAW2
  6
Continuous
100
AcDbLine
 10
2436.918073883451
 20
190.5307492001959
 30
0.0
 11
2457.918073883451
 21
190.5307492001958
 31
0.0
  0
LINE
  5
59EB
330
18
100
AcDbEntity
  8
DRAW2
100
AcDbLine
 10
2333.000011410922
 20
183.494158690716
 30
0.0
 11
2377.325319967737
 21
183.494158690716
 31
0.0
  0
LINE
  5
59EE
330
18
100
AcDbEntity
  8
DRAW2
100
AcDbLine
 10
2338.665370353826
 20
212.530749200196
 30
0.0
 11
2375.499999913751
 21
212.53074923722
 31
0.0
  0
LINE
  5
59EF
330
18
100
AcDbEntity
  8
DRAW2
  6
Continuous
100
AcDbLine
 10
2319.500014429858
 20
164.2807250855905
 30
0.0
 11
2319.500014429858
 21
183.2807555855905
 31
0.0
  0
LINE
  5
59F0
330
18
100
AcDbEntity
  8
DRAW2
  6
Continuous
100
AcDbLine
 10
2327.500000353826
 20
162.8110940855905
 30
0.0
 11
2327.500000353826
 21
184.7504100855906
 31
0.0
  0
LINE
  5
59F1
330
18
100
AcDbEntity
  8
DRAW2
  6
Continuous
100
AcDbLine
 10
2330.500000353826
 20
161.7807492001934
 30
0.0
 11
2330.500000353826
 21
185.7807492001934
 31
0.0
  0
ARC
  5
59F2
330
18
100
AcDbEntity
  8
DRAW2
  6
Continuous
100
AcDbCircle
 10
2337.651745512161
 20
173.780761020295
 30
0.0
 40
18.151737
100
AcDbArc
 50
162.4123269999999
 51
197.5877499999999
  0
LINE
  5
59F6
330
18
100
AcDbEntity
  8
DRAW2
  6
Continuous
100
AcDbLine
 10
2320.34850801216
 20
168.295928220295
 30
0.0
 11
2327.50001251216
 21
168.295928220295
 31
0.0
  0
LINE
  5
59F7
330
18
100
AcDbEntity
  8
DRAW2
  6
Continuous
100
AcDbLine
 10
2320.348495853826
 20
162.8110940855905
 30
0.0
 11
2327.500000353826
 21
162.8110940855905
 31
0.0
  0
ARC
  5
59F8
330
18
100
AcDbEntity
  8
DRAW2
  6
Continuous
100
AcDbCircle
 10
2324.356135029858
 20
165.5535169855905
 30
0.0
 40
4.856120099999646
100
AcDbArc
 50
145.6162049999973
 51
205.617700000002
  0
LINE
  5
59F9
330
18
100
AcDbEntity
  8
DRAW2
  6
Continuous
100
AcDbLine
 10
2320.348506129858
 20
162.8110940855905
 30
0.0
 11
2319.500014429858
 21
164.2807250855905
 31
0.0
  0
LINE
  5
59FA
330
18
100
AcDbEntity
  8
DRAW2
  6
Continuous
100
AcDbLine
 10
2327.500000353826
 20
173.2033989310038
 30
0.0
 11
2330.500008753826
 21
174.9354548110038
 31
0.0
  0
LINE
  5
59FB
330
18
100
AcDbEntity
  8
DRAW2
  6
Continuous
100
AcDbLine
 10
2327.500035653826
 20
172.6260677110038
 30
0.0
 11
2330.499991053826
 21
174.3580930110038
 31
0.0
  0
LINE
  5
59FC
330
18
100
AcDbEntity
  8
DRAW2
100
AcDbLine
 10
2333.000000353826
 20
161.7807492001934
 30
0.0
 11
2330.500000353826
 21
161.7807492001934
 31
0.0
  0
LINE
  5
59FD
330
18
100
AcDbEntity
  8
DRAW2
  6
Continuous
100
AcDbLine
 10
2327.500000353826
 20
163.0307492001934
 30
0.0
 11
2330.500000353826
 21
163.0307492001934
 31
0.0
  0
LINE
  5
59FE
330
18
100
AcDbEntity
  8
DRAW2
  6
Continuous
100
AcDbLine
 10
2320.348498758778
 20
179.2655771438088
 30
0.0
 11
2327.500018558779
 21
179.2655771438088
 31
0.0
  0
LINE
  5
59FF
330
18
100
AcDbEntity
  8
DRAW2
  6
Continuous
100
AcDbLine
 10
2320.34850373019
 20
184.7504008080985
 30
0.0
 11
2327.49999303019
 21
184.7504008080985
 31
0.0
  0
ARC
  5
5A00
330
18
100
AcDbEntity
  8
DRAW2
  6
Continuous
100
AcDbCircle
 10
2324.356037716743
 20
182.0080015477234
 30
0.0
 40
4.856048099999999
100
AcDbArc
 50
154.3845799999999
 51
214.3844199999999
  0
LINE
  5
5A01
330
18
100
AcDbEntity
  8
DRAW2
  6
Continuous
100
AcDbLine
 10
2319.500000353826
 20
183.2807492001934
 30
0.0
 11
2320.348510653826
 21
184.7504128001934
 31
0.0
  0
ARC
  5
5A02
330
18
100
AcDbEntity
  8
DRAW2
100
AcDbCircle
 10
2285.542098672773
 20
212.7950405207339
 30
0.0
 40
51.14056048236664
100
AcDbArc
 50
338.1234845817318
 51
355.396239094731
  0
LINE
  5
5A03
330
18
100
AcDbEntity
  8
DRAW2
100
AcDbLine
 10
2333.000000353826
 20
185.7807492001934
 30
0.0
 11
2330.500000353826
 21
185.7807492001934
 31
0.0
  0
LINE
  5
5A04
330
18
100
AcDbEntity
  8
DRAW2
  6
Continuous
100
AcDbLine
 10
2327.500000353826
 20
184.5307492001934
 30
0.0
 11
2330.500000353826
 21
184.5307492001934
 31
0.0
  0
ARC
  5
5A05
330
18
100
AcDbEntity
  8
DRAW2
100
AcDbCircle
 10
2338.665370353826
 20
210.530749200196
 30
0.0
 40
2.000000000000028
100
AcDbArc
 50
90.0
 51
175.5948036764616
  0
LINE
  5
5A06
330
18
100
AcDbEntity
  8
DRAW2
100
AcDbLine
 10
2336.671278773324
 20
210.6843681071386
 30
0.0
 11
2336.517659866381
 21
208.6902765266304
 31
0.0
  0
LINE
  5
5A07
330
18
100
AcDbEntity
  8
DRAW2
100
AcDbLine
 10
2426.50005574946
 20
136.9723810764212
 30
0.0
 11
2426.500021114473
 21
193.6813910764205
 31
0.0
  0
LINE
  5
5A08
330
18
100
AcDbEntity
  8
HIDDEN
100
AcDbLine
 10
2361.026709797675
 20
167.3110395227768
 30
0.0
 11
2361.026709797675
 21
110.7504588776155
 31
0.0
  0
LINE
  5
5A09
330
18
100
AcDbEntity
  8
HIDDEN
100
AcDbLine
 10
2359.500000120255
 20
109.2237492001961
 30
0.0
 11
2379.500000120256
 21
109.8487492001961
 31
0.0
  0
LINE
  5
5A0A
330
18
100
AcDbEntity
  8
HIDDEN
100
AcDbLine
 10
2361.026709797675
 20
110.7504588776155
 30
0.0
 11
2379.500000120256
 21
111.3277492001961
 31
0.0
  0
LINE
  5
5A0B
330
18
100
AcDbEntity
  8
HIDDEN
100
AcDbLine
 10
2359.500000120255
 20
109.2237492001961
 30
0.0
 11
2361.026709797675
 21
110.7504588776155
 31
0.0
  0
LINE
  5
5A0C
330
18
100
AcDbEntity
  8
HIDDEN
100
AcDbLine
 10
2361.026709797675
 20
167.3110395227768
 30
0.0
 11
2379.500000120256
 21
166.7337492001961
 31
0.0
  0
LINE
  5
5A0D
330
18
100
AcDbEntity
  8
HIDDEN
100
AcDbLine
 10
2359.500000120255
 20
168.8377492001961
 30
0.0
 11
2379.500000120256
 21
168.2127492001962
 31
0.0
  0
LINE
  5
5A0E
330
18
100
AcDbEntity
  8
HIDDEN
100
AcDbLine
 10
2359.500000120255
 20
168.8377492001961
 30
0.0
 11
2361.026709797675
 21
167.3110395227768
 31
0.0
  0
LINE
  5
5A10
330
18
100
AcDbEntity
  8
DRAW2
100
AcDbLine
 10
2377.499615522773
 20
167.7927996723285
 30
0.0
 11
2381.999615210732
 21
167.7927996723285
 31
0.0
  0
LINE
  5
5A11
330
18
100
AcDbEntity
  8
DRAW2
100
AcDbLine
 10
2430.000000353826
 20
127.0307392001962
 30
0.0
 11
2430.000000353826
 21
129.0307392001962
 31
0.0
  0
ARC
  5
5A12
330
18
100
AcDbEntity
  8
DRAW2
100
AcDbCircle
 10
2432.000000353827
 20
127.0307392001963
 30
0.0
 40
2.0
100
AcDbArc
 50
179.9999959999999
 51
270.00001
  0
ARC
  5
5A13
330
18
100
AcDbEntity
  8
DRAW2
100
AcDbCircle
 10
2432.000000353827
 20
129.0307392001963
 30
0.0
 40
2.0
100
AcDbArc
 50
89.99998999999997
 51
179.9999959999999
  0
LINE
  5
5A14
330
18
100
AcDbEntity
  8
DRAW2
100
AcDbLine
 10
2382.000000353826
 20
183.494158690716
 30
0.0
 11
2426.500000316802
 21
183.494158690716
 31
0.0
  0
LINE
  5
5A15
330
18
100
AcDbEntity
  8
DRAW2
100
AcDbLine
 10
2420.873105255632
 20
212.5307492001955
 30
0.0
 11
2384.000000353827
 21
212.5307492001955
 31
0.0
  0
LINE
  5
5A16
330
18
100
AcDbEntity
  8
HIDDEN
100
AcDbLine
 10
2359.500000120255
 20
206.0307492001961
 30
0.0
 11
2377.499615522773
 21
206.0307492001961
 31
0.0
  0
ARC
  5
5A17
330
18
100
AcDbEntity
  8
DRAW2
100
AcDbCircle
 10
2375.499615522774
 20
210.5307492372197
 30
0.0
 40
2.0
100
AcDbArc
 50
359.9999969999999
 51
90.0
  0
LINE
  5
5A18
330
18
100
AcDbEntity
  8
DRAW2
100
AcDbLine
 10
2377.499615522773
 20
179.7927996723285
 30
0.0
 11
2381.999615210732
 21
179.7927996723285
 31
0.0
  0
LINE
  5
5A19
330
18
100
AcDbEntity
  8
DRAW2
100
AcDbLine
 10
2377.499615522773
 20
206.0307492001961
 30
0.0
 11
2379.500000120256
 21
206.0307492001961
 31
0.0
  0
ARC
  5
5A1A
330
18
100
AcDbEntity
  8
DRAW2
100
AcDbCircle
 10
2384.000000353827
 20
210.5307492001957
 30
0.0
 40
2.0
100
AcDbArc
 50
90.0
 51
180.0
  0
ARC
  5
5A1B
330
18
100
AcDbEntity
  8
DRAW2
100
AcDbCircle
 10
2381.000000353826
 20
201.0307492001964
 30
0.0
 40
2.0
100
AcDbArc
 50
269.9999899999999
 51
299.9999999999888
  0
LINE
  5
5A1C
330
18
100
AcDbEntity
  8
DRAW2
100
AcDbLine
 10
2381.000000353826
 20
199.0307492001964
 30
0.0
 11
2379.500000353826
 21
199.0307492001964
 31
0.0
  0
ARC
  5
5A1D
330
18
100
AcDbEntity
  8
DRAW2
100
AcDbCircle
 10
2472.315041206222
 20
212.4636390500309
 30
0.0
 40
49.47823654240931
100
AcDbArc
 50
182.1518310824971
 51
202.2699747418038
  0
ARC
  5
5A1E
330
18
100
AcDbEntity
  8
DRAW2
100
AcDbCircle
 10
2420.873105255632
 20
210.5307492001954
 30
0.0
 40
2.0
100
AcDbArc
 50
2.151831082497898
 51
90.0
  0
ARC
  5
5A20
330
18
100
AcDbEntity
  8
DRAW2
  6
Continuous
100
AcDbCircle
 10
2440.056867783451
 20
193.1857938001959
 30
0.0
 40
4.3449545
100
AcDbArc
 50
55.61635200000001
 51
115.61766
  0
LINE
  5
5A21
330
18
100
AcDbEntity
  8
DRAW2
  6
Continuous
100
AcDbLine
 10
2437.603113383451
 20
196.7715591001959
 30
0.0
 11
2438.918042383451
 21
197.5307330001959
 31
0.0
  0
LINE
  5
5A22
330
18
100
AcDbEntity
  8
DRAW2
  6
Continuous
100
AcDbLine
 10
2436.918073883451
 20
190.5307492001959
 30
0.0
 11
2436.918073883451
 21
188.5307492001959
 31
0.0
  0
LINE
  5
5A23
330
18
100
AcDbEntity
  8
DRAW2
  6
Continuous
100
AcDbLine
 10
2437.603117183451
 20
196.7715787001959
 30
0.0
 11
2437.603117183451
 21
190.5307492001959
 31
0.0
  0
ARC
  5
5A24
330
18
100
AcDbEntity
  8
DRAW2
  6
Continuous
100
AcDbCircle
 10
2447.418073883451
 20
181.2898129001959
 30
0.0
 40
16.24093999999999
100
AcDbArc
 50
72.41215600000001
 51
107.5877899999999
  0
LINE
  5
5A25
330
18
100
AcDbEntity
  8
DRAW2
  6
Continuous
100
AcDbLine
 10
2442.510603183452
 20
196.7715787001959
 30
0.0
 11
2442.510603183452
 21
190.5307492001959
 31
0.0
  0
LINE
  5
5A26
330
18
100
AcDbEntity
  8
DRAW2
  6
Continuous
100
AcDbLine
 10
2452.325559883451
 20
196.7715634001959
 30
0.0
 11
2452.325559883451
 21
190.5307492001959
 31
0.0
  0
LINE
  5
5A2D
330
18
100
AcDbEntity
  8
DRAW2
100
AcDbLine
 10
2455.57606820309
 20
197.5307492001959
 30
0.0
 11
2465.622010353826
 21
312.3564292001963
 31
0.0
  0
ARC
  5
5A2E
330
18
100
AcDbEntity
  8
DRAW2
100
AcDbCircle
 10
2468.739990353826
 20
133.0307392001963
 30
0.0
 40
2.0
100
AcDbArc
 50
269.99999
 51
0.0
  0
ARC
  5
5A2F
330
18
100
AcDbEntity
  8
DRAW2
100
AcDbCircle
 10
2468.739990353826
 20
123.0307392001963
 30
0.0
 40
2.0
100
AcDbArc
 50
0.0
 51
90.00000865142139
  0
LINE
  5
5A30
330
18
100
AcDbEntity
  8
DRAW2
  6
Continuous
100
AcDbLine
 10
2457.233034383451
 20
196.7715591001959
 30
0.0
 11
2455.918105383451
 21
197.5307330001959
 31
0.0
  0
LINE
  5
5A31
330
18
100
AcDbEntity
  8
DRAW2
  6
Continuous
100
AcDbLine
 10
2457.918073883451
 20
190.5307492001959
 30
0.0
 11
2457.918073883451
 21
188.5307492001959
 31
0.0
  0
LINE
  5
5A32
330
18
100
AcDbEntity
  8
DRAW2
  6
Continuous
100
AcDbLine
 10
2457.233030583451
 20
196.7715787001959
 30
0.0
 11
2457.233030583451
 21
190.5307492001959
 31
0.0
  0
LINE
  5
5A33
330
18
100
AcDbEntity
  8
DRAW2
  6
Continuous
100
AcDbLine
 10
2518.099993883451
 20
190.5307492001959
 30
0.0
 11
2539.099993883451
 21
190.5307492001958
 31
0.0
  0
LINE
  5
5A34
330
18
100
AcDbEntity
  8
DRAW2
  6
Continuous
100
AcDbLine
 10
2520.099963383451
 20
197.5307492001959
 30
0.0
 11
2537.099997324202
 21
197.5307492001959
 31
0.0
  0
ARC
  5
5A35
330
18
100
AcDbEntity
  8
DRAW2
  6
Continuous
100
AcDbCircle
 10
2528.599993883451
 20
181.2898129001959
 30
0.0
 40
16.24093999999999
100
AcDbArc
 50
72.41215600000001
 51
107.5877899999999
  0
LINE
  5
5A37
330
18
100
AcDbEntity
  8
DRAW2
  6
Continuous
100
AcDbLine
 10
2518.785037183451
 20
196.7715787001959
 30
0.0
 11
2518.785037183451
 21
190.5307492001959
 31
0.0
  0
LINE
  5
5A38
330
18
100
AcDbEntity
  8
DRAW2
  6
Continuous
100
AcDbLine
 10
2523.692523183451
 20
196.7715787001959
 30
0.0
 11
2523.692523183451
 21
190.5307492001959
 31
0.0
  0
ARC
  5
5A39
330
18
100
AcDbEntity
  8
DRAW2
  6
Continuous
100
AcDbCircle
 10
2521.238787783451
 20
193.1857938001959
 30
0.0
 40
4.3449545
100
AcDbArc
 50
55.61635200000001
 51
115.61766
  0
LINE
  5
5A3A
330
18
100
AcDbEntity
  8
DRAW2
  6
Continuous
100
AcDbLine
 10
2518.785033383451
 20
196.7715591001959
 30
0.0
 11
2520.099962383451
 21
197.5307330001959
 31
0.0
  0
LINE
  5
5A3B
330
18
100
AcDbEntity
  8
DRAW2
  6
Continuous
100
AcDbLine
 10
2518.099993883451
 20
190.5307492001959
 30
0.0
 11
2518.099993883451
 21
188.5307492001959
 31
0.0
  0
LINE
  5
5A3C
330
18
100
AcDbEntity
  8
DRAW2
  6
Continuous
100
AcDbLine
 10
2538.414950583451
 20
196.7715787001959
 30
0.0
 11
2538.414950583451
 21
190.5307492001959
 31
0.0
  0
LINE
  5
5A3D
330
18
100
AcDbEntity
  8
DRAW2
  6
Continuous
100
AcDbLine
 10
2533.507479883451
 20
196.7715634001959
 30
0.0
 11
2533.507479883451
 21
190.5307492001959
 31
0.0
  0
LINE
  5
5A3E
330
18
100
AcDbEntity
  8
DRAW2
  6
Continuous
100
AcDbLine
 10
2538.414954383451
 20
196.7715591001959
 30
0.0
 11
2537.100025383451
 21
197.5307330001959
 31
0.0
  0
ARC
  5
5A3F
330
18
100
AcDbEntity
  8
DRAW2
  6
Continuous
100
AcDbCircle
 10
2535.961215183451
 20
193.1858395001959
 30
0.0
 40
4.3449049
100
AcDbArc
 50
55.61586056647438
 51
124.38412
  0
LINE
  5
5A40
330
18
100
AcDbEntity
  8
DRAW2
  6
Continuous
100
AcDbLine
 10
2539.099993883451
 20
190.5307492001959
 30
0.0
 11
2539.099993883451
 21
188.5307492001959
 31
0.0
  0
LINE
  5
5A42
330
18
100
AcDbEntity
  8
DRAW2
  6
Continuous
100
AcDbLine
 10
2632.900033883452
 20
190.5307492001959
 30
0.0
 11
2653.900033883451
 21
190.5307492001958
 31
0.0
  0
LINE
  5
5A43
330
18
100
AcDbEntity
  8
DRAW2
  6
Continuous
100
AcDbLine
 10
2632.900033883452
 20
190.5307492001959
 30
0.0
 11
2632.900033883452
 21
188.5307492001959
 31
0.0
  0
LINE
  5
5A45
330
18
100
AcDbEntity
  8
DRAW2
  6
Continuous
100
AcDbLine
 10
2634.900003383451
 20
197.5307492001959
 30
0.0
 11
2651.900037324202
 21
197.5307492001959
 31
0.0
  0
ARC
  5
5A46
330
18
100
AcDbEntity
  8
DRAW2
  6
Continuous
100
AcDbCircle
 10
2643.400033883452
 20
181.2898129001959
 30
0.0
 40
16.24093999999999
100
AcDbArc
 50
72.41215600000001
 51
107.5877899999999
  0
LINE
  5
5A47
330
18
100
AcDbEntity
  8
DRAW2
  6
Continuous
100
AcDbLine
 10
2633.585077183452
 20
196.7715787001959
 30
0.0
 11
2633.585077183452
 21
190.5307492001959
 31
0.0
  0
LINE
  5
5A48
330
18
100
AcDbEntity
  8
DRAW2
  6
Continuous
100
AcDbLine
 10
2638.492563183452
 20
196.7715787001959
 30
0.0
 11
2638.492563183452
 21
190.5307492001959
 31
0.0
  0
ARC
  5
5A49
330
18
100
AcDbEntity
  8
DRAW2
  6
Continuous
100
AcDbCircle
 10
2636.038827783451
 20
193.1857938001959
 30
0.0
 40
4.3449545
100
AcDbArc
 50
55.61635200000001
 51
115.61766
  0
LINE
  5
5A4A
330
18
100
AcDbEntity
  8
DRAW2
  6
Continuous
100
AcDbLine
 10
2633.585073383452
 20
196.7715591001959
 30
0.0
 11
2634.900002383452
 21
197.5307330001959
 31
0.0
  0
LINE
  5
5A4B
330
18
100
AcDbEntity
  8
DRAW2
  6
Continuous
100
AcDbLine
 10
2653.214990583452
 20
196.7715787001959
 30
0.0
 11
2653.214990583452
 21
190.5307492001959
 31
0.0
  0
LINE
  5
5A4C
330
18
100
AcDbEntity
  8
DRAW2
  6
Continuous
100
AcDbLine
 10
2648.307519883452
 20
196.7715634001959
 30
0.0
 11
2648.307519883452
 21
190.5307492001959
 31
0.0
  0
LINE
  5
5A4D
330
18
100
AcDbEntity
  8
DRAW2
  6
Continuous
100
AcDbLine
 10
2653.214994383452
 20
196.7715591001959
 30
0.0
 11
2651.900065383452
 21
197.5307330001959
 31
0.0
  0
ARC
  5
5A4E
330
18
100
AcDbEntity
  8
DRAW2
  6
Continuous
100
AcDbCircle
 10
2650.761255183452
 20
193.1858395001959
 30
0.0
 40
4.3449049
100
AcDbArc
 50
55.61586056647438
 51
124.38412
  0
LINE
  5
5A4F
330
18
100
AcDbEntity
  8
DRAW2
  6
Continuous
100
AcDbLine
 10
2653.900033883451
 20
190.5307492001959
 30
0.0
 11
2653.900033883451
 21
188.5307492001959
 31
0.0
  0
LINE
  5
5A50
330
18
100
AcDbEntity
  8
DRAW2
100
AcDbLine
 10
2566.220030353826
 20
380.0307492001964
 30
0.0
 11
2551.470030353826
 21
380.0307492001964
 31
0.0
  0
LINE
  5
5A51
330
18
100
AcDbEntity
  8
DRAW2
100
AcDbLine
 10
2566.220030353826
 20
369.0307492001963
 30
0.0
 11
2551.470030353826
 21
369.0307492001963
 31
0.0
  0
LINE
  5
5A53
330
18
100
AcDbEntity
  8
DRAW2
100
AcDbLine
 10
2463.000000353826
 20
357.5307492001964
 30
0.0
 11
2463.000000353826
 21
314.5307492001963
 31
0.0
  0
ARC
  5
5A54
330
18
100
AcDbEntity
  8
DRAW2
100
AcDbCircle
 10
2463.629580353827
 20
312.5307492001963
 30
0.0
 40
2.0
100
AcDbArc
 50
355.0
 51
90.00000300000001
  0
LINE
  5
5A55
330
18
100
AcDbEntity
  8
DRAW2
100
AcDbLine
 10
2463.000000353826
 20
357.5307792001963
 30
0.0
 11
2468.000000353827
 21
362.5307792001963
 31
0.0
  0
LINE
  5
5A56
330
18
100
AcDbEntity
  8
DRAW2
100
AcDbLine
 10
2551.470030353826
 20
369.0307492001963
 30
0.0
 11
2551.470030353826
 21
380.0307492001964
 31
0.0
  0
LINE
  5
5A58
330
18
100
AcDbEntity
  8
DRAW2
100
AcDbLine
 10
2596.000000353826
 20
381.5307492001963
 30
0.0
 11
2595.668790353826
 21
385.3164192001963
 31
0.0
  0
LINE
  5
5A59
330
18
100
AcDbEntity
  8
DRAW2
100
AcDbLine
 10
2576.000030353827
 20
381.5307492001963
 30
0.0
 11
2576.331240353826
 21
385.3164192001963
 31
0.0
  0
LINE
  5
5A5A
330
18
100
AcDbEntity
  8
DRAW2
100
AcDbLine
 10
2571.000000353826
 20
381.5307492001963
 30
0.0
 11
2601.000000353826
 21
381.5307492001963
 31
0.0
  0
LINE
  5
5A5B
330
18
100
AcDbEntity
  8
DRAW2
100
AcDbLine
 10
2571.000000353826
 20
381.5307492001963
 30
0.0
 11
2571.000000353826
 21
362.5307492001963
 31
0.0
  0
LINE
  5
5A5C
330
18
100
AcDbEntity
  8
DRAW2
100
AcDbLine
 10
2567.435540353827
 20
379.5061192001962
 30
0.0
 11
2571.000000353826
 21
379.3947409087961
 31
0.0
  0
LINE
  5
5A5D
330
18
100
AcDbEntity
  8
DRAW2
100
AcDbLine
 10
2567.435540353827
 20
369.5553392001964
 30
0.0
 11
2571.000000353826
 21
369.6667338760942
 31
0.0
  0
LINE
  5
5A5E
330
18
100
AcDbEntity
  8
DRAW3
100
AcDbLine
 10
2568.500000353826
 20
370.1699092001963
 30
0.0
 11
2571.000000353826
 21
370.2480425318809
 31
0.0
  0
LINE
  5
5A5F
330
18
100
AcDbEntity
  8
DRAW3
100
AcDbLine
 10
2568.500000353826
 20
378.8915892001963
 30
0.0
 11
2571.000000353826
 21
378.8134667359499
 31
0.0
  0
LINE
  5
5A60
330
18
100
AcDbEntity
  8
DRAW3
100
AcDbLine
 10
2567.435540353827
 20
379.5061492001963
 30
0.0
 11
2568.500000353826
 21
378.8915892001963
 31
0.0
  0
LINE
  5
5A61
330
18
100
AcDbEntity
  8
DRAW2
100
AcDbLine
 10
2567.435540353827
 20
379.5061492001963
 30
0.0
 11
2566.720030353826
 21
379.5061492001963
 31
0.0
  0
LINE
  5
5A62
330
18
100
AcDbEntity
  8
DRAW2
100
AcDbLine
 10
2566.220030353826
 20
369.0307492001963
 30
0.0
 11
2566.220030353826
 21
380.0307492001964
 31
0.0
  0
ARC
  5
5A63
330
18
100
AcDbEntity
  8
DRAW2
100
AcDbCircle
 10
2566.720030353826
 20
380.0061492001963
 30
0.0
 40
0.5
100
AcDbArc
 50
179.9999899999999
 51
270.0
  0
LINE
  5
5A64
330
18
100
AcDbEntity
  8
DRAW3
100
AcDbLine
 10
2567.435540353827
 20
369.5553692001963
 30
0.0
 11
2568.500000353826
 21
370.1699392001962
 31
0.0
  0
LINE
  5
5A65
330
18
100
AcDbEntity
  8
DRAW2
100
AcDbLine
 10
2567.435540353827
 20
369.5553692001963
 30
0.0
 11
2566.720030353826
 21
369.5553692001963
 31
0.0
  0
LINE
  5
5A66
330
18
100
AcDbEntity
  8
DRAW2
100
AcDbLine
 10
2568.500000353826
 20
379.4728581351082
 30
0.0
 11
2568.500000353826
 21
369.5886392001963
 31
0.0
  0
ARC
  5
5A67
330
18
100
AcDbEntity
  8
DRAW2
100
AcDbCircle
 10
2566.720030353826
 20
369.0553692001963
 30
0.0
 40
0.5
100
AcDbArc
 50
89.999996
 51
180.00001
  0
LINE
  5
5A68
330
18
100
AcDbEntity
  8
DRAW2
100
AcDbLine
 10
2586.000000353827
 20
381.5307492001963
 30
0.0
 11
2586.000000353827
 21
362.5307492001963
 31
0.0
  0
LINE
  5
5A69
330
18
100
AcDbEntity
  8
DRAW2
100
AcDbLine
 10
2601.000000353826
 20
381.5307492001963
 30
0.0
 11
2601.000000353826
 21
362.5307492001963
 31
0.0
  0
LINE
  5
5A6A
330
18
100
AcDbEntity
  8
DRAW2
100
AcDbLine
 10
2596.250000353826
 20
362.5307492001963
 30
0.0
 11
2601.000000353826
 21
362.5307492001963
 31
0.0
  0
LINE
  5
5A6B
330
18
100
AcDbEntity
  8
DRAW2
100
AcDbLine
 10
2581.375000353826
 20
397.9178592001963
 30
0.0
 11
2590.625000353826
 21
397.9178592001963
 31
0.0
  0
ARC
  5
5A6C
330
18
100
AcDbEntity
  8
DRAW2
100
AcDbCircle
 10
2586.000000353827
 20
409.5307492001963
 30
0.0
 40
12.5
100
AcDbArc
 50
0.0
 51
248.28437
  0
ARC
  5
5A6D
330
18
100
AcDbEntity
  8
DRAW2
100
AcDbCircle
 10
2566.369260353826
 20
386.1879992001963
 30
0.0
 40
10.0
100
AcDbArc
 50
355.0
 51
49.9369
  0
ARC
  5
5A6E
330
18
100
AcDbEntity
  8
DRAW2
100
AcDbCircle
 10
2586.000000353827
 20
409.5307492001963
 30
0.0
 40
12.5
100
AcDbArc
 50
291.71561
 51
0.0
  0
ARC
  5
5A6F
330
18
100
AcDbEntity
  8
DRAW2
100
AcDbCircle
 10
2605.630730353826
 20
386.1879992001963
 30
0.0
 40
10.0
100
AcDbArc
 50
130.0630999999999
 51
185.0
  0
LINE
  5
5A70
330
18
100
AcDbEntity
  8
DRAW2
100
AcDbLine
 10
2382.000000353826
 20
699.9968562085533
 30
0.0
 11
2382.000000353826
 21
848.0840186857776
 31
0.0
  0
ARC
  5
5A71
330
18
100
AcDbEntity
  8
DRAW2
100
AcDbCircle
 10
2698.000000353826
 20
774.0404374471654
 30
0.0
 40
278.0
100
AcDbArc
 50
167.5857136485401
 51
192.4142863514598
  0
LINE
  5
5A72
330
18
100
AcDbEntity
  8
DRAW2
100
AcDbLine
 10
2377.499615522773
 20
694.5404374471654
 30
0.0
 11
2377.499615522773
 21
853.5404374471655
 31
0.0
  0
LINE
  5
5A73
330
18
100
AcDbEntity
  8
DRAW2
100
AcDbLine
 10
2377.499615522773
 20
699.9968562085533
 30
0.0
 11
2377.499615522773
 21
848.0840186857776
 31
0.0
  0
LINE
  5
5A74
330
18
100
AcDbEntity
  8
DRAW2
100
AcDbLine
 10
2379.500000120256
 20
846.0404374471654
 30
0.0
 11
2379.500000120256
 21
702.0404374471654
 31
0.0
  0
LINE
  5
5A75
330
18
100
AcDbEntity
  8
DRAW2
100
AcDbLine
 10
2382.000000353826
 20
853.5404374471655
 30
0.0
 11
2382.000000353826
 21
694.5404374471654
 31
0.0
  0
ARC
  5
5A76
330
18
100
AcDbEntity
  8
DRAW2
100
AcDbCircle
 10
2061.499615522774
 20
774.0404374471654
 30
0.0
 40
278.0
100
AcDbArc
 50
347.5857136485401
 51
12.41428635145989
  0
LINE
  5
5A77
330
18
100
AcDbEntity
  8
DRAW2
100
AcDbLine
 10
2332.999615522774
 20
694.5404374471654
 30
0.0
 11
2332.999615522774
 21
853.5404374471655
 31
0.0
  0
ARC
  5
5A79
330
18
100
AcDbEntity
  8
DRAW2
100
AcDbCircle
 10
2447.418070477134
 20
716.6379225924015
 30
0.0
 40
9.0
100
AcDbArc
 50
40.81198765376154
 51
79.1880143320635
  0
LINE
  5
5A7A
330
18
100
AcDbEntity
  8
DRAW2
100
AcDbLine
 10
2447.41807934072
 20
726.4528792924015
 30
0.0
 11
2455.918067577134
 21
721.5454089924016
 31
0.0
  0
LINE
  5
5A7B
330
18
100
AcDbEntity
  8
DRAW2
100
AcDbLine
 10
2447.418083339746
 20
706.8229582924015
 30
0.0
 11
2455.918085777133
 21
711.7304361924015
 31
0.0
  0
ARC
  5
5A7C
330
18
100
AcDbEntity
  8
DRAW2
100
AcDbCircle
 10
2447.418070477134
 20
716.6379225924015
 30
0.0
 40
9.0
100
AcDbArc
 50
280.8121538808937
 51
319.1878380774269
  0
CIRCLE
  5
5A7D
330
18
100
AcDbEntity
  8
DRAW2
100
AcDbCircle
 10
2447.418070477134
 20
716.6379225924015
 30
0.0
 40
8.500000999999999
  0
LINE
  5
5A7F
330
18
100
AcDbEntity
  8
DRAW2
100
AcDbLine
 10
2334.999615522774
 20
692.5404374471654
 30
0.0
 11
2375.499615522774
 21
692.5404374471654
 31
0.0
  0
LINE
  5
5A80
330
18
100
AcDbEntity
  8
DRAW2
100
AcDbLine
 10
2375.499615522774
 20
697.9968562085534
 30
0.0
 11
2334.999615522774
 21
697.9968562085534
 31
0.0
  0
LINE
  5
5A81
330
18
100
AcDbEntity
  8
DRAW2
100
AcDbLine
 10
2332.999615522774
 20
699.2846845860391
 30
0.0
 11
2332.999615522774
 21
714.2763177765804
 31
0.0
  0
LINE
  5
5A82
330
18
100
AcDbEntity
  8
DRAW2
100
AcDbLine
 10
2327.499608822774
 20
713.0437592471654
 30
0.0
 11
2330.499564222774
 21
714.7757845471654
 31
0.0
  0
ARC
  5
5A83
330
18
100
AcDbEntity
  8
DRAW2
100
AcDbCircle
 10
2333.219220022774
 20
709.4484294471655
 30
0.0
 40
13.719608
100
AcDbArc
 50
159.7437169999956
 51
200.2562999999994
  0
LINE
  5
5A84
330
18
100
AcDbEntity
  8
DRAW2
100
AcDbLine
 10
2332.999615522774
 20
702.1984374471655
 30
0.0
 11
2332.999615522774
 21
726.1984374471654
 31
0.0
  0
LINE
  5
5A85
330
18
100
AcDbEntity
  8
DRAW2
100
AcDbLine
 10
2330.499615522774
 20
702.1984374471655
 30
0.0
 11
2330.499615522774
 21
726.1984374471654
 31
0.0
  0
LINE
  5
5A86
330
18
100
AcDbEntity
  8
DRAW2
100
AcDbLine
 10
2327.499615522774
 20
703.8984494471654
 30
0.0
 11
2327.499615522774
 21
724.4984254471654
 31
0.0
  0
LINE
  5
5A87
330
18
100
AcDbEntity
  8
DRAW2
100
AcDbLine
 10
2319.499615522774
 20
704.6984294471655
 30
0.0
 11
2319.499615522774
 21
723.6984294471654
 31
0.0
  0
LINE
  5
5A88
330
18
100
AcDbEntity
  8
DRAW2
100
AcDbLine
 10
2319.499615522774
 20
704.6984294471655
 30
0.0
 11
2327.499615522774
 21
704.6984294471655
 31
0.0
  0
ARC
  5
5A89
330
18
100
AcDbEntity
  8
DRAW2
100
AcDbCircle
 10
2334.999615522774
 20
694.5404374471654
 30
0.0
 40
2.0
100
AcDbArc
 50
180.0
 51
270.0
  0
ARC
  5
5A8A
330
18
100
AcDbEntity
  8
DRAW2
100
AcDbCircle
 10
2334.999615522774
 20
699.9968562085533
 30
0.0
 40
2.0
100
AcDbArc
 50
200.8600059216548
 51
270.0
  0
LINE
  5
5A8B
330
18
100
AcDbEntity
  8
DRAW2
100
AcDbLine
 10
2330.499615522774
 20
702.1984374471655
 30
0.0
 11
2332.999615522774
 21
702.1984374471655
 31
0.0
  0
LINE
  5
5A8C
330
18
100
AcDbEntity
  8
DRAW2
100
AcDbLine
 10
2327.499615522774
 20
703.8984494471654
 30
0.0
 11
2330.499615522774
 21
703.8984494471654
 31
0.0
  0
LINE
  5
5A8D
330
18
100
AcDbEntity
  8
DRAW2
100
AcDbLine
 10
2319.499615522774
 20
723.6984294471654
 30
0.0
 11
2327.499615522774
 21
723.6984294471654
 31
0.0
  0
LINE
  5
5A8E
330
18
100
AcDbEntity
  8
DRAW2
100
AcDbLine
 10
2320.348126222773
 20
714.1984294471654
 30
0.0
 11
2327.499615522774
 21
714.1984294471654
 31
0.0
  0
LINE
  5
5A8F
330
18
100
AcDbEntity
  8
DRAW2
100
AcDbLine
 10
2320.348126222774
 20
714.1984294471654
 30
0.0
 11
2327.499615522774
 21
714.1984294471654
 31
0.0
  0
ARC
  5
5A90
330
18
100
AcDbEntity
  8
DRAW2
100
AcDbCircle
 10
2333.219220022774
 20
718.9484294471655
 30
0.0
 40
13.719608
100
AcDbArc
 50
159.7437169999956
 51
200.2562999999994
  0
LINE
  5
5A91
330
18
100
AcDbEntity
  8
DRAW2
100
AcDbLine
 10
2335.160445748804
 20
727.0404374471654
 30
0.0
 11
2335.160445748804
 21
729.0404374471655
 31
0.0
  0
LINE
  5
5A92
330
18
100
AcDbEntity
  8
DRAW2
100
AcDbLine
 10
2335.802823670254
 20
731.0404374471654
 30
0.0
 11
2335.802823670254
 21
733.0404374471655
 31
0.0
  0
LINE
  5
5A93
330
18
100
AcDbEntity
  8
DRAW2
100
AcDbLine
 10
2335.160445748804
 20
729.0404374471655
 30
0.0
 11
2335.833353878084
 21
729.0404374471655
 31
0.0
  0
LINE
  5
5A94
330
18
100
AcDbEntity
  8
DRAW2
100
AcDbLine
 10
2335.160445748804
 20
727.0404374471654
 30
0.0
 11
2335.497790699179
 21
727.0404374471654
 31
0.0
  0
LINE
  5
5A95
330
18
100
AcDbEntity
  8
DRAW2
100
AcDbLine
 10
2330.499615522774
 20
726.1984374471654
 30
0.0
 11
2332.999615522774
 21
726.1984374471654
 31
0.0
  0
LINE
  5
5A96
330
18
100
AcDbEntity
  8
DRAW2
100
AcDbLine
 10
2327.499615522774
 20
724.4984254471654
 30
0.0
 11
2330.499615522774
 21
724.4984254471654
 31
0.0
  0
LINE
  5
5A97
330
18
100
AcDbEntity
  8
DRAW2
100
AcDbLine
 10
2335.802823670254
 20
731.0404374471654
 30
0.0
 11
2336.153943724606
 21
731.0404374471654
 31
0.0
  0
LINE
  5
5A98
330
18
100
AcDbEntity
  8
DRAW2
100
AcDbLine
 10
2335.802823670254
 20
733.0404374471655
 30
0.0
 11
2336.45961261326
 21
733.0404374471655
 31
0.0
  0
LINE
  5
5A99
330
18
100
AcDbEntity
  8
DRAW2
100
AcDbLine
 10
2327.499573522774
 20
713.6210904671655
 30
0.0
 11
2330.499581922774
 21
715.3531463471655
 31
0.0
  0
LINE
  5
5A9A
330
18
100
AcDbEntity
  8
DRAW2
100
AcDbLine
 10
2384.000000353826
 20
697.9968562085534
 30
0.0
 11
2424.500000353826
 21
697.9968562085534
 31
0.0
  0
LINE
  5
5A9B
330
18
100
AcDbEntity
  8
DRAW2
100
AcDbLine
 10
2424.500000353826
 20
692.5404374471654
 30
0.0
 11
2384.000000353827
 21
692.5404374471654
 31
0.0
  0
ARC
  5
5A9C
330
18
100
AcDbEntity
  8
DRAW2
100
AcDbCircle
 10
2375.499615522774
 20
694.5404374471654
 30
0.0
 40
2.0
100
AcDbArc
 50
270.0
 51
0.0
  0
ARC
  5
5A9D
330
18
100
AcDbEntity
  8
DRAW2
100
AcDbCircle
 10
2375.499615522774
 20
699.9968562085533
 30
0.0
 40
2.0
100
AcDbArc
 50
270.0
 51
0.0
  0
ARC
  5
5A9E
330
18
100
AcDbEntity
  8
DRAW2
100
AcDbCircle
 10
2384.000000353827
 20
694.5404374471654
 30
0.0
 40
2.0
100
AcDbArc
 50
180.0
 51
270.0
  0
ARC
  5
5A9F
330
18
100
AcDbEntity
  8
DRAW2
100
AcDbCircle
 10
2384.000000353826
 20
699.9968562085533
 30
0.0
 40
2.0
100
AcDbArc
 50
180.0
 51
270.0
  0
LINE
  5
5AA0
330
18
100
AcDbEntity
  8
DRAW2
100
AcDbLine
 10
2379.500000120256
 20
702.0404374471654
 30
0.0
 11
2377.499615522773
 21
702.0404374471653
 31
0.0
  0
LINE
  5
5AA1
330
18
100
AcDbEntity
  8
DRAW3
100
AcDbLine
 10
2382.000000353826
 20
709.073497446534
 30
0.0
 11
2379.500000120256
 21
709.073497446534
 31
0.0
  0
LINE
  5
5AA2
330
18
100
AcDbEntity
  8
DRAW2
100
AcDbLine
 10
2379.500000120256
 20
708.198437447167
 30
0.0
 11
2382.000000353826
 21
708.198437447167
 31
0.0
  0
LINE
  5
5AA3
330
18
100
AcDbEntity
  8
DRAW3
100
AcDbLine
 10
2382.000000353826
 20
719.3234374471654
 30
0.0
 11
2379.500000120256
 21
719.3234374471654
 31
0.0
  0
LINE
  5
5AA4
330
18
100
AcDbEntity
  8
DRAW2
100
AcDbLine
 10
2379.500000120256
 20
720.198437447167
 30
0.0
 11
2382.000000353826
 21
720.198437447167
 31
0.0
  0
LINE
  5
5AA5
330
18
100
AcDbEntity
  8
DRAW2
100
AcDbLine
 10
2433.000000353827
 20
709.073437447166
 30
0.0
 11
2433.000000353827
 21
717.8265601569449
 31
0.0
  0
LINE
  5
5AA6
330
18
100
AcDbEntity
  8
DRAW2
100
AcDbLine
 10
2426.500000353826
 20
699.2846845860391
 30
0.0
 11
2426.500000353826
 21
714.2763177765804
 31
0.0
  0
LINE
  5
5AA7
330
18
100
AcDbEntity
  8
DRAW2
100
AcDbLine
 10
2438.918093377134
 20
711.7304528924015
 30
0.0
 11
2438.918093377134
 21
721.5454170924015
 31
0.0
  0
LINE
  5
5AA8
330
18
100
AcDbEntity
  8
DRAW2
100
AcDbLine
 10
2426.500000353826
 20
694.5404374471654
 30
0.0
 11
2426.500000353826
 21
740.4435625925016
 31
0.0
  0
LINE
  5
5AA9
330
18
100
AcDbEntity
  8
DRAW2
100
AcDbLine
 10
2432.124954296346
 20
708.1984374471657
 30
0.0
 11
2432.124954296346
 21
720.1984374471656
 31
0.0
  0
LINE
  5
5AAA
330
18
100
AcDbEntity
  8
DRAW3
100
AcDbLine
 10
2426.500000353826
 20
709.073497446534
 30
0.0
 11
2433.000000353827
 21
709.073497446534
 31
0.0
  0
LINE
  5
5AAB
330
18
100
AcDbEntity
  8
DRAW2
100
AcDbLine
 10
2426.500000353826
 20
708.1984374471654
 30
0.0
 11
2432.124954296346
 21
708.1984374471654
 31
0.0
  0
ARC
  5
5AAC
330
18
100
AcDbEntity
  8
DRAW2
100
AcDbCircle
 10
2424.500000353826
 20
694.5404374471654
 30
0.0
 40
2.0
100
AcDbArc
 50
270.0
 51
0.0
  0
ARC
  5
5AAD
330
18
100
AcDbEntity
  8
DRAW2
100
AcDbCircle
 10
2424.500000353826
 20
699.9968562085533
 30
0.0
 40
2.0
100
AcDbArc
 50
270.0
 51
339.1399940783451
  0
LINE
  5
5AAE
330
18
100
AcDbEntity
  8
DRAW2
100
AcDbLine
 10
2438.918080977134
 20
711.7304494924016
 30
0.0
 11
2447.41809567194
 21
706.8229630924015
 31
0.0
  0
LINE
  5
5AAF
330
18
100
AcDbEntity
  8
DRAW2
100
AcDbLine
 10
2432.124954296346
 20
708.1984374471654
 30
0.0
 11
2433.000000353826
 21
709.0734374471657
 31
0.0
  0
ARC
  5
5AB0
330
18
100
AcDbEntity
  8
DRAW2
100
AcDbCircle
 10
2447.418070477134
 20
716.6379225924015
 30
0.0
 40
9.0
100
AcDbArc
 50
220.8116936954073
 51
259.1882999565275
  0
ARC
  5
5AB1
330
18
100
AcDbEntity
  8
DRAW2
100
AcDbCircle
 10
2423.166870471014
 20
774.0404303222089
 30
0.0
 40
48.99999999999999
100
AcDbArc
 50
273.9004640491285
 51
278.2274221855022
  0
LINE
  5
5AB2
330
18
100
AcDbEntity
  8
DRAW3
100
AcDbLine
 10
2426.500000353826
 20
719.3234374471654
 30
0.0
 11
2432.458312493493
 21
719.3234374471655
 31
0.0
  0
LINE
  5
5AB3
330
18
100
AcDbEntity
  8
DRAW2
100
AcDbLine
 10
2426.500000353826
 20
720.1984374471654
 30
0.0
 11
2432.124954296346
 21
720.1984374471654
 31
0.0
  0
LINE
  5
5AB4
330
18
100
AcDbEntity
  8
DRAW2
100
AcDbLine
 10
2438.918076177134
 20
721.5454046924016
 30
0.0
 11
2447.418078394532
 21
726.4528820924015
 31
0.0
  0
ARC
  5
5AB5
330
18
100
AcDbEntity
  8
DRAW2
100
AcDbCircle
 10
2430.894409533513
 20
720.5962164550214
 30
0.0
 40
5.00000000000004
100
AcDbArc
 50
95.97691204228123
 51
98.22743231709756
  0
LINE
  5
5AB6
330
18
100
AcDbEntity
  8
DRAW2
100
AcDbLine
 10
2432.124954296346
 20
720.1984374471656
 30
0.0
 11
2432.162408701251
 21
720.160985013649
 31
0.0
  0
ARC
  5
5AB7
330
18
100
AcDbEntity
  8
DRAW2
100
AcDbCircle
 10
2447.418070477134
 20
716.6379225924015
 30
0.0
 40
9.0
100
AcDbArc
 50
160.8114199894652
 51
199.1885800105347
  0
ARC
  5
5AB8
330
18
100
AcDbEntity
  8
DRAW2
100
AcDbCircle
 10
2447.418070477134
 20
716.6379225924015
 30
0.0
 40
9.0
100
AcDbArc
 50
100.811873354624
 51
139.1881148323965
  0
LINE
  5
5ABA
330
18
100
AcDbEntity
  8
DRAW2
100
AcDbLine
 10
2537.097491199063
 20
630.5510206704724
 30
0.0
 11
2537.097491199063
 21
640.3659849704723
 31
0.0
  0
LINE
  5
5ABC
330
18
100
AcDbEntity
  8
DRAW2
100
AcDbLine
 10
2520.097508399063
 20
630.5510378704724
 30
0.0
 11
2520.097508399063
 21
640.3660020704724
 31
0.0
  0
CIRCLE
  5
5ABD
330
18
100
AcDbEntity
  8
DRAW2
100
AcDbCircle
 10
2528.597485499063
 20
635.4585075704724
 30
0.0
 40
8.500000999999999
  0
LINE
  5
5ABE
330
18
100
AcDbEntity
  8
DRAW2
100
AcDbLine
 10
2528.597498361675
 20
625.6435432704724
 30
0.0
 11
2537.097500799063
 21
630.5510211704723
 31
0.0
  0
ARC
  5
5ABF
330
18
100
AcDbEntity
  8
DRAW2
100
AcDbCircle
 10
2528.597485499063
 20
635.4585075704724
 30
0.0
 40
9.0
100
AcDbArc
 50
280.8121538808937
 51
319.1878380774269
  0
LINE
  5
5AC0
330
18
100
AcDbEntity
  8
DRAW2
100
AcDbLine
 10
2520.097495999063
 20
630.5510344704725
 30
0.0
 11
2528.597510693869
 21
625.6435480704724
 31
0.0
  0
ARC
  5
5AC1
330
18
100
AcDbEntity
  8
DRAW2
100
AcDbCircle
 10
2528.597485499063
 20
635.4585075704724
 30
0.0
 40
9.0
100
AcDbArc
 50
220.8116936954073
 51
259.1882999565275
  0
ARC
  5
5AC2
330
18
100
AcDbEntity
  8
DRAW2
100
AcDbCircle
 10
2528.597485499063
 20
635.4585075704724
 30
0.0
 40
9.0
100
AcDbArc
 50
40.81198765376154
 51
79.1880143320699
  0
LINE
  5
5AC3
330
18
100
AcDbEntity
  8
DRAW2
100
AcDbLine
 10
2528.597494362649
 20
645.2734642704724
 30
0.0
 11
2537.097482599063
 21
640.3659939704724
 31
0.0
  0
ARC
  5
5AC5
330
18
100
AcDbEntity
  8
DRAW2
100
AcDbCircle
 10
2528.597485499063
 20
635.4585075704724
 30
0.0
 40
9.0
100
AcDbArc
 50
160.8114199894652
 51
199.1885800105347
  0
LINE
  5
5AC6
330
18
100
AcDbEntity
  8
DRAW2
100
AcDbLine
 10
2520.097491199063
 20
640.3659896704724
 30
0.0
 11
2528.597493416461
 21
645.2734670704724
 31
0.0
  0
ARC
  5
5AC7
330
18
100
AcDbEntity
  8
DRAW2
100
AcDbCircle
 10
2528.597485499063
 20
635.4585075704724
 30
0.0
 40
9.0
100
AcDbArc
 50
100.811873354624
 51
139.1881148323965
  0
ARC
  5
5AC8
330
18
100
AcDbEntity
  8
DRAW2
100
AcDbCircle
 10
2528.597485499063
 20
635.4585075704724
 30
0.0
 40
9.0
100
AcDbArc
 50
340.8119739527825
 51
19.18802604721743
  0
LINE
  5
5AC9
330
18
100
AcDbEntity
  8
DRAW2
100
AcDbLine
 10
2455.918076177134
 20
711.7304356924015
 30
0.0
 11
2455.918076177134
 21
721.5453999924014
 31
0.0
  0
ARC
  5
5ACA
330
18
100
AcDbEntity
  8
DRAW2
100
AcDbCircle
 10
2447.418070477134
 20
716.6379225924015
 30
0.0
 40
9.0
100
AcDbArc
 50
340.8119739527825
 51
22.49999999999975
  0
LINE
  5
5ACB
330
18
100
AcDbEntity
  8
DRAW2
100
AcDbLine
 10
2651.90252090859
 20
630.5510206704724
 30
0.0
 11
2651.90252090859
 21
640.3659849704723
 31
0.0
  0
LINE
  5
5ACC
330
18
100
AcDbEntity
  8
DRAW2
100
AcDbLine
 10
2634.90253810859
 20
630.5510378704724
 30
0.0
 11
2634.90253810859
 21
640.3660020704724
 31
0.0
  0
CIRCLE
  5
5ACD
330
18
100
AcDbEntity
  8
DRAW2
100
AcDbCircle
 10
2643.40251520859
 20
635.4585075704724
 30
0.0
 40
8.500000999999999
  0
LINE
  5
5ACF
330
18
100
AcDbEntity
  8
DRAW2
100
AcDbLine
 10
2643.402528071202
 20
625.6435432704724
 30
0.0
 11
2651.90253050859
 21
630.5510211704723
 31
0.0
  0
ARC
  5
5AD0
330
18
100
AcDbEntity
  8
DRAW2
100
AcDbCircle
 10
2643.40251520859
 20
635.4585075704724
 30
0.0
 40
9.0
100
AcDbArc
 50
280.8121538808874
 51
319.1878380774269
  0
ARC
  5
5AD1
330
18
100
AcDbEntity
  8
DRAW2
100
AcDbCircle
 10
2643.40251520859
 20
635.4585075704724
 30
0.0
 40
9.0
100
AcDbArc
 50
220.8116936954073
 51
259.1882999565211
  0
LINE
  5
5AD2
330
18
100
AcDbEntity
  8
DRAW2
100
AcDbLine
 10
2634.90252570859
 20
630.5510344704725
 30
0.0
 11
2643.402540403396
 21
625.6435480704724
 31
0.0
  0
LINE
  5
5AD3
330
18
100
AcDbEntity
  8
DRAW2
100
AcDbLine
 10
2643.402524072176
 20
645.2734642704724
 30
0.0
 11
2651.90251230859
 21
640.3659939704724
 31
0.0
  0
ARC
  5
5AD4
330
18
100
AcDbEntity
  8
DRAW2
100
AcDbCircle
 10
2643.40251520859
 20
635.4585075704724
 30
0.0
 40
9.0
100
AcDbArc
 50
40.81198765376154
 51
79.1880143320635
  0
ARC
  5
5AD6
330
18
100
AcDbEntity
  8
DRAW2
100
AcDbCircle
 10
2643.40251520859
 20
635.4585075704724
 30
0.0
 40
9.0
100
AcDbArc
 50
160.8114199894652
 51
199.1885800105347
  0
ARC
  5
5AD7
330
18
100
AcDbEntity
  8
DRAW2
100
AcDbCircle
 10
2643.40251520859
 20
635.4585075704724
 30
0.0
 40
9.0
100
AcDbArc
 50
100.811873354624
 51
139.1881148323965
  0
LINE
  5
5AD8
330
18
100
AcDbEntity
  8
DRAW2
100
AcDbLine
 10
2634.90252090859
 20
640.3659896704724
 30
0.0
 11
2643.402523125988
 21
645.2734670704724
 31
0.0
  0
ARC
  5
5AD9
330
18
100
AcDbEntity
  8
DRAW2
100
AcDbCircle
 10
2643.40251520859
 20
635.4585075704724
 30
0.0
 40
9.0
100
AcDbArc
 50
340.8119739527825
 51
19.18802604721743
  0
ARC
  5
5ADA
330
18
100
AcDbEntity
  8
DRAW2
100
AcDbCircle
 10
2447.418070477133
 20
831.4429523019287
 30
0.0
 40
9.0
100
AcDbArc
 50
280.8121538808874
 51
319.1878380774361
  0
LINE
  5
5ADB
330
18
100
AcDbEntity
  8
DRAW2
100
AcDbLine
 10
2447.418083339745
 20
821.6279880019287
 30
0.0
 11
2455.918085777133
 21
826.5354659019287
 31
0.0
  0
ARC
  5
5ADC
330
18
100
AcDbEntity
  8
DRAW2
100
AcDbCircle
 10
2447.418070477133
 20
831.4429523019287
 30
0.0
 40
9.0
100
AcDbArc
 50
40.81198765376154
 51
79.1880143320699
  0
LINE
  5
5ADD
330
18
100
AcDbEntity
  8
DRAW2
100
AcDbLine
 10
2447.418079340719
 20
841.2579090019287
 30
0.0
 11
2455.918067577133
 21
836.3504387019286
 31
0.0
  0
CIRCLE
  5
5ADF
330
18
100
AcDbEntity
  8
DRAW2
100
AcDbCircle
 10
2447.418070477133
 20
831.4429523019287
 30
0.0
 40
8.500000999999999
  0
LINE
  5
5AE0
330
18
100
AcDbEntity
  8
DRAW2
100
AcDbLine
 10
2375.499615522774
 20
855.5404374471654
 30
0.0
 11
2334.999615522774
 21
855.5404374471654
 31
0.0
  0
LINE
  5
5AE1
330
18
100
AcDbEntity
  8
DRAW2
100
AcDbLine
 10
2375.499615522774
 20
850.0840186857777
 30
0.0
 11
2334.999615522774
 21
850.0840186857777
 31
0.0
  0
LINE
  5
5AE2
330
18
100
AcDbEntity
  8
DRAW2
100
AcDbLine
 10
2332.999615522774
 20
848.7961903082917
 30
0.0
 11
2332.999615522774
 21
833.8045571177504
 31
0.0
  0
LINE
  5
5AE3
330
18
100
AcDbEntity
  8
DRAW2
100
AcDbLine
 10
2327.499615522774
 20
823.5824494471653
 30
0.0
 11
2327.499615522774
 21
844.1824254471653
 31
0.0
  0
LINE
  5
5AE4
330
18
100
AcDbEntity
  8
DRAW2
100
AcDbLine
 10
2319.499615522774
 20
824.3824294471655
 30
0.0
 11
2319.499615522774
 21
843.3824294471655
 31
0.0
  0
LINE
  5
5AE5
330
18
100
AcDbEntity
  8
DRAW2
100
AcDbLine
 10
2332.999615522774
 20
821.8824374471655
 30
0.0
 11
2332.999615522774
 21
845.8824374471655
 31
0.0
  0
LINE
  5
5AE6
330
18
100
AcDbEntity
  8
DRAW2
100
AcDbLine
 10
2330.499615522774
 20
821.8824374471655
 30
0.0
 11
2330.499615522774
 21
845.8824374471655
 31
0.0
  0
ARC
  5
5AE7
330
18
100
AcDbEntity
  8
DRAW2
100
AcDbCircle
 10
2333.219220022773
 20
838.6324294471656
 30
0.0
 40
13.719608
100
AcDbArc
 50
159.7437169999956
 51
200.2562999999994
  0
LINE
  5
5AE8
330
18
100
AcDbEntity
  8
DRAW2
100
AcDbLine
 10
2319.499615522774
 20
783.5404294471654
 30
0.0
 11
2327.499615522774
 21
783.5404294471654
 31
0.0
  0
LINE
  5
5AE9
330
18
100
AcDbEntity
  8
DRAW2
100
AcDbLine
 10
2319.499615522774
 20
764.5404294471655
 30
0.0
 11
2327.499615522774
 21
764.5404294471655
 31
0.0
  0
LINE
  5
5AEA
330
18
100
AcDbEntity
  8
DRAW2
100
AcDbLine
 10
2320.348126222773
 20
774.0404294471654
 30
0.0
 11
2327.499615522774
 21
774.0404294471654
 31
0.0
  0
LINE
  5
5AEB
330
18
100
AcDbEntity
  8
DRAW2
100
AcDbLine
 10
2320.348126222774
 20
774.0404294471654
 30
0.0
 11
2327.499615522774
 21
774.0404294471654
 31
0.0
  0
LINE
  5
5AEC
330
18
100
AcDbEntity
  8
DRAW2
100
AcDbLine
 10
2319.499615522774
 20
764.5404294471655
 30
0.0
 11
2319.499615522774
 21
783.5404294471654
 31
0.0
  0
ARC
  5
5AED
330
18
100
AcDbEntity
  8
DRAW2
100
AcDbCircle
 10
2333.219220022773
 20
778.7904294471655
 30
0.0
 40
13.719608
100
AcDbArc
 50
159.7437169999956
 51
200.2562999999994
  0
ARC
  5
5AEE
330
18
100
AcDbEntity
  8
DRAW2
100
AcDbCircle
 10
2333.219220022773
 20
769.2904294471654
 30
0.0
 40
13.719608
100
AcDbArc
 50
159.7437169999956
 51
200.2562999999994
  0
LINE
  5
5AEF
330
18
100
AcDbEntity
  8
DRAW2
100
AcDbLine
 10
2327.499573522774
 20
773.4630904671655
 30
0.0
 11
2330.499581922774
 21
775.1951463471655
 31
0.0
  0
LINE
  5
5AF0
330
18
100
AcDbEntity
  8
DRAW2
100
AcDbLine
 10
2327.499615522774
 20
763.7404494471654
 30
0.0
 11
2327.499615522774
 21
784.3404254471654
 31
0.0
  0
LINE
  5
5AF1
330
18
100
AcDbEntity
  8
DRAW2
100
AcDbLine
 10
2332.999615522774
 20
762.0404374471654
 30
0.0
 11
2332.999615522774
 21
786.0404374471654
 31
0.0
  0
LINE
  5
5AF2
330
18
100
AcDbEntity
  8
DRAW2
100
AcDbLine
 10
2330.499615522774
 20
762.0404374471654
 30
0.0
 11
2330.499615522774
 21
786.0404374471654
 31
0.0
  0
LINE
  5
5AF3
330
18
100
AcDbEntity
  8
DRAW2
100
AcDbLine
 10
2327.499608822774
 20
772.8857592471654
 30
0.0
 11
2330.499564222774
 21
774.6177845471654
 31
0.0
  0
LINE
  5
5AF4
330
18
100
AcDbEntity
  8
DRAW2
100
AcDbLine
 10
2327.499615522774
 20
763.7404494471654
 30
0.0
 11
2330.499615522774
 21
763.7404494471654
 31
0.0
  0
LINE
  5
5AF5
330
18
100
AcDbEntity
  8
DRAW2
100
AcDbLine
 10
2330.499615522774
 20
762.0404374471654
 30
0.0
 11
2332.999615522774
 21
762.0404374471654
 31
0.0
  0
LINE
  5
5AF6
330
18
100
AcDbEntity
  8
DRAW2
100
AcDbLine
 10
2330.499615522774
 20
786.0404374471654
 30
0.0
 11
2332.999615522774
 21
786.0404374471654
 31
0.0
  0
LINE
  5
5AF7
330
18
100
AcDbEntity
  8
DRAW2
100
AcDbLine
 10
2327.499615522774
 20
784.3404254471654
 30
0.0
 11
2330.499615522774
 21
784.3404254471654
 31
0.0
  0
LINE
  5
5AF8
330
18
100
AcDbEntity
  8
DRAW2
100
AcDbLine
 10
2319.499615522774
 20
824.3824294471655
 30
0.0
 11
2327.499615522774
 21
824.3824294471655
 31
0.0
  0
LINE
  5
5AF9
330
18
100
AcDbEntity
  8
DRAW2
100
AcDbLine
 10
2320.348126222773
 20
833.8824294471656
 30
0.0
 11
2327.499615522773
 21
833.8824294471656
 31
0.0
  0
LINE
  5
5AFA
330
18
100
AcDbEntity
  8
DRAW2
100
AcDbLine
 10
2320.348126222773
 20
833.8824294471656
 30
0.0
 11
2327.499615522774
 21
833.8824294471656
 31
0.0
  0
ARC
  5
5AFB
330
18
100
AcDbEntity
  8
DRAW2
100
AcDbCircle
 10
2333.219220022773
 20
829.1324294471655
 30
0.0
 40
13.719608
100
AcDbArc
 50
159.7437169999956
 51
200.2562999999994
  0
LINE
  5
5AFC
330
18
100
AcDbEntity
  8
DRAW2
100
AcDbLine
 10
2335.802823670254
 20
817.0404374471655
 30
0.0
 11
2335.802823670254
 21
815.0404374471655
 31
0.0
  0
LINE
  5
5AFD
330
18
100
AcDbEntity
  8
DRAW2
100
AcDbLine
 10
2335.802823670254
 20
815.0404374471655
 30
0.0
 11
2336.45961261326
 21
815.0404374471655
 31
0.0
  0
LINE
  5
5AFE
330
18
100
AcDbEntity
  8
DRAW2
100
AcDbLine
 10
2327.499608822774
 20
832.7277592471656
 30
0.0
 11
2330.499564222774
 21
834.4597845471653
 31
0.0
  0
LINE
  5
5AFF
330
18
100
AcDbEntity
  8
DRAW2
100
AcDbLine
 10
2327.499615522774
 20
823.5824494471653
 30
0.0
 11
2330.499615522774
 21
823.5824494471653
 31
0.0
  0
LINE
  5
5B00
330
18
100
AcDbEntity
  8
DRAW2
100
AcDbLine
 10
2330.499615522774
 20
821.8824374471655
 30
0.0
 11
2332.999615522774
 21
821.8824374471655
 31
0.0
  0
LINE
  5
5B01
330
18
100
AcDbEntity
  8
DRAW2
100
AcDbLine
 10
2327.499573522774
 20
833.3050904671654
 30
0.0
 11
2330.499581922774
 21
835.0371463471656
 31
0.0
  0
LINE
  5
5B02
330
18
100
AcDbEntity
  8
DRAW2
100
AcDbLine
 10
2335.802823670254
 20
817.0404374471655
 30
0.0
 11
2336.153943724606
 21
817.0404374471655
 31
0.0
  0
LINE
  5
5B03
330
18
100
AcDbEntity
  8
DRAW2
100
AcDbLine
 10
2319.499615522774
 20
843.3824294471655
 30
0.0
 11
2327.499615522774
 21
843.3824294471655
 31
0.0
  0
ARC
  5
5B04
330
18
100
AcDbEntity
  8
DRAW2
100
AcDbCircle
 10
2334.999615522774
 20
853.5404374471655
 30
0.0
 40
2.0
100
AcDbArc
 50
90.0
 51
180.0
  0
ARC
  5
5B05
330
18
100
AcDbEntity
  8
DRAW2
100
AcDbCircle
 10
2334.999615522774
 20
848.0840186857776
 30
0.0
 40
2.0
100
AcDbArc
 50
90.0
 51
159.1399940783451
  0
LINE
  5
5B06
330
18
100
AcDbEntity
  8
DRAW2
100
AcDbLine
 10
2330.499615522774
 20
845.8824374471655
 30
0.0
 11
2332.999615522774
 21
845.8824374471655
 31
0.0
  0
LINE
  5
5B07
330
18
100
AcDbEntity
  8
DRAW2
100
AcDbLine
 10
2327.499615522774
 20
844.1824254471653
 30
0.0
 11
2330.499615522774
 21
844.1824254471653
 31
0.0
  0
LINE
  5
5B08
330
18
100
AcDbEntity
  8
DRAW2
100
AcDbLine
 10
2433.000000353827
 20
830.254314737386
 30
0.0
 11
2433.000000353827
 21
839.0074374471655
 31
0.0
  0
LINE
  5
5B09
330
18
100
AcDbEntity
  8
DRAW2
100
AcDbLine
 10
2432.124954296346
 20
827.8824374471655
 30
0.0
 11
2432.124954296346
 21
839.8824374471654
 31
0.0
  0
LINE
  5
5B0A
330
18
100
AcDbEntity
  8
DRAW2
100
AcDbLine
 10
2438.918076177133
 20
836.3504344019286
 30
0.0
 11
2447.418078394532
 21
841.2579118019287
 31
0.0
  0
LINE
  5
5B0B
330
18
100
AcDbEntity
  8
DRAW2
100
AcDbLine
 10
2426.500000353826
 20
848.7961903082917
 30
0.0
 11
2426.500000353826
 21
833.8045571177504
 31
0.0
  0
LINE
  5
5B0C
330
18
100
AcDbEntity
  8
DRAW2
100
AcDbLine
 10
2426.500000353826
 20
807.6373123018292
 30
0.0
 11
2426.500000353826
 21
853.5404374471655
 31
0.0
  0
LINE
  5
5B0D
330
18
100
AcDbEntity
  8
DRAW2
100
AcDbLine
 10
2377.499615522773
 20
767.0404374471653
 30
0.0
 11
2379.500000120256
 21
767.0404374471655
 31
0.0
  0
LINE
  5
5B0E
330
18
100
AcDbEntity
  8
DRAW2
100
AcDbLine
 10
2379.500000120256
 20
768.040437447167
 30
0.0
 11
2382.000000353826
 21
768.040437447167
 31
0.0
  0
LINE
  5
5B0F
330
18
100
AcDbEntity
  8
DRAW3
100
AcDbLine
 10
2382.000000353826
 20
768.9154974465339
 30
0.0
 11
2379.500000120256
 21
768.9154974465339
 31
0.0
  0
LINE
  5
5B10
330
18
100
AcDbEntity
  8
DRAW2
100
AcDbLine
 10
2379.500000120256
 20
781.0404374471654
 30
0.0
 11
2377.499615522773
 21
781.0404374471653
 31
0.0
  0
LINE
  5
5B11
330
18
100
AcDbEntity
  8
DRAW2
100
AcDbLine
 10
2379.500000120255
 20
780.040437447167
 30
0.0
 11
2382.000000353826
 21
780.040437447167
 31
0.0
  0
LINE
  5
5B12
330
18
100
AcDbEntity
  8
DRAW3
100
AcDbLine
 10
2382.000000353826
 20
779.1654374471654
 30
0.0
 11
2379.500000120256
 21
779.1654374471654
 31
0.0
  0
LINE
  5
5B13
330
18
100
AcDbEntity
  8
DRAW2
100
AcDbLine
 10
2379.500000120255
 20
827.8824374471669
 30
0.0
 11
2382.000000353826
 21
827.8824374471669
 31
0.0
  0
LINE
  5
5B14
330
18
100
AcDbEntity
  8
DRAW3
100
AcDbLine
 10
2382.000000353826
 20
828.7574974465339
 30
0.0
 11
2379.500000120255
 21
828.7574974465339
 31
0.0
  0
ARC
  5
5B15
330
18
100
AcDbEntity
  8
DRAW2
100
AcDbCircle
 10
2423.166870471014
 20
774.0404303222089
 30
0.0
 40
49.00000000000003
100
AcDbArc
 50
81.77257770081576
 51
86.09952986077347
  0
LINE
  5
5B16
330
18
100
AcDbEntity
  8
DRAW2
100
AcDbLine
 10
2426.500000353826
 20
827.8824374471655
 30
0.0
 11
2432.124954296346
 21
827.8824374471655
 31
0.0
  0
LINE
  5
5B17
330
18
100
AcDbEntity
  8
DRAW3
100
AcDbLine
 10
2426.500000353826
 20
828.7574974465339
 30
0.0
 11
2432.458333875227
 21
828.7574974465341
 31
0.0
  0
LINE
  5
5B18
330
18
100
AcDbEntity
  8
DRAW2
100
AcDbLine
 10
2438.918080977134
 20
826.5354792019286
 30
0.0
 11
2447.41809567194
 21
821.6279928019286
 31
0.0
  0
ARC
  5
5B19
330
18
100
AcDbEntity
  8
DRAW2
100
AcDbCircle
 10
2447.418070477133
 20
831.4429523019287
 30
0.0
 40
9.0
100
AcDbArc
 50
157.5000000000002
 51
199.1885800105347
  0
LINE
  5
5B1A
330
18
100
AcDbEntity
  8
DRAW2
100
AcDbLine
 10
2438.918093377133
 20
826.5354826019287
 30
0.0
 11
2438.918093377133
 21
836.3504468019286
 31
0.0
  0
ARC
  5
5B1B
330
18
100
AcDbEntity
  8
DRAW2
100
AcDbCircle
 10
2430.894409533513
 20
827.4846441893965
 30
0.0
 40
5.000000000000044
100
AcDbArc
 50
261.7725812295926
 51
264.0230384356304
  0
LINE
  5
5B1C
330
18
100
AcDbEntity
  8
DRAW2
100
AcDbLine
 10
2432.124954296346
 20
827.8824374471655
 30
0.0
 11
2432.162408701251
 21
827.9198898806825
 31
0.0
  0
ARC
  5
5B1E
330
18
100
AcDbEntity
  8
DRAW2
100
AcDbCircle
 10
2447.418070477133
 20
831.4429523019287
 30
0.0
 40
9.0
100
AcDbArc
 50
220.8116936954073
 51
259.1882999565275
  0
LINE
  5
5B1F
330
18
100
AcDbEntity
  8
DRAW2
100
AcDbLine
 10
2384.000000353826
 20
850.0840186857777
 30
0.0
 11
2424.500000353826
 21
850.0840186857777
 31
0.0
  0
LINE
  5
5B20
330
18
100
AcDbEntity
  8
DRAW2
100
AcDbLine
 10
2384.000000353827
 20
855.5404374471654
 30
0.0
 11
2424.500000353826
 21
855.5404374471654
 31
0.0
  0
ARC
  5
5B21
330
18
100
AcDbEntity
  8
DRAW2
100
AcDbCircle
 10
2375.499615522774
 20
853.5404374471655
 30
0.0
 40
2.0
100
AcDbArc
 50
0.0
 51
90.0
  0
ARC
  5
5B22
330
18
100
AcDbEntity
  8
DRAW2
100
AcDbCircle
 10
2375.499615522774
 20
848.0840186857776
 30
0.0
 40
2.0
100
AcDbArc
 50
0.0
 51
90.0
  0
ARC
  5
5B23
330
18
100
AcDbEntity
  8
DRAW2
100
AcDbCircle
 10
2384.000000353826
 20
848.0840186857776
 30
0.0
 40
2.0
100
AcDbArc
 50
90.0
 51
180.0
  0
ARC
  5
5B24
330
18
100
AcDbEntity
  8
DRAW2
100
AcDbCircle
 10
2384.000000353827
 20
853.5404374471655
 30
0.0
 40
2.0
100
AcDbArc
 50
90.0
 51
180.0
  0
LINE
  5
5B25
330
18
100
AcDbEntity
  8
DRAW2
100
AcDbLine
 10
2377.499615522773
 20
846.0404374471654
 30
0.0
 11
2379.500000120256
 21
846.0404374471654
 31
0.0
  0
LINE
  5
5B26
330
18
100
AcDbEntity
  8
DRAW2
100
AcDbLine
 10
2379.500000120255
 20
839.8824374471669
 30
0.0
 11
2382.000000353826
 21
839.8824374471669
 31
0.0
  0
LINE
  5
5B27
330
18
100
AcDbEntity
  8
DRAW3
100
AcDbLine
 10
2382.000000353826
 20
839.0074374471655
 30
0.0
 11
2379.500000120255
 21
839.0074374471655
 31
0.0
  0
LINE
  5
5B28
330
18
100
AcDbEntity
  8
DRAW2
100
AcDbLine
 10
2426.500000353826
 20
839.8824374471654
 30
0.0
 11
2432.124954296346
 21
839.8824374471654
 31
0.0
  0
LINE
  5
5B29
330
18
100
AcDbEntity
  8
DRAW3
100
AcDbLine
 10
2426.500000353826
 20
839.0074374471655
 30
0.0
 11
2433.000000353827
 21
839.0074374471655
 31
0.0
  0
ARC
  5
5B2A
330
18
100
AcDbEntity
  8
DRAW2
100
AcDbCircle
 10
2424.500000353826
 20
848.0840186857776
 30
0.0
 40
2.0
100
AcDbArc
 50
20.86000592165488
 51
90.0
  0
ARC
  5
5B2B
330
18
100
AcDbEntity
  8
DRAW2
100
AcDbCircle
 10
2424.500000353826
 20
853.5404374471655
 30
0.0
 40
2.0
100
AcDbArc
 50
0.0
 51
90.0
  0
LINE
  5
5B2C
330
18
100
AcDbEntity
  8
DRAW2
100
AcDbLine
 10
2432.124954296346
 20
839.8824374471654
 30
0.0
 11
2433.000000353827
 21
839.0074374471655
 31
0.0
  0
ARC
  5
5B2D
330
18
100
AcDbEntity
  8
DRAW2
100
AcDbCircle
 10
2447.418070477133
 20
831.4429523019287
 30
0.0
 40
9.0
100
AcDbArc
 50
100.811873354624
 51
139.1881148323965
  0
LINE
  5
5B2E
330
18
100
AcDbEntity
  8
DRAW2
100
AcDbLine
 10
2643.402524072176
 20
922.4373240238586
 30
0.0
 11
2651.90251230859
 21
917.5298537238584
 31
0.0
  0
ARC
  5
5B2F
330
18
100
AcDbEntity
  8
DRAW2
100
AcDbCircle
 10
2643.40251520859
 20
912.6223673238584
 30
0.0
 40
9.0
100
AcDbArc
 50
40.81198765376154
 51
79.1880143320699
  0
ARC
  5
5B30
330
18
100
AcDbEntity
  8
DRAW2
100
AcDbCircle
 10
2643.40251520859
 20
912.6223673238584
 30
0.0
 40
9.0
100
AcDbArc
 50
100.811873354624
 51
139.1881148324057
  0
LINE
  5
5B31
330
18
100
AcDbEntity
  8
DRAW2
100
AcDbLine
 10
2634.90252090859
 20
917.5298494238584
 30
0.0
 11
2643.402523125988
 21
922.4373268238585
 31
0.0
  0
CIRCLE
  5
5B33
330
18
100
AcDbEntity
  8
DRAW2
100
AcDbCircle
 10
2643.40251520859
 20
912.6223673238584
 30
0.0
 40
8.500000999999999
  0
ARC
  5
5B34
330
18
100
AcDbEntity
  8
DRAW2
100
AcDbCircle
 10
2528.597485499063
 20
912.6223673238584
 30
0.0
 40
9.0
100
AcDbArc
 50
40.81198765376154
 51
79.1880143320699
  0
LINE
  5
5B36
330
18
100
AcDbEntity
  8
DRAW2
100
AcDbLine
 10
2528.597494362649
 20
922.4373240238586
 30
0.0
 11
2537.097482599063
 21
917.5298537238584
 31
0.0
  0
LINE
  5
5B37
330
18
100
AcDbEntity
  8
DRAW2
100
AcDbLine
 10
2520.097491199063
 20
917.5298494238584
 30
0.0
 11
2528.597493416461
 21
922.4373268238585
 31
0.0
  0
ARC
  5
5B38
330
18
100
AcDbEntity
  8
DRAW2
100
AcDbCircle
 10
2528.597485499063
 20
912.6223673238584
 30
0.0
 40
9.0
100
AcDbArc
 50
100.8118733546176
 51
139.1881148324057
  0
CIRCLE
  5
5B39
330
18
100
AcDbEntity
  8
DRAW2
100
AcDbCircle
 10
2528.597485499063
 20
912.6223673238584
 30
0.0
 40
8.500000999999999
  0
LINE
  5
5B3A
330
18
100
AcDbEntity
  8
DRAW2
100
AcDbLine
 10
2551.469979044715
 20
768.5404374471654
 30
0.0
 11
2568.469979044715
 21
768.5404374471654
 31
0.0
  0
LINE
  5
5B3B
330
18
100
AcDbEntity
  8
DRAW2
100
AcDbLine
 10
2551.469979044715
 20
779.5404374471655
 30
0.0
 11
2568.469979044715
 21
779.5404374471655
 31
0.0
  0
LINE
  5
5B3C
330
18
100
AcDbEntity
  8
DRAW2
100
AcDbLine
 10
2455.918076177133
 20
826.5354654019287
 30
0.0
 11
2455.918076177133
 21
836.3504297019288
 31
0.0
  0
ARC
  5
5B3D
330
18
100
AcDbEntity
  8
DRAW2
100
AcDbCircle
 10
2447.418070477133
 20
831.4429523019287
 30
0.0
 40
9.0
100
AcDbArc
 50
337.5000000000002
 51
19.18802604721743
  0
LINE
  5
5B3E
330
18
100
AcDbEntity
  8
DRAW2
100
AcDbLine
 10
2551.469979044715
 20
768.5404374471654
 30
0.0
 11
2551.469979044715
 21
779.5404374471655
 31
0.0
  0
ARC
  5
5B3F
330
18
100
AcDbEntity
  8
DRAW2
100
AcDbCircle
 10
2528.597485499063
 20
912.6223673238584
 30
0.0
 40
9.0
100
AcDbArc
 50
280.8121538808874
 51
319.1878380774361
  0
LINE
  5
5B40
330
18
100
AcDbEntity
  8
DRAW2
100
AcDbLine
 10
2528.597498361675
 20
902.8074030238585
 30
0.0
 11
2537.097500799063
 21
907.7148809238586
 31
0.0
  0
ARC
  5
5B42
330
18
100
AcDbEntity
  8
DRAW2
100
AcDbCircle
 10
2528.597485499063
 20
912.6223673238584
 30
0.0
 40
9.0
100
AcDbArc
 50
160.8114199894652
 51
199.1885800105347
  0
LINE
  5
5B43
330
18
100
AcDbEntity
  8
DRAW2
100
AcDbLine
 10
2520.097508399063
 20
907.7148976238584
 30
0.0
 11
2520.097508399063
 21
917.5298618238585
 31
0.0
  0
ARC
  5
5B44
330
18
100
AcDbEntity
  8
DRAW2
100
AcDbCircle
 10
2528.597485499063
 20
912.6223673238584
 30
0.0
 40
9.0
100
AcDbArc
 50
220.8116936954073
 51
259.1882999565275
  0
LINE
  5
5B45
330
18
100
AcDbEntity
  8
DRAW2
100
AcDbLine
 10
2520.097495999063
 20
907.7148942238585
 30
0.0
 11
2528.597510693868
 21
902.8074078238585
 31
0.0
  0
LINE
  5
5B46
330
18
100
AcDbEntity
  8
DRAW2
100
AcDbLine
 10
2537.097491199063
 20
907.7148804238584
 30
0.0
 11
2537.097491199063
 21
917.5298447238585
 31
0.0
  0
ARC
  5
5B47
330
18
100
AcDbEntity
  8
DRAW2
100
AcDbCircle
 10
2528.597485499063
 20
912.6223673238584
 30
0.0
 40
9.0
100
AcDbArc
 50
340.8119739527825
 51
19.18802604721743
  0
ARC
  5
5B48
330
18
100
AcDbEntity
  8
DRAW2
100
AcDbCircle
 10
2586.000000353827
 20
774.0404374471654
 30
0.0
 40
10.0
100
AcDbArc
 50
203.5781784782011
 51
336.4218215217988
  0
ARC
  5
5B49
330
18
100
AcDbEntity
  8
DRAW2
100
AcDbCircle
 10
2586.000000353827
 20
774.0404374471654
 30
0.0
 40
10.0
100
AcDbArc
 50
23.57817847820118
 51
156.4218215217988
  0
LINE
  5
5B4A
330
18
100
AcDbEntity
  8
DRAW2
100
AcDbLine
 10
2586.000000353827
 20
756.7199293714765
 30
0.0
 11
2571.000000353826
 21
765.3801834093209
 31
0.0
  0
LINE
  5
5B4B
330
18
100
AcDbEntity
  8
DRAW2
100
AcDbLine
 10
2569.500000353826
 20
770.0404374471654
 30
0.0
 11
2602.500000353826
 21
770.0404374471654
 31
0.0
  0
LINE
  5
5B4C
330
18
100
AcDbEntity
  8
DRAW2
100
AcDbLine
 10
2569.500000353826
 20
778.0404374471654
 30
0.0
 11
2602.500000353826
 21
778.0404374471654
 31
0.0
  0
LINE
  5
5B4D
330
18
100
AcDbEntity
  8
DRAW2
100
AcDbLine
 10
2570.999977513854
 20
782.7006519248972
 30
0.0
 11
2585.99997751382
 21
791.3609850829072
 31
0.0
  0
LINE
  5
5B4E
330
18
100
AcDbEntity
  8
DRAW2
100
AcDbLine
 10
2563.469979044715
 20
768.5404374471654
 30
0.0
 11
2563.469979044715
 21
779.5404374471655
 31
0.0
  0
ARC
  5
5B4F
330
18
100
AcDbEntity
  8
DRAW2
100
AcDbCircle
 10
2569.500000353826
 20
774.0404374471654
 30
0.0
 40
4.0
100
AcDbArc
 50
90.0
 51
180.0
  0
LINE
  5
5B50
330
18
100
AcDbEntity
  8
DRAW2
100
AcDbLine
 10
2569.469979044715
 20
770.0404374471654
 30
0.0
 11
2568.469979044715
 21
770.0404374471654
 31
0.0
  0
ARC
  5
5B51
330
18
100
AcDbEntity
  8
DRAW2
100
AcDbCircle
 10
2569.500000353826
 20
774.0404374471654
 30
0.0
 40
4.0
100
AcDbArc
 50
180.0
 51
270.0
  0
LINE
  5
5B52
330
18
100
AcDbEntity
  8
DRAW2
100
AcDbLine
 10
2568.469979044715
 20
768.5404374471654
 30
0.0
 11
2568.469979044715
 21
770.1753299321308
 31
0.0
  0
LINE
  5
5B53
330
18
100
AcDbEntity
  8
DRAW3
100
AcDbLine
 10
2563.469979044715
 20
773.2904374471655
 30
0.0
 11
2565.570941942451
 21
773.2904374471655
 31
0.0
  0
LINE
  5
5B54
330
18
100
AcDbEntity
  8
DRAW3
100
AcDbLine
 10
2563.469979044715
 20
772.5404374471654
 30
0.0
 11
2565.791901110278
 21
772.5404374471654
 31
0.0
  0
LINE
  5
5B55
330
18
100
AcDbEntity
  8
DRAW3
100
AcDbLine
 10
2563.469979044715
 20
771.7904374471654
 30
0.0
 11
2566.192811214996
 21
771.7904374471654
 31
0.0
  0
LINE
  5
5B56
330
18
100
AcDbEntity
  8
DRAW3
100
AcDbLine
 10
2563.469979044715
 20
771.0404374471655
 30
0.0
 11
2566.854249042762
 21
771.0404374471655
 31
0.0
  0
LINE
  5
5B57
330
18
100
AcDbEntity
  8
DRAW3
100
AcDbLine
 10
2563.469979044715
 20
770.2904374471654
 30
0.0
 11
2568.108059263119
 21
770.2904374471654
 31
0.0
  0
LINE
  5
5B58
330
18
100
AcDbEntity
  8
DRAW3
100
AcDbLine
 10
2563.469979044715
 20
769.5404374471654
 30
0.0
 11
2568.469979044715
 21
769.5404374471654
 31
0.0
  0
LINE
  5
5B59
330
18
100
AcDbEntity
  8
DRAW3
100
AcDbLine
 10
2563.469979044715
 20
768.7904374471655
 30
0.0
 11
2568.469979044715
 21
768.7904374471655
 31
0.0
  0
LINE
  5
5B5A
330
18
100
AcDbEntity
  8
DRAW3
100
AcDbLine
 10
2563.469979044715
 20
774.7904374471654
 30
0.0
 11
2565.570941942451
 21
774.7904374471654
 31
0.0
  0
LINE
  5
5B5B
330
18
100
AcDbEntity
  8
DRAW2
100
AcDbLine
 10
2565.500000353826
 20
774.0404374471654
 30
0.0
 11
2565.500000353826
 21
774.0404374471654
 31
0.0
  0
LINE
  5
5B5C
330
18
100
AcDbEntity
  8
DRAW2
100
AcDbLine
 10
2570.033372984109
 20
769.1462310077715
 30
0.0
 11
2570.999995347821
 21
769.1764379566375
 31
0.0
  0
LINE
  5
5B5D
330
18
100
AcDbEntity
  8
DRAW2
100
AcDbLine
 10
2570.033372984109
 20
769.1462310077715
 30
0.0
 11
2570.033372984109
 21
770.0404374471656
 31
0.0
  0
LINE
  5
5B5E
330
18
100
AcDbEntity
  8
DRAW2
100
AcDbLine
 10
2569.469979044715
 20
769.7096249471654
 30
0.0
 11
2569.469979044715
 21
770.0405501086271
 31
0.0
  0
LINE
  5
5B5F
330
18
100
AcDbEntity
  8
DRAW3
100
AcDbLine
 10
2569.469979044715
 20
769.7096249471654
 30
0.0
 11
2570.999994581675
 21
769.7574379326955
 31
0.0
  0
LINE
  5
5B60
330
18
100
AcDbEntity
  8
DRAW2
100
AcDbLine
 10
2569.469979044715
 20
769.7096249471654
 30
0.0
 11
2570.033372984109
 21
769.1462310077715
 31
0.0
  0
LINE
  5
5B61
330
18
100
AcDbEntity
  8
DRAW2
100
AcDbLine
 10
2571.000000353826
 20
765.3801834093209
 30
0.0
 11
2570.999994208492
 21
770.0404374471656
 31
0.0
  0
LINE
  5
5B62
330
18
100
AcDbEntity
  8
DRAW2
100
AcDbLine
 10
2569.469979044715
 20
778.0404374471654
 30
0.0
 11
2568.469979044715
 21
778.0404374471654
 31
0.0
  0
LINE
  5
5B63
330
18
100
AcDbEntity
  8
DRAW2
100
AcDbLine
 10
2568.469979044715
 20
777.9055449622001
 30
0.0
 11
2568.469979044715
 21
779.5404374471655
 31
0.0
  0
LINE
  5
5B64
330
18
100
AcDbEntity
  8
DRAW3
100
AcDbLine
 10
2568.469979044715
 20
778.4188829552411
 30
0.0
 11
2568.499979044715
 21
778.4015624471654
 31
0.0
  0
LINE
  5
5B65
330
18
100
AcDbEntity
  8
DRAW3
100
AcDbLine
 10
2563.469979044715
 20
775.5404374471654
 30
0.0
 11
2565.791901110278
 21
775.5404374471654
 31
0.0
  0
LINE
  5
5B66
330
18
100
AcDbEntity
  8
DRAW3
100
AcDbLine
 10
2563.469979044715
 20
776.2904374471654
 30
0.0
 11
2566.192811214996
 21
776.2904374471654
 31
0.0
  0
LINE
  5
5B67
330
18
100
AcDbEntity
  8
DRAW3
100
AcDbLine
 10
2563.469979044715
 20
777.0404374471654
 30
0.0
 11
2566.854249042762
 21
777.0404374471654
 31
0.0
  0
LINE
  5
5B68
330
18
100
AcDbEntity
  8
DRAW3
100
AcDbLine
 10
2563.469979044715
 20
777.7904374471654
 30
0.0
 11
2568.108059263119
 21
777.7904374471654
 31
0.0
  0
LINE
  5
5B69
330
18
100
AcDbEntity
  8
DRAW3
100
AcDbLine
 10
2563.469979044715
 20
778.5404374471654
 30
0.0
 11
2568.469979044715
 21
778.5404374471654
 31
0.0
  0
LINE
  5
5B6A
330
18
100
AcDbEntity
  8
DRAW3
100
AcDbLine
 10
2563.469979044715
 20
779.2904374471654
 30
0.0
 11
2568.469979044715
 21
779.2904374471654
 31
0.0
  0
ARC
  5
5B6B
330
18
100
AcDbEntity
  8
DRAW2
100
AcDbCircle
 10
2586.000000353827
 20
774.0404374471654
 30
0.0
 40
17.32050807568884
100
AcDbArc
 50
149.9998488916136
 51
150.0001511083819
  0
LINE
  5
5B6C
330
18
100
AcDbEntity
  8
DRAW2
100
AcDbLine
 10
2570.033372984109
 20
778.0404374471654
 30
0.0
 11
2570.033372984109
 21
778.9346438865593
 31
0.0
  0
LINE
  5
5B6D
330
18
100
AcDbEntity
  8
DRAW2
100
AcDbLine
 10
2570.033372984109
 20
778.9346438865593
 30
0.0
 11
2570.999982519806
 21
778.904437338569
 31
0.0
  0
LINE
  5
5B6E
330
18
100
AcDbEntity
  8
DRAW2
100
AcDbLine
 10
2569.469979044715
 20
778.0403247857037
 30
0.0
 11
2569.469979044715
 21
778.3712499471655
 31
0.0
  0
LINE
  5
5B6F
330
18
100
AcDbEntity
  8
DRAW3
100
AcDbLine
 10
2569.469979044715
 20
778.3712499471655
 30
0.0
 11
2570.999983285953
 21
778.3234373146267
 31
0.0
  0
LINE
  5
5B70
330
18
100
AcDbEntity
  8
DRAW2
100
AcDbLine
 10
2569.469979044715
 20
778.3712499471655
 30
0.0
 11
2570.033372984109
 21
778.9346438865593
 31
0.0
  0
LINE
  5
5B71
330
18
100
AcDbEntity
  8
DRAW2
100
AcDbLine
 10
2570.999983659136
 20
778.0404374471654
 30
0.0
 11
2570.999977513854
 21
782.7006519248972
 31
0.0
  0
ARC
  5
5B72
330
18
100
AcDbEntity
  8
DRAW2
100
AcDbCircle
 10
2602.500000353826
 20
774.0404374471654
 30
0.0
 40
4.0
100
AcDbArc
 50
0.0
 51
90.0
  0
LINE
  5
5B73
330
18
100
AcDbEntity
  8
DRAW2
100
AcDbLine
 10
2601.000000353827
 20
765.380183409321
 30
0.0
 11
2586.000000353827
 21
756.7199293714765
 31
0.0
  0
LINE
  5
5B75
330
18
100
AcDbEntity
  8
DRAW2
100
AcDbLine
 10
2606.500000353826
 20
774.0404374471654
 30
0.0
 11
2606.500000353826
 21
774.0404374471654
 31
0.0
  0
LINE
  5
5B76
330
18
100
AcDbEntity
  8
DRAW2
100
AcDbLine
 10
2600.999994208492
 20
770.0404374471654
 30
0.0
 11
2601.000000353827
 21
765.3801834093212
 31
0.0
  0
ARC
  5
5B77
330
18
100
AcDbEntity
  8
DRAW2
100
AcDbCircle
 10
2602.500000353826
 20
774.0404374471654
 30
0.0
 40
4.0
100
AcDbArc
 50
270.0
 51
0.0
  0
LINE
  5
5B78
330
18
100
AcDbEntity
  8
DRAW2
100
AcDbLine
 10
2585.99997751382
 20
791.3609850829072
 30
0.0
 11
2600.99997751375
 21
782.7007310450626
 31
0.0
  0
ARC
  5
5B79
330
18
100
AcDbEntity
  8
DRAW2
100
AcDbCircle
 10
2586.000000353827
 20
774.0404374471654
 30
0.0
 40
17.32050807568884
100
AcDbArc
 50
89.99984889137932
 51
90.00030221584742
  0
LINE
  5
5B7A
330
18
100
AcDbEntity
  8
DRAW2
100
AcDbLine
 10
2600.99997751375
 20
782.7007310450626
 30
0.0
 11
2600.999983659137
 21
778.0404374471653
 31
0.0
  0
ARC
  5
5B7B
330
18
100
AcDbEntity
  8
DRAW2
100
AcDbCircle
 10
2643.40251520859
 20
912.6223673238584
 30
0.0
 40
9.0
100
AcDbArc
 50
280.8121538808874
 51
319.1878380774361
  0
LINE
  5
5B7C
330
18
100
AcDbEntity
  8
DRAW2
100
AcDbLine
 10
2643.402528071202
 20
902.8074030238585
 30
0.0
 11
2651.90253050859
 21
907.7148809238586
 31
0.0
  0
ARC
  5
5B7E
330
18
100
AcDbEntity
  8
DRAW2
100
AcDbCircle
 10
2643.40251520859
 20
912.6223673238584
 30
0.0
 40
9.0
100
AcDbArc
 50
220.8116936954073
 51
259.1882999565211
  0
ARC
  5
5B7F
330
18
100
AcDbEntity
  8
DRAW2
100
AcDbCircle
 10
2643.40251520859
 20
912.6223673238584
 30
0.0
 40
9.0
100
AcDbArc
 50
160.8114199894652
 51
199.1885800105347
  0
LINE
  5
5B80
330
18
100
AcDbEntity
  8
DRAW2
100
AcDbLine
 10
2634.90253810859
 20
907.7148976238584
 30
0.0
 11
2634.90253810859
 21
917.5298618238585
 31
0.0
  0
LINE
  5
5B81
330
18
100
AcDbEntity
  8
DRAW2
100
AcDbLine
 10
2634.90252570859
 20
907.7148942238585
 30
0.0
 11
2643.402540403396
 21
902.8074078238585
 31
0.0
  0
LINE
  5
5B82
330
18
100
AcDbEntity
  8
DRAW2
100
AcDbLine
 10
2651.90252090859
 20
907.7148804238584
 30
0.0
 11
2651.90252090859
 21
917.5298447238585
 31
0.0
  0
ARC
  5
5B83
330
18
100
AcDbEntity
  8
DRAW2
100
AcDbCircle
 10
2643.40251520859
 20
912.6223673238584
 30
0.0
 40
9.0
100
AcDbArc
 50
340.8119739527825
 51
19.18802604721743
  0
LINE
  5
5B85
330
18
100
AcDbEntity
  8
DRAW2
100
AcDbLine
 10
3156.015522495285
 20
426.0307492001961
 30
0.0
 11
3156.015522495285
 21
398.917859200196
 31
0.0
  0
LINE
  5
5B86
330
18
100
AcDbEntity
  8
DRAW2
100
AcDbLine
 10
3148.015522495285
 20
426.0307492001961
 30
0.0
 11
3148.015522495285
 21
398.917859200196
 31
0.0
  0
LINE
  5
5B89
330
18
100
AcDbEntity
  8
DRAW2
100
AcDbLine
 10
3070.515522495285
 20
129.030739200196
 30
0.0
 11
3072.21652962118
 21
154.8931886641968
 31
0.0
  0
LINE
  5
5B8A
330
18
100
AcDbEntity
  8
DRAW2
100
AcDbLine
 10
3080.798312112406
 20
170.030739200196
 30
0.0
 11
3024.763142495285
 21
170.030739200196
 31
0.0
  0
LINE
  5
5B8B
330
18
100
AcDbEntity
  8
DRAW2
100
AcDbLine
 10
2986.967916939392
 20
168.0313058527078
 30
0.0
 11
3078.346731654663
 21
168.0313058527078
 31
0.0
  0
LINE
  5
5B8C
330
18
100
AcDbEntity
  8
DRAW2
100
AcDbLine
 10
2991.015462495285
 20
188.5307492001957
 30
0.0
 11
3121.486884956083
 21
188.5307492001957
 31
0.0
  0
LINE
  5
5B8D
330
18
100
AcDbEntity
  8
DRAW2
100
AcDbLine
 10
3081.556711012122
 20
170.5301024701546
 30
0.0
 11
2990.015485758101
 21
170.5307192002426
 31
0.0
  0
LINE
  5
5B8F
330
18
100
AcDbEntity
  8
DRAW2
100
AcDbLine
 10
3275.015522495285
 20
357.5307492001961
 30
0.0
 11
3029.015522495285
 21
357.5307492001961
 31
0.0
  0
LINE
  5
5B90
330
18
100
AcDbEntity
  8
DRAW2
100
AcDbLine
 10
3275.015582495285
 20
314.5307492001961
 30
0.0
 11
3029.015522495285
 21
314.5307492001963
 31
0.0
  0
LINE
  5
5B91
330
18
100
AcDbEntity
  8
DRAW2
100
AcDbLine
 10
3270.015522495285
 20
362.5307492001961
 30
0.0
 11
3034.015492495285
 21
362.5307492001961
 31
0.0
  0
ARC
  5
5B93
330
18
100
AcDbEntity
  8
DRAW2
100
AcDbCircle
 10
3117.015522495285
 20
105.7815562023855
 30
0.0
 40
46.5
100
AcDbArc
 50
180.0
 51
212.0891838632658
  0
ARC
  5
5B94
330
18
100
AcDbEntity
  8
DRAW2
100
AcDbCircle
 10
3077.215509538059
 20
138.2183153045512
 30
0.0
 40
68.32006622805517
100
AcDbArc
 50
222.5355089651387
 51
270.0
  0
LINE
  5
5B95
330
18
100
AcDbEntity
  8
DRAW2
100
AcDbLine
 10
3072.595200211759
 20
92.03073920019557
 30
0.0
 11
2990.849239196904
 21
92.03073920019557
 31
0.0
  0
LINE
  5
5B98
330
18
100
AcDbEntity
  8
HIDDEN
100
AcDbLine
 10
2816.000000353827
 20
44.0307492001964
 30
0.0
 11
2816.000000353827
 21
188.0307492001963
 31
0.0
  0
LINE
  5
5B99
330
18
100
AcDbEntity
  8
DRAW2
100
AcDbLine
 10
2796.000000353826
 20
45.53074920019622
 30
0.0
 11
2796.000000353826
 21
180.0942575366523
 31
0.0
  0
LINE
  5
5B9A
330
18
100
AcDbEntity
  8
HIDDEN
100
AcDbLine
 10
2814.473290676406
 20
92.75045887761576
 30
0.0
 11
2814.473290676406
 21
149.311039522777
 31
0.0
  0
LINE
  5
5B9B
330
18
100
AcDbEntity
  8
DRAW2
100
AcDbLine
 10
2750.000000353826
 20
176.3184783004129
 30
0.0
 11
2750.000000353826
 21
32.41786508027308
 31
0.0
  0
LINE
  5
5B9C
330
18
100
AcDbEntity
  8
DRAW2
100
AcDbLine
 10
2842.500000353826
 20
32.41824987594554
 30
0.0
 11
2842.500000353826
 21
120.9563498759455
 31
0.0
  0
LINE
  5
5B9E
330
18
100
AcDbEntity
  8
DRAW2
100
AcDbLine
 10
2986.015522495285
 20
128.030739200196
 30
0.0
 11
2988.85611609859
 21
93.86502765876292
 31
0.0
  0
LINE
  5
5B9F
330
18
100
AcDbEntity
  8
DRAW2
100
AcDbLine
 10
2749.074430353827
 20
70.12413920019645
 30
0.0
 11
2749.437440353827
 21
99.83503920019627
 31
0.0
  0
LINE
  5
5BA0
330
18
100
AcDbEntity
  8
DRAW2
100
AcDbLine
 10
2742.395230353826
 20
93.55143920019628
 30
0.0
 11
2750.000000353826
 21
100.3369074305076
 31
0.0
  0
LINE
  5
5BA2
330
18
100
AcDbEntity
  8
DRAW2
100
AcDbLine
 10
2798.00000039085
 20
192.5307492372203
 30
0.0
 11
2798.00000039085
 21
32.41736130543751
 31
0.0
  0
LINE
  5
5BA3
330
18
100
AcDbEntity
  8
DRAW2
100
AcDbLine
 10
2794.500000353826
 20
32.4182499129692
 30
0.0
 11
2794.500000353826
 21
192.5307492001961
 31
0.0
  0
LINE
  5
5BA4
330
18
100
AcDbEntity
  8
DRAW2
100
AcDbLine
 10
2751.750500316802
 20
30.4182499129692
 30
0.0
 11
2792.500000353826
 21
30.4182499129692
 31
0.0
  0
ARC
  5
5BA6
330
18
100
AcDbEntity
  8
DRAW2
100
AcDbCircle
 10
2707.102420353827
 20
70.15793920019643
 30
0.0
 40
10.0
100
AcDbArc
 50
46.83983000000006
 51
114.7785819999999
  0
LINE
  5
5BA7
330
18
100
AcDbEntity
  8
DRAW2
100
AcDbLine
 10
2742.500000353826
 20
46.40574920019623
 30
0.0
 11
2742.500000353826
 21
56.65574920019628
 31
0.0
  0
LINE
  5
5BA8
330
18
100
AcDbEntity
  8
DRAW2
100
AcDbLine
 10
2743.375101680281
 20
45.53074920019622
 30
0.0
 11
2743.375101680281
 21
57.53074920019622
 31
0.0
  0
LINE
  5
5BA9
330
18
100
AcDbEntity
  8
DRAW2
100
AcDbLine
 10
2734.415010353826
 20
86.78386324653656
 30
0.0
 11
2734.415010353826
 21
22.78996384116857
 31
0.0
  0
LINE
  5
5BAA
330
18
100
AcDbEntity
  8
DRAW2
100
AcDbLine
 10
2714.785100353827
 20
86.76111645724388
 30
0.0
 11
2714.785100353827
 21
22.78988723974026
 31
0.0
  0
LINE
  5
5BAB
330
18
100
AcDbEntity
  8
DRAW2
100
AcDbLine
 10
2729.507510353826
 20
86.77728792291839
 30
0.0
 11
2729.507510353826
 21
22.78993629898857
 31
0.0
  0
LINE
  5
5BAC
330
18
100
AcDbEntity
  8
DRAW2
100
AcDbLine
 10
2719.692570353827
 20
86.7658129923671
 30
0.0
 11
2719.692570353826
 21
22.7899362989886
 31
0.0
  0
LINE
  5
5BAD
330
18
100
AcDbEntity
  8
DRAW2
100
AcDbLine
 10
2716.100040353826
 20
22.03074920019634
 30
0.0
 11
2733.100040353826
 21
22.03074920019634
 31
0.0
  0
ARC
  5
5BAE
330
18
100
AcDbEntity
  8
DRAW2
100
AcDbCircle
 10
2724.600040353826
 20
38.27155920019635
 30
0.0
 40
16.24081
100
AcDbArc
 50
252.4120499999999
 51
287.5879499999999
  0
LINE
  5
5BAF
330
18
100
AcDbEntity
  8
DRAW2
100
AcDbLine
 10
2716.100010353827
 20
22.03074920019634
 30
0.0
 11
2733.100040353826
 21
22.03074920019634
 31
0.0
  0
ARC
  5
5BB0
330
18
100
AcDbEntity
  8
DRAW2
100
AcDbCircle
 10
2717.238830353826
 20
26.37564920019633
 30
0.0
 40
4.344898699999999
100
AcDbArc
 50
244.38425
 51
304.38425
  0
LINE
  5
5BB1
330
18
100
AcDbEntity
  8
DRAW2
100
AcDbLine
 10
2716.100040353826
 20
22.03075920019631
 30
0.0
 11
2714.785100353827
 21
22.78993920019633
 31
0.0
  0
LINE
  5
5BB2
330
18
100
AcDbEntity
  8
DRAW2
100
AcDbLine
 10
2716.100010353827
 20
22.03073920019636
 30
0.0
 11
2714.785010353827
 21
22.78993920019633
 31
0.0
  0
ARC
  5
5BB3
330
18
100
AcDbEntity
  8
DRAW2
100
AcDbCircle
 10
2717.238750353827
 20
26.37564920019633
 30
0.0
 40
4.344898699999999
100
AcDbArc
 50
244.38425
 51
304.38425
  0
LINE
  5
5BB4
330
18
100
AcDbEntity
  8
DRAW2
100
AcDbLine
 10
2734.415010353826
 20
22.78994920019633
 30
0.0
 11
2733.100040353826
 21
22.03074920019634
 31
0.0
  0
ARC
  5
5BB5
330
18
100
AcDbEntity
  8
DRAW2
100
AcDbCircle
 10
2731.961270353826
 20
26.37564920019633
 30
0.0
 40
4.344898699999999
100
AcDbArc
 50
235.61575
 51
295.6157499999999
  0
LINE
  5
5BB6
330
18
100
AcDbEntity
  8
DRAW2
100
AcDbLine
 10
2734.414950353826
 20
22.78992920019635
 30
0.0
 11
2733.100010353826
 21
22.03074920019634
 31
0.0
  0
ARC
  5
5BB7
330
18
100
AcDbEntity
  8
DRAW2
100
AcDbCircle
 10
2731.961220353827
 20
26.37564920019633
 30
0.0
 40
4.344898699999999
100
AcDbArc
 50
235.61575
 51
295.6157499999999
  0
ARC
  5
5BB8
330
18
100
AcDbEntity
  8
DRAW2
100
AcDbCircle
 10
2752.000000316802
 20
32.41824991296943
 30
0.0
 40
2.0
100
AcDbArc
 50
180.000003
 51
270.00001
  0
LINE
  5
5BB9
330
18
100
AcDbEntity
  8
DRAW3
100
AcDbLine
 10
2750.000000316802
 20
46.40574920019625
 30
0.0
 11
2742.500000353826
 21
46.40574920019623
 31
0.0
  0
LINE
  5
5BBA
330
18
100
AcDbEntity
  8
DRAW2
100
AcDbLine
 10
2750.000000316802
 20
45.53074920019622
 30
0.0
 11
2743.375101680281
 21
45.53074920019622
 31
0.0
  0
LINE
  5
5BBB
330
18
100
AcDbEntity
  8
DRAW2
100
AcDbLine
 10
2743.375101680281
 20
45.53074920019622
 30
0.0
 11
2742.500000353826
 21
46.40574920019623
 31
0.0
  0
ARC
  5
5BBC
330
18
100
AcDbEntity
  8
DRAW2
100
AcDbCircle
 10
2752.933100703645
 20
118.8895369102813
 30
0.0
 40
57.00000000000075
100
AcDbArc
 50
251.0225308578307
 51
263.124426791084
  0
LINE
  5
5BBD
330
18
100
AcDbEntity
  8
DRAW2
100
AcDbLine
 10
2734.415010353826
 20
65.03073920019625
 30
0.0
 11
2750.000000353826
 21
65.03073920019625
 31
0.0
  0
ARC
  5
5BBE
330
18
100
AcDbEntity
  8
DRAW2
100
AcDbCircle
 10
2752.933100353827
 20
119.0307392001963
 30
0.0
 40
49.0
100
AcDbArc
 50
247.7722237873053
 51
260.5863799999999
  0
LINE
  5
5BBF
330
18
100
AcDbEntity
  8
DRAW2
100
AcDbLine
 10
2734.600040353826
 20
90.03073920019625
 30
0.0
 11
2714.600040353826
 21
90.03073920019625
 31
0.0
  0
ARC
  5
5BC0
330
18
100
AcDbEntity
  8
DRAW2
100
AcDbCircle
 10
2724.618140353826
 20
71.28993920019633
 30
0.0
 40
16.24081
100
AcDbArc
 50
72.41204999999995
 51
107.5879499999999
  0
LINE
  5
5BC1
330
18
100
AcDbEntity
  8
DRAW2
100
AcDbLine
 10
2733.818143453826
 20
87.53074920019628
 30
0.0
 11
2715.418137253827
 21
87.53074920019628
 31
0.0
  0
LINE
  5
5BC2
330
18
100
AcDbEntity
  8
DRAW2
100
AcDbLine
 10
2714.600040353826
 20
90.03073920019625
 30
0.0
 11
2714.600040353826
 21
92.03073920019624
 31
0.0
  0
LINE
  5
5BC3
330
18
100
AcDbEntity
  8
DRAW2
100
AcDbLine
 10
2714.803200353826
 20
86.77156652074353
 30
0.0
 11
2716.118140353827
 21
87.53074920019628
 31
0.0
  0
ARC
  5
5BC4
330
18
100
AcDbEntity
  8
DRAW2
100
AcDbCircle
 10
2717.256910353826
 20
83.18584920019635
 30
0.0
 40
4.344898699999999
100
AcDbArc
 50
55.61575000000003
 51
115.6157499999999
  0
LINE
  5
5BC5
330
18
100
AcDbEntity
  8
DRAW2
100
AcDbLine
 10
2715.418137253827
 20
87.53074920019628
 30
0.0
 11
2715.418137253827
 21
90.03074920019628
 31
0.0
  0
ARC
  5
5BC6
330
18
100
AcDbEntity
  8
DRAW2
100
AcDbCircle
 10
2752.93312016308
 20
119.0307021156902
 30
0.0
 40
57.0
100
AcDbArc
 50
226.8398199999999
 51
227.9652885913195
  0
LINE
  5
5BC7
330
18
100
AcDbEntity
  8
DRAW2
100
AcDbLine
 10
2734.600040353826
 20
90.03073920019625
 30
0.0
 11
2734.600040353826
 21
92.03073920019624
 31
0.0
  0
LINE
  5
5BC8
330
18
100
AcDbEntity
  8
DRAW2
100
AcDbLine
 10
2733.118140353826
 20
87.5307392001963
 30
0.0
 11
2734.433080353827
 21
86.77155920019629
 31
0.0
  0
ARC
  5
5BC9
330
18
100
AcDbEntity
  8
DRAW2
100
AcDbCircle
 10
2731.979350353826
 20
83.18584920019635
 30
0.0
 40
4.344898699999999
100
AcDbArc
 50
55.61541153599673
 51
124.3842499999999
  0
LINE
  5
5BCA
330
18
100
AcDbEntity
  8
DRAW2
100
AcDbLine
 10
2733.818143453826
 20
87.53074920019628
 30
0.0
 11
2733.818143453826
 21
90.03074920019628
 31
0.0
  0
LINE
  5
5BCB
330
18
100
AcDbEntity
  8
DRAW2
100
AcDbLine
 10
2723.516245657534
 20
87.53073110019625
 30
0.0
 11
2724.959620437534
 21
90.03072940019626
 31
0.0
  0
LINE
  5
5BCC
330
18
100
AcDbEntity
  8
DRAW2
100
AcDbLine
 10
2724.093607447535
 20
87.53074920019628
 30
0.0
 11
2725.536982157535
 21
90.03074710019621
 31
0.0
  0
LINE
  5
5BCD
330
18
100
AcDbEntity
  8
DRAW2
100
AcDbLine
 10
2744.925600353826
 20
70.12413920019645
 30
0.0
 11
2744.718570353827
 21
87.06753920019634
 31
0.0
  0
LINE
  5
5BCE
330
18
100
AcDbEntity
  8
DRAW3
100
AcDbLine
 10
2750.000060316802
 20
56.65564920019602
 30
0.0
 11
2742.500000353826
 21
56.65564920019602
 31
0.0
  0
LINE
  5
5BCF
330
18
100
AcDbEntity
  8
DRAW2
100
AcDbLine
 10
2750.000000316802
 20
57.53074920019622
 30
0.0
 11
2743.375101680282
 21
57.53074920019622
 31
0.0
  0
LINE
  5
5BD0
330
18
100
AcDbEntity
  8
DRAW2
100
AcDbLine
 10
2743.375101680282
 20
57.53074920019622
 30
0.0
 11
2742.500000353826
 21
56.65574920019622
 31
0.0
  0
LINE
  5
5BD1
330
18
100
AcDbEntity
  8
DRAW2
100
AcDbLine
 10
2744.997665903644
 20
64.23403920019637
 30
0.0
 11
2744.997665903644
 21
65.03073920019625
 31
0.0
  0
LINE
  5
5BD2
330
18
100
AcDbEntity
  8
DRAW2
100
AcDbLine
 10
2749.002335503644
 20
64.23403920019637
 30
0.0
 11
2749.002335503644
 21
65.03073920019625
 31
0.0
  0
ARC
  5
5BD3
330
18
100
AcDbEntity
  8
DRAW2
100
AcDbCircle
 10
2747.000000703645
 20
64.23403920019643
 30
0.0
 40
2.0023348
100
AcDbArc
 50
180.0
 51
0.0
  0
ARC
  5
5BD4
330
18
100
AcDbEntity
  8
DRAW2
100
AcDbCircle
 10
2747.000000353827
 20
70.14943920019629
 30
0.0
 40
2.0746078
100
AcDbArc
 50
180.7000009999999
 51
359.2999899999999
  0
ARC
  5
5BD5
330
18
100
AcDbEntity
  8
DRAW2
100
AcDbCircle
 10
2741.718750353826
 20
87.03073920019631
 30
0.0
 40
3.0
100
AcDbArc
 50
0.7000100000000576
 51
90.00000865142251
  0
LINE
  5
5BD6
330
18
100
AcDbEntity
  8
HIDDEN
100
AcDbLine
 10
2798.00000039085
 20
44.0307492001964
 30
0.0
 11
2816.000000353827
 21
44.0307492001964
 31
0.0
  0
LINE
  5
5BD7
330
18
100
AcDbEntity
  8
HIDDEN
100
AcDbLine
 10
2796.000000353826
 20
59.0307492001964
 30
0.0
 11
2816.000000353827
 21
59.0307492001964
 31
0.0
  0
LINE
  5
5BD8
330
18
100
AcDbEntity
  8
HIDDEN
100
AcDbLine
 10
2816.000000353827
 20
91.22374920019638
 30
0.0
 11
2796.000000353826
 21
91.84874920019638
 31
0.0
  0
LINE
  5
5BD9
330
18
100
AcDbEntity
  8
HIDDEN
100
AcDbLine
 10
2814.473290676406
 20
92.75045887761576
 30
0.0
 11
2796.000000353826
 21
93.32774920019643
 31
0.0
  0
LINE
  5
5BDA
330
18
100
AcDbEntity
  8
DRAW2
100
AcDbLine
 10
2840.500801446116
 20
30.41825003638274
 30
0.0
 11
2799.750500193389
 21
30.41825003638274
 31
0.0
  0
LINE
  5
5BDB
330
18
100
AcDbEntity
  8
DRAW2
100
AcDbLine
 10
2798.000000193389
 20
32.41825003638297
 30
0.0
 11
2798.000000193389
 21
43.95635003638296
 31
0.0
  0
ARC
  5
5BDC
330
18
100
AcDbEntity
  8
DRAW2
100
AcDbCircle
 10
2792.500000353826
 20
32.4182499129692
 30
0.0
 40
2.0
100
AcDbArc
 50
270.0
 51
0.0000000000000382
  0
ARC
  5
5BDD
330
18
100
AcDbEntity
  8
DRAW2
100
AcDbCircle
 10
2800.000000193389
 20
32.41825003638297
 30
0.0
 40
2.0
100
AcDbArc
 50
180.000003
 51
270.00001
  0
LINE
  5
5BDE
330
18
100
AcDbEntity
  8
DRAW2
100
AcDbLine
 10
2796.000000353826
 20
44.0307492001964
 30
0.0
 11
2796.000000353826
 21
45.53074920019622
 31
0.0
  0
LINE
  5
5BDF
330
18
100
AcDbEntity
  8
DRAW2
100
AcDbLine
 10
2798.00000039085
 20
44.0307492001964
 30
0.0
 11
2796.000000353826
 21
44.0307492001964
 31
0.0
  0
LINE
  5
5BE0
330
18
100
AcDbEntity
  8
DRAW2
100
AcDbLine
 10
2796.000000353826
 20
45.53074920019622
 30
0.0
 11
2794.500000353826
 21
45.53074920019622
 31
0.0
  0
LINE
  5
5BE1
330
18
100
AcDbEntity
  8
DRAW2
100
AcDbLine
 10
2796.000000353826
 20
57.53074920019622
 30
0.0
 11
2794.500000353826
 21
57.53074920019622
 31
0.0
  0
ARC
  5
5BE2
330
18
100
AcDbEntity
  8
DRAW2
100
AcDbCircle
 10
2796.50000039085
 20
74.53074920019645
 30
0.0
 40
2.0
100
AcDbArc
 50
180.000003
 51
255.5224867186342
  0
ARC
  5
5BE3
330
18
100
AcDbEntity
  8
DRAW2
  6
Continuous
100
AcDbCircle
 10
2837.848267353826
 20
51.53073831479915
 30
0.0
 40
18.151737
100
AcDbArc
 50
342.4123269999999
 51
17.58774999999997
  0
LINE
  5
5BE4
330
18
100
AcDbEntity
  8
DRAW2
  6
Continuous
100
AcDbLine
 10
2845.000000353826
 20
63.53083831479932
 30
0.0
 11
2845.000000353826
 21
39.53083831479935
 31
0.0
  0
LINE
  5
5BE5
330
18
100
AcDbEntity
  8
DRAW2
  6
Continuous
100
AcDbLine
 10
2848.000000353826
 20
62.50040431479908
 30
0.0
 11
2848.000000353826
 21
40.56108831479915
 31
0.0
  0
LINE
  5
5BE6
330
18
100
AcDbEntity
  8
DRAW2
  6
Continuous
100
AcDbLine
 10
2856.000000353827
 20
61.03078411479907
 30
0.0
 11
2856.000000353827
 21
42.03075361479912
 31
0.0
  0
ARC
  5
5BE7
330
18
100
AcDbEntity
  8
DRAW2
100
AcDbCircle
 10
2840.500000353826
 20
32.41824987594537
 30
0.0
 40
1.999999999999856
100
AcDbArc
 50
269.999989999999
 51
0.0000000000040711
  0
LINE
  5
5BE8
330
18
100
AcDbEntity
  8
DRAW2
  6
Continuous
100
AcDbLine
 10
2855.151520153826
 20
46.04592164289477
 30
0.0
 11
2848.000000353826
 21
46.04592164289477
 31
0.0
  0
LINE
  5
5BE9
330
18
100
AcDbEntity
  8
DRAW2
  6
Continuous
100
AcDbLine
 10
2855.151489653826
 20
40.56108831479915
 30
0.0
 11
2848.000000353826
 21
40.56108831479915
 31
0.0
  0
LINE
  5
5BEA
330
18
100
AcDbEntity
  8
DRAW2
  6
Continuous
100
AcDbLine
 10
2848.000042353826
 20
52.10808529479911
 30
0.0
 11
2845.000033953826
 21
50.37602941479909
 31
0.0
  0
LINE
  5
5BEB
330
18
100
AcDbEntity
  8
DRAW2
  6
Continuous
100
AcDbLine
 10
2848.000007053826
 20
52.68541651479913
 30
0.0
 11
2845.000051653826
 21
50.95339121479915
 31
0.0
  0
LINE
  5
5BEC
330
18
100
AcDbEntity
  8
DRAW2
100
AcDbLine
 10
2842.500000353826
 20
39.53083831479935
 30
0.0
 11
2845.000000353826
 21
39.53083831479935
 31
0.0
  0
LINE
  5
5BED
330
18
100
AcDbEntity
  8
DRAW2
  6
Continuous
100
AcDbLine
 10
2848.000000353826
 20
40.78083831479935
 30
0.0
 11
2845.000000353826
 21
40.78083831479935
 31
0.0
  0
LINE
  5
5BEE
330
18
100
AcDbEntity
  8
DRAW2
  6
Continuous
100
AcDbLine
 10
2856.000001353826
 20
42.03074691479915
 30
0.0
 11
2855.151491053826
 21
40.56108331479916
 31
0.0
  0
ARC
  5
5BEF
330
18
100
AcDbEntity
  8
DRAW2
  6
Continuous
100
AcDbCircle
 10
2851.143951753826
 20
43.30350441479916
 30
0.0
 40
4.856048099999999
100
AcDbArc
 50
334.38458
 51
34.38441999999997
  0
LINE
  5
5BF0
330
18
100
AcDbEntity
  8
HIDDEN
100
AcDbLine
 10
2816.000000353827
 20
91.22374920019638
 30
0.0
 11
2814.473290676406
 21
92.75045887761576
 31
0.0
  0
LINE
  5
5BF1
330
18
100
AcDbEntity
  8
DRAW2
  6
Continuous
100
AcDbLine
 10
2855.151504853827
 20
62.50040431479908
 30
0.0
 11
2848.000000353826
 21
62.50040431479908
 31
0.0
  0
LINE
  5
5BF2
330
18
100
AcDbEntity
  8
DRAW2
  6
Continuous
100
AcDbLine
 10
2855.151504853827
 20
57.01557111479906
 30
0.0
 11
2848.000000353826
 21
57.01557111479906
 31
0.0
  0
LINE
  5
5BF3
330
18
100
AcDbEntity
  8
DRAW2
  6
Continuous
100
AcDbLine
 10
2848.000000353826
 20
62.28083831479932
 30
0.0
 11
2845.000000353826
 21
62.28083831479932
 31
0.0
  0
LINE
  5
5BF4
330
18
100
AcDbEntity
  8
DRAW2
100
AcDbLine
 10
2842.500000353826
 20
63.53083831479932
 30
0.0
 11
2845.000000353826
 21
63.53083831479932
 31
0.0
  0
ARC
  5
5BF5
330
18
100
AcDbEntity
  8
DRAW2
  6
Continuous
100
AcDbCircle
 10
2851.143875453827
 20
59.75798741479912
 30
0.0
 40
4.856120099999999
100
AcDbArc
 50
325.616205
 51
25.6177
  0
LINE
  5
5BF6
330
18
100
AcDbEntity
  8
DRAW2
  6
Continuous
100
AcDbLine
 10
2855.151504353827
 20
62.50041031479907
 30
0.0
 11
2855.999996053826
 21
61.03077931479913
 31
0.0
  0
LINE
  5
5BF7
330
18
100
AcDbEntity
  8
DRAW2
100
AcDbLine
 10
3023.433612495285
 20
90.03074920019605
 30
0.0
 11
3003.433612495285
 21
90.03074920019605
 31
0.0
  0
LINE
  5
5BF8
330
18
100
AcDbEntity
  8
DRAW2
100
AcDbLine
 10
3022.633612495285
 20
87.53074920019605
 30
0.0
 11
3004.233612495285
 21
87.53074920019605
 31
0.0
  0
LINE
  5
5BF9
330
18
100
AcDbEntity
  8
DRAW2
100
AcDbLine
 10
3004.933612495285
 20
79.53074920019616
 30
0.0
 11
3021.933612495285
 21
79.53074920019606
 31
0.0
  0
ARC
  5
5BFA
330
18
100
AcDbEntity
  8
DRAW2
100
AcDbCircle
 10
3017.683612495285
 20
91.80625583859706
 30
0.0
 40
12.27550663840103
100
AcDbArc
 50
249.743841999583
 51
290.2561580004169
  0
ARC
  5
5BFB
330
18
100
AcDbEntity
  8
DRAW2
100
AcDbCircle
 10
2990.849239196904
 20
94.03073920019556
 30
0.0
 40
2.0
100
AcDbArc
 50
184.7527345681274
 51
270.0
  0
LINE
  5
5BFC
330
18
100
AcDbEntity
  8
DRAW2
100
AcDbLine
 10
3018.433612495285
 20
71.28074920019606
 30
0.0
 11
3018.433612495285
 21
79.53074920019606
 31
0.0
  0
LINE
  5
5BFD
330
18
100
AcDbEntity
  8
DRAW3
100
AcDbLine
 10
3017.683612495285
 20
70.53074920019605
 30
0.0
 11
3017.683612495285
 21
79.53074920019606
 31
0.0
  0
LINE
  5
5BFE
330
18
100
AcDbEntity
  8
DRAW2
100
AcDbLine
 10
3008.433612495285
 20
71.28074920019617
 30
0.0
 11
3008.433612495285
 21
79.53074920019616
 31
0.0
  0
LINE
  5
5BFF
330
18
100
AcDbEntity
  8
DRAW3
100
AcDbLine
 10
3009.183612495285
 20
70.53074920019605
 30
0.0
 11
3009.183612495285
 21
79.53074920019616
 31
0.0
  0
LINE
  5
5C00
330
18
100
AcDbEntity
  8
DRAW2
100
AcDbLine
 10
3017.683612495285
 20
70.53074920019605
 30
0.0
 11
3018.433612495285
 21
71.28074920019606
 31
0.0
  0
LINE
  5
5C01
330
18
100
AcDbEntity
  8
DRAW2
100
AcDbLine
 10
3009.183612495285
 20
70.53074920019617
 30
0.0
 11
3008.433612495285
 21
71.28074920019617
 31
0.0
  0
LINE
  5
5C02
330
18
100
AcDbEntity
  8
DRAW2
100
AcDbLine
 10
3009.183612495285
 20
70.53074920019617
 30
0.0
 11
3017.683612495285
 21
70.53074920019605
 31
0.0
  0
LINE
  5
5C03
330
18
100
AcDbEntity
  8
DRAW2
100
AcDbLine
 10
3008.433612495285
 20
71.28074920019617
 30
0.0
 11
3018.433612495285
 21
71.28074920019617
 31
0.0
  0
ARC
  5
5C04
330
18
100
AcDbEntity
  8
DRAW2
100
AcDbCircle
 10
3009.183612495285
 20
91.80625583859706
 30
0.0
 40
12.27550663840103
100
AcDbArc
 50
249.743841999583
 51
290.2561580004169
  0
LINE
  5
5C05
330
18
100
AcDbEntity
  8
DRAW2
100
AcDbLine
 10
3004.233612495285
 20
90.03074920019605
 30
0.0
 11
3004.233612495285
 21
87.53074920019605
 31
0.0
  0
LINE
  5
5C06
330
18
100
AcDbEntity
  8
DRAW2
100
AcDbLine
 10
3004.933612495285
 20
79.53074920019606
 30
0.0
 11
3004.933612495285
 21
87.53074920019605
 31
0.0
  0
LINE
  5
5C07
330
18
100
AcDbEntity
  8
DRAW2
100
AcDbLine
 10
3003.433612495285
 20
90.03074920019605
 30
0.0
 11
3003.433612495285
 21
92.03074920019606
 31
0.0
  0
LINE
  5
5C08
330
18
100
AcDbEntity
  8
DRAW2
100
AcDbLine
 10
3013.000599793393
 20
90.03074920019605
 30
0.0
 11
3014.443975466367
 21
87.53074920019605
 31
0.0
  0
LINE
  5
5C09
330
18
100
AcDbEntity
  8
DRAW2
100
AcDbLine
 10
3012.423249524203
 20
90.03074920019605
 30
0.0
 11
3013.866625197177
 21
87.53074920019605
 31
0.0
  0
LINE
  5
5C0A
330
18
100
AcDbEntity
  8
DRAW2
100
AcDbLine
 10
3013.433612495285
 20
80.28993857875105
 30
0.0
 11
3013.433612495285
 21
87.53074920019605
 31
0.0
  0
LINE
  5
5C0B
330
18
100
AcDbEntity
  8
DRAW2
100
AcDbLine
 10
3022.633612495285
 20
90.03074920019605
 30
0.0
 11
3022.633612495285
 21
87.53074920019605
 31
0.0
  0
LINE
  5
5C0C
330
18
100
AcDbEntity
  8
DRAW2
100
AcDbLine
 10
3021.933612495285
 20
79.53074920019606
 30
0.0
 11
3021.933612495285
 21
87.53074920019605
 31
0.0
  0
LINE
  5
5C0D
330
18
100
AcDbEntity
  8
DRAW2
100
AcDbLine
 10
3023.433612495285
 20
90.03074920019605
 30
0.0
 11
3023.433612495285
 21
92.03074920019606
 31
0.0
  0
LINE
  5
5C11
330
18
100
AcDbEntity
  8
DRAW2
100
AcDbLine
 10
2716.423998333572
 20
197.5307492001959
 30
0.0
 11
2706.377990353826
 21
312.3564292001963
 31
0.0
  0
LINE
  5
5C12
330
18
100
AcDbEntity
  8
DRAW2
100
AcDbLine
 10
2794.500000353826
 20
163.5805984870623
 30
0.0
 11
2750.00000039085
 21
163.5805984870623
 31
0.0
  0
LINE
  5
5C14
330
18
100
AcDbEntity
  8
DRAW2
100
AcDbLine
 10
2755.415870353826
 20
194.530749200196
 30
0.0
 11
2792.250500353826
 21
194.530749200196
 31
0.0
  0
LINE
  5
5C16
330
18
100
AcDbEntity
  8
DRAW2
100
AcDbLine
 10
2749.000060353827
 20
171.5307192001991
 30
0.0
 11
2749.000060353826
 21
186.53074885113
 31
0.0
  0
ARC
  5
5C17
330
18
100
AcDbEntity
  8
DRAW2
100
AcDbCircle
 10
2702.331919410578
 20
194.739338611966
 30
0.0
 40
51.10356186636959
100
AcDbArc
 50
338.8714664992576
 51
357.5791128561226
  0
LINE
  5
5C18
330
18
100
AcDbEntity
  8
DRAW2
100
AcDbLine
 10
2744.000000353826
 20
125.0307392001962
 30
0.0
 11
2703.260010353826
 21
125.0307392001962
 31
0.0
  0
LINE
  5
5C19
330
18
100
AcDbEntity
  8
DRAW2
100
AcDbLine
 10
2744.000000353826
 20
131.0307392001963
 30
0.0
 11
2703.260010353826
 21
131.0307392001963
 31
0.0
  0
ARC
  5
5C1A
330
18
100
AcDbEntity
  8
DRAW2
100
AcDbCircle
 10
2703.260010353826
 20
133.0307392001963
 30
0.0
 40
2.0
100
AcDbArc
 50
179.9999959999999
 51
270.00001
  0
ARC
  5
5C1B
330
18
100
AcDbEntity
  8
DRAW2
100
AcDbCircle
 10
2703.260010353826
 20
123.0307392001963
 30
0.0
 40
2.0
100
AcDbArc
 50
89.99998999999997
 51
179.9999959999999
  0
LWPOLYLINE
  5
5C1C
330
18
100
AcDbEntity
  8
DRAW2
100
AcDbPolyline
 90
        3
 70
     0
 43
0.0
 10
2745.817848587336
 20
149.7807492001932
 42
0.0093236962439009
 10
2745.168700353826
 20
143.4619392001962
 42
0.018695585
 10
2744.591520353826
 20
131.0304392001963
  0
LINE
  5
5C1D
330
18
100
AcDbEntity
  8
DRAW2
100
AcDbLine
 10
2742.395200353826
 20
122.1712392001964
 30
0.0
 11
2742.395200353826
 21
97.60863920019625
 31
0.0
  0
LINE
  5
5C1E
330
18
100
AcDbEntity
  8
DRAW2
100
AcDbLine
 10
2746.000000353826
 20
127.0307392001962
 30
0.0
 11
2746.000000353826
 21
129.0307392001962
 31
0.0
  0
ARC
  5
5C1F
330
18
100
AcDbEntity
  8
DRAW2
100
AcDbCircle
 10
2744.000000353826
 20
129.0307392001963
 30
0.0
 40
2.0
100
AcDbArc
 50
0.0
 51
90.00000865142139
  0
ARC
  5
5C20
330
18
100
AcDbEntity
  8
DRAW2
100
AcDbCircle
 10
2744.000000353826
 20
127.0307392001963
 30
0.0
 40
2.0
100
AcDbArc
 50
269.99999
 51
0.0
  0
LINE
  5
5C21
330
18
100
AcDbEntity
  8
DRAW2
100
AcDbLine
 10
2744.905640353826
 20
149.7807492001932
 30
0.0
 11
2744.905640353826
 21
161.7807492001932
 31
0.0
  0
LINE
  5
5C22
330
18
100
AcDbEntity
  8
DRAW2
100
AcDbLine
 10
2743.955630353827
 20
150.730749200193
 30
0.0
 11
2743.955630353827
 21
160.8307492001931
 31
0.0
  0
LINE
  5
5C23
330
18
100
AcDbEntity
  8
DRAW2
100
AcDbLine
 10
2750.000000353826
 20
149.7807492001932
 30
0.0
 11
2744.905640353826
 21
149.7807492001932
 31
0.0
  0
LINE
  5
5C24
330
18
100
AcDbEntity
  8
DRAW3
100
AcDbLine
 10
2750.000000353826
 20
150.730749200193
 30
0.0
 11
2743.955630353827
 21
150.730749200193
 31
0.0
  0
LINE
  5
5C25
330
18
100
AcDbEntity
  8
DRAW2
100
AcDbLine
 10
2744.905640353826
 20
149.7807492001932
 30
0.0
 11
2743.955630353827
 21
150.730749200193
 31
0.0
  0
ARC
  5
5C26
330
18
100
AcDbEntity
  8
DRAW2
100
AcDbCircle
 10
2748.000060353827
 20
171.5307192001991
 30
0.0
 40
1.0
100
AcDbArc
 50
270.000005305164
 51
0.0000000000004071
  0
LINE
  5
5C27
330
18
100
AcDbEntity
  8
DRAW2
100
AcDbLine
 10
2750.000000353826
 20
161.7807492001932
 30
0.0
 11
2744.905640353826
 21
161.7807492001932
 31
0.0
  0
LINE
  5
5C28
330
18
100
AcDbEntity
  8
DRAW3
100
AcDbLine
 10
2750.000000353826
 20
160.8307492001931
 30
0.0
 11
2743.955630353827
 21
160.8307492001931
 31
0.0
  0
ARC
  5
5C29
330
18
100
AcDbEntity
  8
DRAW2
100
AcDbCircle
 10
2751.000000353826
 20
170.0307392001963
 30
0.0
 40
2.0
100
AcDbArc
 50
180.000003
 51
239.9999999999885
  0
LWPOLYLINE
  5
5C2A
330
18
100
AcDbEntity
  8
DRAW2
100
AcDbPolyline
 90
        2
 70
     0
 43
0.0
 10
2749.047610353827
 20
168.0312392001963
 42
0.0092839314381539
 10
2747.71214417393
 20
161.7807492001932
 42
0.0092839314381539
  0
LINE
  5
5C2B
330
18
100
AcDbEntity
  8
DRAW2
100
AcDbLine
 10
2744.905700353826
 20
161.7807492001932
 30
0.0
 11
2743.955690353826
 21
160.8308492001931
 31
0.0
  0
LINE
  5
5C2D
330
18
100
AcDbEntity
  8
DRAW2
  6
Continuous
100
AcDbLine
 10
2714.081923883452
 20
190.5307492001959
 30
0.0
 11
2735.081923883451
 21
190.5307492001958
 31
0.0
  0
LINE
  5
5C2E
330
18
100
AcDbEntity
  8
DRAW2
  6
Continuous
100
AcDbLine
 10
2716.081893383451
 20
197.5307492001959
 30
0.0
 11
2733.081927324202
 21
197.5307492001959
 31
0.0
  0
ARC
  5
5C2F
330
18
100
AcDbEntity
  8
DRAW2
  6
Continuous
100
AcDbCircle
 10
2724.581923883452
 20
181.2898129001959
 30
0.0
 40
16.24093999999999
100
AcDbArc
 50
72.41215600000001
 51
107.5877899999999
  0
LINE
  5
5C30
330
18
100
AcDbEntity
  8
DRAW2
  6
Continuous
100
AcDbLine
 10
2714.766967183452
 20
196.7715787001959
 30
0.0
 11
2714.766967183452
 21
190.5307492001959
 31
0.0
  0
LINE
  5
5C31
330
18
100
AcDbEntity
  8
DRAW2
  6
Continuous
100
AcDbLine
 10
2719.674453183452
 20
196.7715787001959
 30
0.0
 11
2719.674453183452
 21
190.5307492001959
 31
0.0
  0
ARC
  5
5C32
330
18
100
AcDbEntity
  8
DRAW2
  6
Continuous
100
AcDbCircle
 10
2717.220717783451
 20
193.1857938001959
 30
0.0
 40
4.3449545
100
AcDbArc
 50
55.61635200000001
 51
115.61766
  0
LINE
  5
5C33
330
18
100
AcDbEntity
  8
DRAW2
  6
Continuous
100
AcDbLine
 10
2714.766963383452
 20
196.7715591001959
 30
0.0
 11
2716.081892383451
 21
197.5307330001959
 31
0.0
  0
LINE
  5
5C34
330
18
100
AcDbEntity
  8
DRAW2
  6
Continuous
100
AcDbLine
 10
2714.081923883452
 20
190.5307492001959
 30
0.0
 11
2714.081923883452
 21
188.5307492001959
 31
0.0
  0
LINE
  5
5C35
330
18
100
AcDbEntity
  8
DRAW2
  6
Continuous
100
AcDbLine
 10
2734.396880583452
 20
196.7715787001959
 30
0.0
 11
2734.396880583452
 21
190.5307492001959
 31
0.0
  0
LINE
  5
5C36
330
18
100
AcDbEntity
  8
DRAW2
  6
Continuous
100
AcDbLine
 10
2729.489409883451
 20
196.7715634001959
 30
0.0
 11
2729.489409883451
 21
190.5307492001959
 31
0.0
  0
LINE
  5
5C37
330
18
100
AcDbEntity
  8
DRAW2
  6
Continuous
100
AcDbLine
 10
2734.396884383452
 20
196.7715591001959
 30
0.0
 11
2733.081955383451
 21
197.5307330001959
 31
0.0
  0
ARC
  5
5C38
330
18
100
AcDbEntity
  8
DRAW2
  6
Continuous
100
AcDbCircle
 10
2731.943145183452
 20
193.1858395001959
 30
0.0
 40
4.3449049
100
AcDbArc
 50
55.61586056647438
 51
124.38412
  0
LINE
  5
5C39
330
18
100
AcDbEntity
  8
DRAW2
  6
Continuous
100
AcDbLine
 10
2735.081923883451
 20
190.5307492001959
 30
0.0
 11
2735.081923883451
 21
188.5307492001959
 31
0.0
  0
ARC
  5
5C3A
330
18
100
AcDbEntity
  8
DRAW2
100
AcDbCircle
 10
2747.000060353826
 20
186.5307492001957
 30
0.0
 40
2.000000000000143
100
AcDbArc
 50
359.9999900000063
 51
89.99999699999579
  0
ARC
  5
5C3B
330
18
100
AcDbEntity
  8
DRAW2
100
AcDbCircle
 10
2755.388407263202
 20
192.5038093602188
 30
0.0
 40
2.0
100
AcDbArc
 50
90.0
 51
177.795771
  0
ARC
  5
5C3C
330
18
100
AcDbEntity
  8
DRAW2
100
AcDbCircle
 10
2888.877534691922
 20
194.4540538096488
 30
0.0
 40
50.0
100
AcDbArc
 50
184.4051963235372
 51
202.0750799999995
  0
LINE
  5
5C3D
330
18
100
AcDbEntity
  8
HIDDEN
100
AcDbLine
 10
2793.000000353826
 20
121.0307492001964
 30
0.0
 11
2824.487134095722
 21
121.0307492001964
 31
0.0
  0
LINE
  5
5C3E
330
18
100
AcDbEntity
  8
HIDDEN
100
AcDbLine
 10
2814.473290676406
 20
149.311039522777
 30
0.0
 11
2796.000000353826
 21
148.7337492001963
 31
0.0
  0
LINE
  5
5C3F
330
18
100
AcDbEntity
  8
HIDDEN
100
AcDbLine
 10
2816.000000353827
 20
150.8377492001964
 30
0.0
 11
2796.000000353826
 21
150.2127492001964
 31
0.0
  0
LINE
  5
5C40
330
18
100
AcDbEntity
  8
DRAW2
100
AcDbLine
 10
2842.500000353826
 20
163.5805984870623
 30
0.0
 11
2798.00000039085
 21
163.5805984870623
 31
0.0
  0
LINE
  5
5C41
330
18
100
AcDbEntity
  8
DRAW2
100
AcDbLine
 10
2796.000000353826
 20
149.7807492001932
 30
0.0
 11
2794.500000353826
 21
149.7807492001932
 31
0.0
  0
LINE
  5
5C42
330
18
100
AcDbEntity
  8
DRAW2
100
AcDbLine
 10
2796.000000353826
 20
161.7807492001932
 30
0.0
 11
2794.500000353826
 21
161.7807492001932
 31
0.0
  0
LINE
  5
5C43
330
18
100
AcDbEntity
  8
DRAW2
100
AcDbLine
 10
2842.500000353826
 20
120.9724634803354
 30
0.0
 11
2842.500000353826
 21
175.6814634803355
 31
0.0
  0
LINE
  5
5C44
330
18
100
AcDbEntity
  8
HIDDEN
100
AcDbLine
 10
2816.000000353827
 20
150.8377492001964
 30
0.0
 11
2814.473290676406
 21
149.311039522777
 31
0.0
  0
ARC
  5
5C45
330
18
100
AcDbEntity
  8
DRAW2
  6
Continuous
100
AcDbCircle
 10
2837.848267353826
 20
155.7807440855905
 30
0.0
 40
18.151737
100
AcDbArc
 50
342.4123269999999
 51
17.58774999999997
  0
LINE
  5
5C46
330
18
100
AcDbEntity
  8
DRAW2
  6
Continuous
100
AcDbLine
 10
2856.000000353827
 20
165.2807898855906
 30
0.0
 11
2856.000000353827
 21
146.2807593855905
 31
0.0
  0
LINE
  5
5C47
330
18
100
AcDbEntity
  8
DRAW2
  6
Continuous
100
AcDbLine
 10
2845.000000353826
 20
167.7808440855908
 30
0.0
 11
2845.000000353826
 21
143.7808440855907
 31
0.0
  0
LINE
  5
5C48
330
18
100
AcDbEntity
  8
DRAW2
  6
Continuous
100
AcDbLine
 10
2848.000000353826
 20
166.7504100855905
 30
0.0
 11
2848.000000353826
 21
144.8110940855905
 31
0.0
  0
LINE
  5
5C49
330
18
100
AcDbEntity
  8
DRAW2
  6
Continuous
100
AcDbLine
 10
2855.151520153826
 20
150.2959265855905
 30
0.0
 11
2848.000000353826
 21
150.2959265855905
 31
0.0
  0
LINE
  5
5C4A
330
18
100
AcDbEntity
  8
DRAW2
  6
Continuous
100
AcDbLine
 10
2855.151489653826
 20
144.8110940855905
 30
0.0
 11
2848.000000353826
 21
144.8110940855905
 31
0.0
  0
LINE
  5
5C4B
330
18
100
AcDbEntity
  8
DRAW2
  6
Continuous
100
AcDbLine
 10
2848.000007053826
 20
156.9354222855906
 30
0.0
 11
2845.000051653826
 21
155.2033969855905
 31
0.0
  0
LINE
  5
5C4C
330
18
100
AcDbEntity
  8
DRAW2
  6
Continuous
100
AcDbLine
 10
2848.000042353826
 20
156.3580910655906
 30
0.0
 11
2845.000033953826
 21
154.6260351855905
 31
0.0
  0
LINE
  5
5C4D
330
18
100
AcDbEntity
  8
DRAW2
  6
Continuous
100
AcDbLine
 10
2848.000000353826
 20
145.0308440855907
 30
0.0
 11
2845.000000353826
 21
145.0308440855907
 31
0.0
  0
LINE
  5
5C4E
330
18
100
AcDbEntity
  8
DRAW2
100
AcDbLine
 10
2842.500000353826
 20
143.7808440855907
 30
0.0
 11
2845.000000353826
 21
143.7808440855907
 31
0.0
  0
LINE
  5
5C4F
330
18
100
AcDbEntity
  8
DRAW2
  6
Continuous
100
AcDbLine
 10
2856.000001353826
 20
146.2807526855906
 30
0.0
 11
2855.151491053826
 21
144.8110890855905
 31
0.0
  0
ARC
  5
5C50
330
18
100
AcDbEntity
  8
DRAW2
  6
Continuous
100
AcDbCircle
 10
2851.143951753826
 20
147.5535101855905
 30
0.0
 40
4.856048099999999
100
AcDbArc
 50
334.38458
 51
34.38441999999997
  0
LINE
  5
5C51
330
18
100
AcDbEntity
  8
DRAW2
  6
Continuous
100
AcDbLine
 10
2855.151504853827
 20
161.2655768855905
 30
0.0
 11
2848.000000353826
 21
161.2655768855905
 31
0.0
  0
LINE
  5
5C52
330
18
100
AcDbEntity
  8
DRAW2
  6
Continuous
100
AcDbLine
 10
2855.151504853827
 20
166.7504100855905
 30
0.0
 11
2848.000000353826
 21
166.7504100855905
 31
0.0
  0
LINE
  5
5C53
330
18
100
AcDbEntity
  8
DRAW2
  6
Continuous
100
AcDbLine
 10
2848.000000353826
 20
166.5308440855907
 30
0.0
 11
2845.000000353826
 21
166.5308440855907
 31
0.0
  0
LINE
  5
5C54
330
18
100
AcDbEntity
  8
DRAW2
100
AcDbLine
 10
2842.500000353826
 20
167.7808440855907
 30
0.0
 11
2845.000000353826
 21
167.7808440855908
 31
0.0
  0
ARC
  5
5C55
330
18
100
AcDbEntity
  8
DRAW2
  6
Continuous
100
AcDbCircle
 10
2851.143875453827
 20
164.0079931855905
 30
0.0
 40
4.856120099999999
100
AcDbArc
 50
325.616205
 51
25.6177
  0
LINE
  5
5C56
330
18
100
AcDbEntity
  8
DRAW2
  6
Continuous
100
AcDbLine
 10
2855.151504353827
 20
166.7504160855905
 30
0.0
 11
2855.999996053826
 21
165.2807850855905
 31
0.0
  0
LINE
  5
5C57
330
18
100
AcDbEntity
  8
HIDDEN
100
AcDbLine
 10
2798.00000039085
 20
188.0307492001963
 30
0.0
 11
2816.000000353827
 21
188.0307492001963
 31
0.0
  0
LINE
  5
5C58
330
18
100
AcDbEntity
  8
DRAW2
100
AcDbLine
 10
2837.099210120836
 20
194.530749200196
 30
0.0
 11
2800.096860353827
 21
194.530749200196
 31
0.0
  0
LINE
  5
5C59
330
18
100
AcDbEntity
  8
DRAW2
100
AcDbLine
 10
2796.000000353826
 20
188.0307492001963
 30
0.0
 11
2796.000000353826
 21
180.0942575366523
 31
0.0
  0
LINE
  5
5C5A
330
18
100
AcDbEntity
  8
DRAW2
100
AcDbLine
 10
2798.00000039085
 20
188.0307492001963
 30
0.0
 11
2796.000000353826
 21
188.0307492001963
 31
0.0
  0
ARC
  5
5C5B
330
18
100
AcDbEntity
  8
DRAW2
100
AcDbCircle
 10
2800.00000039085
 20
192.5307492372203
 30
0.0
 40
2.0
100
AcDbArc
 50
90.0
 51
180.000003
  0
ARC
  5
5C5C
330
18
100
AcDbEntity
  8
DRAW2
100
AcDbCircle
 10
2792.500000353826
 20
192.5307492001961
 30
0.0
 40
2.0
100
AcDbArc
 50
0.0
 51
90.0
  0
ARC
  5
5C5D
330
18
100
AcDbEntity
  8
DRAW2
100
AcDbCircle
 10
2796.50000039085
 20
182.0307492001965
 30
0.0
 40
2.0
100
AcDbArc
 50
180.000003
 51
255.5224867186241
  0
ARC
  5
5C5E
330
18
100
AcDbEntity
  8
DRAW2
100
AcDbCircle
 10
2836.890027853202
 20
192.477441414533
 30
0.0
 40
2.0
100
AcDbArc
 50
4.405196323537513
 51
90.0
  0
LINE
  5
5C5F
330
18
100
AcDbEntity
  8
DRAW2
100
AcDbLine
 10
2838.871626272425
 20
192.6076727165924
 30
0.0
 11
2839.025245179367
 21
190.6135811360841
 31
0.0
  0
LINE
  5
5C63
330
18
100
AcDbEntity
  8
DRAW2
100
AcDbLine
 10
2709.000000353826
 20
357.5307492001964
 30
0.0
 11
2709.000000353826
 21
314.5307492001963
 31
0.0
  0
LINE
  5
5C64
330
18
100
AcDbEntity
  8
DRAW3
100
AcDbLine
 10
2712.700010353827
 20
335.1209592001962
 30
0.0
 11
2709.000000353826
 21
335.0053346930476
 31
0.0
  0
LINE
  5
5C65
330
18
100
AcDbEntity
  8
DRAW2
100
AcDbLine
 10
2714.268250353827
 20
336.0263492001963
 30
0.0
 11
2709.000000353826
 21
335.8617278906237
 31
0.0
  0
LINE
  5
5C66
330
18
100
AcDbEntity
  8
DRAW2
100
AcDbLine
 10
2714.268250353827
 20
319.0351092001963
 30
0.0
 11
2709.000000353826
 21
319.199745233516
 31
0.0
  0
LINE
  5
5C67
330
18
100
AcDbEntity
  8
DRAW3
100
AcDbLine
 10
2712.700010353827
 20
319.9405392001963
 30
0.0
 11
2709.000000353826
 21
320.0561596806033
 31
0.0
  0
ARC
  5
5C69
330
18
100
AcDbEntity
  8
DRAW2
100
AcDbCircle
 10
2708.370390353826
 20
312.5307492001963
 30
0.0
 40
2.0
100
AcDbArc
 50
90.00000300000001
 51
185.0
  0
LINE
  5
5C6A
330
18
100
AcDbEntity
  8
DRAW2
100
AcDbLine
 10
2717.409172853781
 20
322.6232719120844
 30
0.0
 11
2743.890832853887
 21
322.6232719120844
 31
0.0
  0
LINE
  5
5C6B
330
18
100
AcDbEntity
  8
DRAW2
100
AcDbLine
 10
2717.409157853766
 20
332.4382264883081
 30
0.0
 11
2743.890832853887
 21
332.4382264883081
 31
0.0
  0
LINE
  5
5C6C
330
18
100
AcDbEntity
  8
DRAW2
100
AcDbLine
 10
2717.409180353826
 20
337.3456892001963
 30
0.0
 11
2743.890810353827
 21
337.3456892001963
 31
0.0
  0
LINE
  5
5C6D
330
18
100
AcDbEntity
  8
DRAW2
100
AcDbLine
 10
2717.409180353826
 20
317.7157692001963
 30
0.0
 11
2743.890810353827
 21
317.7157692001963
 31
0.0
  0
ARC
  5
5C6E
330
18
100
AcDbEntity
  8
DRAW2
100
AcDbCircle
 10
2720.994995272039
 20
320.1695500759652
 30
0.0
 40
4.344994918212484
100
AcDbArc
 50
145.6168895889863
 51
214.3834146338293
  0
LINE
  5
5C6F
330
18
100
AcDbEntity
  8
DRAW2
100
AcDbLine
 10
2716.649990353827
 20
336.0263792001962
 30
0.0
 11
2716.649990353827
 21
319.0351092001963
 31
0.0
  0
LINE
  5
5C70
330
18
100
AcDbEntity
  8
DRAW2
100
AcDbLine
 10
2712.700010353827
 20
319.0841192001962
 30
0.0
 11
2712.700010353827
 21
335.9773451243601
 31
0.0
  0
LINE
  5
5C71
330
18
100
AcDbEntity
  8
DRAW2
100
AcDbLine
 10
2716.650020353826
 20
319.0307192001963
 30
0.0
 11
2717.409210353827
 21
317.7157692001963
 31
0.0
  0
LINE
  5
5C72
330
18
100
AcDbEntity
  8
DRAW3
100
AcDbLine
 10
2714.268250353827
 20
319.0351092001963
 30
0.0
 11
2712.700010353827
 21
319.9405392001963
 31
0.0
  0
LINE
  5
5C73
330
18
100
AcDbEntity
  8
DRAW2
100
AcDbLine
 10
2714.268250353827
 20
319.0351092001963
 30
0.0
 11
2716.649990353827
 21
319.0351092001963
 31
0.0
  0
ARC
  5
5C74
330
18
100
AcDbEntity
  8
DRAW2
100
AcDbCircle
 10
2732.891461081687
 20
327.5307492001964
 30
0.0
 40
16.24146072785977
100
AcDbArc
 50
162.4127732068781
 51
197.5872267931217
  0
ARC
  5
5C75
330
18
100
AcDbEntity
  8
DRAW2
100
AcDbCircle
 10
2720.994995272039
 20
334.8919483244273
 30
0.0
 40
4.344994918212484
100
AcDbArc
 50
145.6165853661706
 51
214.3831104110136
  0
LINE
  5
5C76
330
18
100
AcDbEntity
  8
DRAW2
100
AcDbLine
 10
2716.649990353827
 20
336.0307492001964
 30
0.0
 11
2716.649990353827
 21
336.0263792001962
 31
0.0
  0
LINE
  5
5C77
330
18
100
AcDbEntity
  8
DRAW2
100
AcDbLine
 10
2716.649990353827
 20
336.0307492001964
 30
0.0
 11
2717.409180353826
 21
337.3457192001962
 31
0.0
  0
LINE
  5
5C78
330
18
100
AcDbEntity
  8
DRAW3
100
AcDbLine
 10
2714.268250353827
 20
336.0263792001962
 30
0.0
 11
2712.700010353827
 21
335.1209592001962
 31
0.0
  0
LINE
  5
5C79
330
18
100
AcDbEntity
  8
DRAW2
100
AcDbLine
 10
2714.268250353827
 20
336.0263792001962
 30
0.0
 11
2716.649990353827
 21
336.0263792001962
 31
0.0
  0
ARC
  5
5C7A
330
18
100
AcDbEntity
  8
DRAW2
100
AcDbCircle
 10
2740.304995435614
 20
320.1695500759652
 30
0.0
 40
4.344994918212484
100
AcDbArc
 50
325.6165853661706
 51
34.38311041101371
  0
LINE
  5
5C7B
330
18
100
AcDbEntity
  8
DRAW2
100
AcDbLine
 10
2744.649990353827
 20
336.0307492001964
 30
0.0
 11
2744.649990353827
 21
319.0307492001963
 31
0.0
  0
LINE
  5
5C7C
330
18
100
AcDbEntity
  8
DRAW2
100
AcDbLine
 10
2743.890840353826
 20
317.7157692001963
 30
0.0
 11
2744.650020353827
 21
319.0307192001963
 31
0.0
  0
ARC
  5
5C7D
330
18
100
AcDbEntity
  8
DRAW2
100
AcDbCircle
 10
2728.408529625967
 20
327.5307492001964
 30
0.0
 40
16.24146072785977
100
AcDbArc
 50
342.4127732068782
 51
17.58722679312186
  0
ARC
  5
5C7E
330
18
100
AcDbEntity
  8
DRAW2
100
AcDbCircle
 10
2740.304995435614
 20
334.8919483244273
 30
0.0
 40
4.344994918212484
100
AcDbArc
 50
325.6168895889862
 51
34.38341463382931
  0
LINE
  5
5C7F
330
18
100
AcDbEntity
  8
DRAW2
100
AcDbLine
 10
2743.890840353826
 20
337.3456592001963
 30
0.0
 11
2744.650020353827
 21
336.0307192001963
 31
0.0
  0
LINE
  5
5C80
330
18
100
AcDbEntity
  8
DRAW2
100
AcDbLine
 10
2709.000000353826
 20
357.5307492001964
 30
0.0
 11
2703.999970353827
 21
362.5307792001963
 31
0.0
  0
LINE
  5
5C84
330
18
100
AcDbEntity
  8
DRAW2
100
AcDbLine
 10
3021.591524515539
 20
197.5307492001957
 30
0.0
 11
3031.637532495285
 21
312.356429200196
 31
0.0
  0
LINE
  5
5C85
330
18
100
AcDbEntity
  8
DRAW2
100
AcDbLine
 10
2989.015492495285
 20
171.53071920022
 30
0.0
 11
2989.015492495285
 21
186.5307192001957
 31
0.0
  0
LINE
  5
5C86
330
18
100
AcDbEntity
  8
DRAW2
100
AcDbLine
 10
3024.763142495285
 20
170.030739200196
 30
0.0
 11
2989.015522495284
 21
170.030739200196
 31
0.0
  0
LINE
  5
5C87
330
18
100
AcDbEntity
  8
DRAW2
100
AcDbLine
 10
2986.015522495285
 20
128.030739200196
 30
0.0
 11
2986.967916939392
 21
168.0313058527078
 31
0.0
  0
ARC
  5
5C88
330
18
100
AcDbEntity
  8
DRAW2
100
AcDbCircle
 10
2990.015492495285
 20
171.53071920022
 30
0.0
 40
1.0
100
AcDbArc
 50
180.0
 51
269.9996139877848
  0
ARC
  5
5C89
330
18
100
AcDbEntity
  8
DRAW2
100
AcDbCircle
 10
2987.015522495285
 20
170.030739200196
 30
0.0
 40
2.0
100
AcDbArc
 50
268.6360724683939
 51
0.000000000000007
  0
LINE
  5
5C8A
330
18
100
AcDbEntity
  8
DRAW2
100
AcDbLine
 10
3070.515522495285
 20
129.030739200196
 30
0.0
 11
3070.515522495285
 21
105.7815562023855
 31
0.0
  0
LINE
  5
5C8B
330
18
100
AcDbEntity
  8
DRAW2
100
AcDbLine
 10
3022.433612495285
 20
190.5307492001957
 30
0.0
 11
3008.189782495284
 21
190.5307492001957
 31
0.0
  0
ARC
  5
5C8C
330
18
100
AcDbEntity
  8
DRAW2
  6
Continuous
100
AcDbCircle
 10
3017.683612495285
 20
185.2551907001957
 30
0.0
 40
12.275561
100
AcDbArc
 50
69.74392900000004
 51
110.2560899999999
  0
LINE
  5
5C8D
330
18
100
AcDbEntity
  8
DRAW2
100
AcDbLine
 10
3025.433612495285
 20
188.5307492001957
 30
0.0
 11
3001.433612495285
 21
188.5307492001957
 31
0.0
  0
LINE
  5
5C8E
330
18
100
AcDbEntity
  8
DRAW2
100
AcDbLine
 10
3023.933612495285
 20
190.5307492001957
 30
0.0
 11
3002.933612495285
 21
190.5307492001957
 31
0.0
  0
LINE
  5
5C8F
330
18
100
AcDbEntity
  8
DRAW2
  6
Continuous
100
AcDbLine
 10
3004.933612495285
 20
197.5307492001957
 30
0.0
 11
3021.933612495285
 21
197.5307492001957
 31
0.0
  0
LINE
  5
5C90
330
18
100
AcDbEntity
  8
DRAW2
  6
Continuous
100
AcDbLine
 10
3004.933612495285
 20
190.5307492001957
 30
0.0
 11
3021.933612495285
 21
190.5307492001957
 31
0.0
  0
ARC
  5
5C91
330
18
100
AcDbEntity
  8
DRAW2
100
AcDbCircle
 10
2991.015462495285
 20
186.5307492001957
 30
0.0
 40
2.0
100
AcDbArc
 50
90.00000300000001
 51
180.00001
  0
ARC
  5
5C93
330
18
100
AcDbEntity
  8
DRAW2
  6
Continuous
100
AcDbCircle
 10
3009.183612495285
 20
185.2551907001957
 30
0.0
 40
12.275561
100
AcDbArc
 50
69.74392900000004
 51
110.2560899999999
  0
LINE
  5
5C94
330
18
100
AcDbEntity
  8
DRAW2
100
AcDbLine
 10
3002.933612495285
 20
190.5307492001957
 30
0.0
 11
3002.933612495285
 21
188.5307492001957
 31
0.0
  0
LINE
  5
5C95
330
18
100
AcDbEntity
  8
DRAW2
  6
Continuous
100
AcDbLine
 10
3004.933612495285
 20
197.5307492001957
 30
0.0
 11
3004.933612495285
 21
190.5307492001957
 31
0.0
  0
LINE
  5
5C96
330
18
100
AcDbEntity
  8
DRAW2
  6
Continuous
100
AcDbLine
 10
3013.433612495285
 20
196.7715634001957
 30
0.0
 11
3013.433612495285
 21
190.5307492001957
 31
0.0
  0
LINE
  5
5C97
330
18
100
AcDbEntity
  8
DRAW2
  6
Continuous
100
AcDbLine
 10
3013.433612495285
 20
196.7717350709564
 30
0.0
 11
3013.433612495285
 21
196.6994485022182
 31
0.0
  0
LINE
  5
5C98
330
18
100
AcDbEntity
  8
DRAW2
  6
Continuous
100
AcDbLine
 10
3021.933612495285
 20
197.5307492001957
 30
0.0
 11
3021.933612495285
 21
190.5307492001957
 31
0.0
  0
LINE
  5
5C99
330
18
100
AcDbEntity
  8
DRAW2
100
AcDbLine
 10
3023.933612495285
 20
190.5307492001957
 30
0.0
 11
3023.933612495285
 21
188.5307492001957
 31
0.0
  0
LINE
  5
5C9A
330
18
100
AcDbEntity
  8
DRAW2
100
AcDbLine
 10
3029.015522495285
 20
357.5307492001961
 30
0.0
 11
3029.015522495285
 21
314.5307492001961
 31
0.0
  0
ARC
  5
5C9B
330
18
100
AcDbEntity
  8
DRAW2
100
AcDbCircle
 10
3029.645102495285
 20
312.5307492001961
 30
0.0
 40
2.0
100
AcDbArc
 50
355.0
 51
90.00000300000001
  0
LINE
  5
5C9C
330
18
100
AcDbEntity
  8
DRAW2
100
AcDbLine
 10
3029.015522495285
 20
357.530779200196
 30
0.0
 11
3034.015522495285
 21
362.5307792001961
 31
0.0
  0
ARC
  5
5C9E
330
18
100
AcDbEntity
  8
DRAW2
100
AcDbCircle
 10
3187.015522495284
 20
105.7815562023855
 30
0.0
 40
46.5
100
AcDbArc
 50
327.9108161367342
 51
0.000000000000007
  0
LINE
  5
5C9F
330
18
100
AcDbEntity
  8
DRAW2
100
AcDbLine
 10
3318.015522495285
 20
128.030739200196
 30
0.0
 11
3315.174929723396
 21
93.86503765876335
 31
0.0
  0
ARC
  5
5CA0
330
18
100
AcDbEntity
  8
DRAW2
100
AcDbCircle
 10
3152.015522495285
 20
119.030739200196
 30
0.0
 40
60.5
100
AcDbArc
 50
285.8318032609925
 51
13.94660213340902
  0
ARC
  5
5CA1
330
18
100
AcDbEntity
  8
DRAW2
100
AcDbCircle
 10
3152.015522495285
 20
119.030739200196
 30
0.0
 40
60.5
100
AcDbArc
 50
166.0533978665909
 51
254.1681967390075
  0
CIRCLE
  5
5CA2
330
18
100
AcDbEntity
  8
DRAW2
100
AcDbCircle
 10
3152.015522495285
 20
119.030739200196
 30
0.0
 40
28.3306
  0
CIRCLE
  5
5CA3
330
18
100
AcDbEntity
  8
DRAW3
100
AcDbCircle
 10
3152.015522495285
 20
119.030739200196
 30
0.0
 40
29.81244999999999
  0
ARC
  5
5CA5
330
18
100
AcDbEntity
  8
DRAW2
100
AcDbCircle
 10
3226.81553545251
 20
138.2183153045512
 30
0.0
 40
68.32006622805517
100
AcDbArc
 50
270.0
 51
317.4645024161184
  0
LINE
  5
5CA6
330
18
100
AcDbEntity
  8
DRAW2
100
AcDbLine
 10
3231.435847874423
 20
92.030749200196
 30
0.0
 11
3313.181806625081
 21
92.030749200196
 31
0.0
  0
ARC
  5
5CA8
330
18
100
AcDbEntity
  8
DRAW2
100
AcDbCircle
 10
3126.015522495285
 20
144.0307392001963
 30
0.0
 40
118.5000000000002
100
AcDbArc
 50
282.6743397049316
 51
327.910816136734
  0
ARC
  5
5CAA
330
18
100
AcDbEntity
  8
DRAW2
100
AcDbCircle
 10
3178.015522495285
 20
144.0307392001963
 30
0.0
 40
118.5000000000004
100
AcDbArc
 50
212.0891838632659
 51
257.3256602950684
  0
LINE
  5
5CAB
330
18
100
AcDbEntity
  8
DRAW2
  6
Continuous
100
AcDbLine
 10
3086.113006372006
 20
22.03074920019611
 30
0.0
 11
3086.113007265956
 21
69.22313467683875
 31
0.0
  0
LINE
  5
5CAC
330
18
100
AcDbEntity
  8
DRAW2
  6
Continuous
100
AcDbLine
 10
3094.613007640509
 20
22.78993430842015
 30
0.0
 11
3094.613009590887
 21
59.85074845873907
 31
0.0
  0
ARC
  5
5CAD
330
18
100
AcDbEntity
  8
DRAW2
  6
Continuous
100
AcDbCircle
 10
3098.863012554144
 20
34.3063077001961
 30
0.0
 40
12.275561
100
AcDbArc
 50
249.743929
 51
290.2560899999999
  0
LINE
  5
5CAE
330
18
100
AcDbEntity
  8
DRAW2
  6
Continuous
100
AcDbLine
 10
3103.113017780351
 20
22.03074920019611
 30
0.0
 11
3086.113011205767
 21
22.03074920019611
 31
0.0
  0
ARC
  5
5CAF
330
18
100
AcDbEntity
  8
DRAW2
  6
Continuous
100
AcDbCircle
 10
3090.363012554143
 20
34.3063077001961
 30
0.0
 40
12.275561
100
AcDbArc
 50
249.743929
 51
290.2560899999999
  0
LINE
  5
5CB0
330
18
100
AcDbEntity
  8
DRAW2
  6
Continuous
100
AcDbLine
 10
3103.113012459946
 20
22.03074920019611
 30
0.0
 11
3103.113009549002
 21
52.20555989554163
 31
0.0
  0
LINE
  5
5CB1
330
18
100
AcDbEntity
  8
DRAW2
100
AcDbLine
 10
3077.215509538059
 20
69.89824907649609
 30
0.0
 11
3085.567570067665
 21
69.89824907649609
 31
0.0
  0
ARC
  5
5CB2
330
18
100
AcDbEntity
  8
DRAW2
  6
Continuous
100
AcDbCircle
 10
3152.015522495285
 20
49.53073920019605
 30
0.0
 40
9.31095
100
AcDbArc
 50
90.0
 51
270.0
  0
LINE
  5
5CB3
330
18
100
AcDbEntity
  8
DRAW2
  6
Continuous
100
AcDbLine
 10
3142.704469228385
 20
54.90645097179106
 30
0.0
 11
3142.704469228385
 21
44.15510487877608
 31
0.0
  0
LINE
  5
5CB4
330
18
100
AcDbEntity
  8
DRAW2
  6
Continuous
100
AcDbLine
 10
3161.326575762185
 20
54.90645097179106
 30
0.0
 11
3161.326575762185
 21
44.15510487877608
 31
0.0
  0
ARC
  5
5CB5
330
18
100
AcDbEntity
  8
DRAW2
  6
Continuous
100
AcDbCircle
 10
3152.015522495285
 20
49.53073920019605
 30
0.0
 40
9.31095
100
AcDbArc
 50
270.0
 51
90.0
  0
CIRCLE
  5
5CB6
330
18
100
AcDbEntity
  8
DRAW2
100
AcDbCircle
 10
3152.015522495285
 20
49.53073920019611
 30
0.0
 40
12.0
  0
LINE
  5
5CB7
330
18
100
AcDbEntity
  8
DRAW2
  6
Continuous
100
AcDbLine
 10
3152.01557979554
 20
38.77936576684604
 30
0.0
 11
3142.704619050035
 21
44.15505324532605
 31
0.0
  0
LINE
  5
5CB8
330
18
100
AcDbEntity
  8
DRAW2
  6
Continuous
100
AcDbLine
 10
3152.01546519503
 20
38.77936576684604
 30
0.0
 11
3161.326425940535
 21
44.15505324532605
 31
0.0
  0
LINE
  5
5CB9
330
18
100
AcDbEntity
  8
DRAW2
  6
Continuous
100
AcDbLine
 10
3152.01553160329
 20
60.2821481844461
 30
0.0
 11
3142.704569955935
 21
54.90646231422113
 31
0.0
  0
ARC
  5
5CBA
330
18
100
AcDbEntity
  8
DRAW2
100
AcDbCircle
 10
3152.015522495285
 20
49.53073920019605
 30
0.0
 40
20.0
100
AcDbArc
 50
34.3848077960132
 51
145.6151922039867
  0
LINE
  5
5CBB
330
18
100
AcDbEntity
  8
DRAW2
  6
Continuous
100
AcDbLine
 10
3152.01551338728
 20
60.2821481844461
 30
0.0
 11
3161.326475034635
 21
54.90646231422113
 31
0.0
  0
LINE
  5
5CBD
330
18
100
AcDbEntity
  8
DRAW2
100
AcDbLine
 10
3226.81553545251
 20
69.89824907649609
 30
0.0
 11
3218.463474922905
 21
69.89824907649609
 31
0.0
  0
LINE
  5
5CBE
330
18
100
AcDbEntity
  8
DRAW2
  6
Continuous
100
AcDbLine
 10
3209.418037239279
 20
22.95843435383133
 30
0.0
 11
3209.418040101645
 21
59.85075014707911
 31
0.0
  0
LINE
  5
5CBF
330
18
100
AcDbEntity
  8
DRAW2
  6
Continuous
100
AcDbLine
 10
3217.918038618563
 20
22.03074920019611
 30
0.0
 11
3217.918037724614
 21
69.22313467683875
 31
0.0
  0
LINE
  5
5CC0
330
18
100
AcDbEntity
  8
DRAW2
  6
Continuous
100
AcDbLine
 10
3200.918032530625
 20
22.03074920019611
 30
0.0
 11
3200.918035441567
 21
52.20555989554163
 31
0.0
  0
ARC
  5
5CC1
330
18
100
AcDbEntity
  8
DRAW2
  6
Continuous
100
AcDbCircle
 10
3213.66803441733
 20
34.3063077001961
 30
0.0
 40
12.275561
100
AcDbArc
 50
249.74391
 51
290.2560709999999
  0
LINE
  5
5CC2
330
18
100
AcDbEntity
  8
DRAW2
  6
Continuous
100
AcDbLine
 10
3200.918029191123
 20
22.03074920019611
 30
0.0
 11
3217.918035765706
 21
22.03074920019611
 31
0.0
  0
ARC
  5
5CC3
330
18
100
AcDbEntity
  8
DRAW2
  6
Continuous
100
AcDbCircle
 10
3205.168034417329
 20
34.3063077001961
 30
0.0
 40
12.275561
100
AcDbArc
 50
249.74391
 51
290.2560709999999
  0
LINE
  5
5CC4
330
18
100
AcDbEntity
  8
DRAW2
100
AcDbLine
 10
3295.597432495284
 20
71.28074920019606
 30
0.0
 11
3295.597432495284
 21
79.53074920019606
 31
0.0
  0
LINE
  5
5CC5
330
18
100
AcDbEntity
  8
DRAW3
100
AcDbLine
 10
3294.847432495284
 20
70.53074920019605
 30
0.0
 11
3294.847432495284
 21
79.53074920019606
 31
0.0
  0
LINE
  5
5CC6
330
18
100
AcDbEntity
  8
DRAW2
100
AcDbLine
 10
3285.597432495285
 20
71.28074920019617
 30
0.0
 11
3285.597432495285
 21
79.53074920019616
 31
0.0
  0
LINE
  5
5CC7
330
18
100
AcDbEntity
  8
DRAW3
100
AcDbLine
 10
3286.347432495285
 20
70.53074920019605
 30
0.0
 11
3286.347432495285
 21
79.53074920019616
 31
0.0
  0
LINE
  5
5CC8
330
18
100
AcDbEntity
  8
DRAW2
100
AcDbLine
 10
3286.347432495285
 20
70.53074920019617
 30
0.0
 11
3294.847432495284
 21
70.53074920019605
 31
0.0
  0
LINE
  5
5CC9
330
18
100
AcDbEntity
  8
DRAW2
100
AcDbLine
 10
3285.597432495285
 20
71.28074920019617
 30
0.0
 11
3295.597432495284
 21
71.28074920019617
 31
0.0
  0
LINE
  5
5CCA
330
18
100
AcDbEntity
  8
DRAW2
100
AcDbLine
 10
3286.347432495285
 20
70.53074920019617
 30
0.0
 11
3285.597432495285
 21
71.28074920019617
 31
0.0
  0
LINE
  5
5CCB
330
18
100
AcDbEntity
  8
DRAW2
100
AcDbLine
 10
3294.847432495284
 20
70.53074920019605
 30
0.0
 11
3295.597432495284
 21
71.28074920019606
 31
0.0
  0
ARC
  5
5CCC
330
18
100
AcDbEntity
  8
DRAW2
100
AcDbCircle
 10
3286.347432495285
 20
91.80625583859706
 30
0.0
 40
12.27550663840103
100
AcDbArc
 50
249.743841999583
 51
290.2561580004169
  0
LINE
  5
5CCD
330
18
100
AcDbEntity
  8
DRAW2
100
AcDbLine
 10
3289.587069524203
 20
90.03074920019605
 30
0.0
 11
3291.030445197177
 21
87.53074920019605
 31
0.0
  0
LINE
  5
5CCE
330
18
100
AcDbEntity
  8
DRAW2
100
AcDbLine
 10
3300.597432495285
 20
90.03074920019605
 30
0.0
 11
3280.597432495285
 21
90.03074920019605
 31
0.0
  0
LINE
  5
5CCF
330
18
100
AcDbEntity
  8
DRAW2
100
AcDbLine
 10
3299.797432495285
 20
87.53074920019605
 30
0.0
 11
3281.397432495285
 21
87.53074920019605
 31
0.0
  0
LINE
  5
5CD0
330
18
100
AcDbEntity
  8
DRAW2
100
AcDbLine
 10
3282.097432495285
 20
79.53074920019616
 30
0.0
 11
3299.097432495285
 21
79.53074920019606
 31
0.0
  0
LINE
  5
5CD1
330
18
100
AcDbEntity
  8
DRAW2
100
AcDbLine
 10
3281.397432495285
 20
90.03074920019605
 30
0.0
 11
3281.397432495285
 21
87.53074920019605
 31
0.0
  0
LINE
  5
5CD2
330
18
100
AcDbEntity
  8
DRAW2
100
AcDbLine
 10
3282.097432495285
 20
79.53074920019606
 30
0.0
 11
3282.097432495285
 21
87.53074920019605
 31
0.0
  0
LINE
  5
5CD3
330
18
100
AcDbEntity
  8
DRAW2
100
AcDbLine
 10
3280.597432495285
 20
90.03074920019605
 30
0.0
 11
3280.597432495285
 21
92.03074920019606
 31
0.0
  0
LINE
  5
5CD4
330
18
100
AcDbEntity
  8
DRAW2
100
AcDbLine
 10
3299.797432495285
 20
90.03074920019605
 30
0.0
 11
3299.797432495285
 21
87.53074920019605
 31
0.0
  0
LINE
  5
5CD5
330
18
100
AcDbEntity
  8
DRAW2
100
AcDbLine
 10
3299.097432495285
 20
79.53074920019606
 30
0.0
 11
3299.097432495285
 21
87.53074920019605
 31
0.0
  0
LINE
  5
5CD6
330
18
100
AcDbEntity
  8
DRAW2
100
AcDbLine
 10
3300.597432495285
 20
90.03074920019605
 30
0.0
 11
3300.597432495285
 21
92.03074920019606
 31
0.0
  0
LINE
  5
5CD7
330
18
100
AcDbEntity
  8
DRAW2
100
AcDbLine
 10
3290.164419793392
 20
90.03074920019605
 30
0.0
 11
3291.607795466367
 21
87.53074920019605
 31
0.0
  0
LINE
  5
5CD8
330
18
100
AcDbEntity
  8
DRAW2
100
AcDbLine
 10
3290.597432495285
 20
80.28993857875105
 30
0.0
 11
3290.597432495285
 21
87.53074920019605
 31
0.0
  0
ARC
  5
5CD9
330
18
100
AcDbEntity
  8
DRAW2
100
AcDbCircle
 10
3294.847432495284
 20
91.80625583859706
 30
0.0
 40
12.27550663840103
100
AcDbArc
 50
249.743841999583
 51
290.2561580004169
  0
ARC
  5
5CDA
330
18
100
AcDbEntity
  8
DRAW2
100
AcDbCircle
 10
3313.181806625081
 20
94.030749200196
 30
0.0
 40
2.0
100
AcDbArc
 50
270.0
 51
355.2472654318725
  0
LINE
  5
5CDB
330
18
100
AcDbEntity
  8
DRAW2
100
AcDbLine
 10
3223.232732878163
 20
170.030739200196
 30
0.0
 11
3279.267902495284
 21
170.030739200196
 31
0.0
  0
LINE
  5
5CDC
330
18
100
AcDbEntity
  8
DRAW2
100
AcDbLine
 10
3282.43952047503
 20
197.5307492001957
 30
0.0
 11
3272.393512495285
 21
312.356429200196
 31
0.0
  0
LINE
  5
5CDD
330
18
100
AcDbEntity
  8
DRAW2
100
AcDbLine
 10
3317.063128051177
 20
168.0313058527078
 30
0.0
 11
3225.684313335907
 21
168.0313058527078
 31
0.0
  0
LINE
  5
5CDE
330
18
100
AcDbEntity
  8
DRAW2
100
AcDbLine
 10
3313.015582495285
 20
188.5307492001957
 30
0.0
 11
3182.544160034487
 21
188.5307492001957
 31
0.0
  0
LINE
  5
5CDF
330
18
100
AcDbEntity
  8
DRAW2
100
AcDbLine
 10
3222.474333978447
 20
170.5301024701545
 30
0.0
 11
3314.015559232469
 21
170.5307192002426
 31
0.0
  0
ARC
  5
5CE0
330
18
100
AcDbEntity
  8
DRAW2
100
AcDbCircle
 10
3152.015522495285
 20
119.030739200196
 30
0.0
 40
60.5
100
AcDbArc
 50
46.05339786658272
 51
133.9466021334173
  0
ARC
  5
5CE2
330
18
100
AcDbEntity
  8
DRAW2
100
AcDbCircle
 10
3152.015522495285
 20
74.03073920019608
 30
0.0
 40
118.5
100
AcDbArc
 50
56.41407452676278
 51
123.5859254732372
  0
ARC
  5
5CE3
330
18
100
AcDbEntity
  8
DRAW2
100
AcDbCircle
 10
3092.173410816069
 20
153.5805984870614
 30
0.0
 40
20.0
100
AcDbArc
 50
106.590350380682
 51
26.77367392463583
  0
LINE
  5
5CE4
330
18
100
AcDbEntity
  8
DRAW2
  6
Continuous
100
AcDbLine
 10
3101.137764490864
 20
159.1563989151133
 30
0.0
 11
3091.826803645587
 21
164.5320863935933
 31
0.0
  0
LINE
  5
5CE5
330
18
100
AcDbEntity
  8
DRAW2
  6
Continuous
100
AcDbLine
 10
3101.137712857415
 20
148.4051130046933
 30
0.0
 11
3091.826751396796
 21
143.0294275576932
 31
0.0
  0
CIRCLE
  5
5CE6
330
18
100
AcDbEntity
  8
DRAW2
  6
Continuous
100
AcDbCircle
 10
3091.826756932265
 20
153.7807392001933
 30
0.0
 40
9.31095
  0
CIRCLE
  5
5CE7
330
18
100
AcDbEntity
  8
DRAW2
100
AcDbCircle
 10
3091.826756932265
 20
153.7807392001933
 30
0.0
 40
12.0
  0
LINE
  5
5CE8
330
18
100
AcDbEntity
  8
DRAW2
  6
Continuous
100
AcDbLine
 10
3082.515703665364
 20
159.1564509717882
 30
0.0
 11
3082.515703665364
 21
148.4051048787732
 31
0.0
  0
LINE
  5
5CE9
330
18
100
AcDbEntity
  8
DRAW2
  6
Continuous
100
AcDbLine
 10
3091.826814232519
 20
143.0293657668432
 30
0.0
 11
3082.515853487015
 21
148.4050532453233
 31
0.0
  0
LINE
  5
5CEA
330
18
100
AcDbEntity
  8
DRAW2
  6
Continuous
100
AcDbLine
 10
3091.82676604027
 20
164.5321481844432
 30
0.0
 11
3082.515804392915
 21
159.1564623142182
 31
0.0
  0
LINE
  5
5CEB
330
18
100
AcDbEntity
  8
DRAW2
  6
Continuous
100
AcDbLine
 10
3101.137603665365
 20
159.1564251550632
 30
0.0
 11
3101.137603665365
 21
148.4050532453233
 31
0.0
  0
ARC
  5
5CEC
330
18
100
AcDbEntity
  8
DRAW2
  6
Continuous
100
AcDbCircle
 10
3098.86300764051
 20
185.2551907001957
 30
0.0
 40
12.275561
100
AcDbArc
 50
69.74391000000001
 51
110.2560709999999
  0
LINE
  5
5CED
330
18
100
AcDbEntity
  8
DRAW2
100
AcDbLine
 10
3084.113007640509
 20
190.5307492001957
 30
0.0
 11
3105.113007640509
 21
190.5307492001957
 31
0.0
  0
LINE
  5
5CEE
330
18
100
AcDbEntity
  8
DRAW2
  6
Continuous
100
AcDbLine
 10
3103.11300764051
 20
197.5307492001957
 30
0.0
 11
3086.113007640509
 21
197.5307492001957
 31
0.0
  0
LINE
  5
5CEF
330
18
100
AcDbEntity
  8
DRAW2
  6
Continuous
100
AcDbLine
 10
3103.11300764051
 20
190.5307492001957
 30
0.0
 11
3086.113007640509
 21
190.5307492001957
 31
0.0
  0
LINE
  5
5CF0
330
18
100
AcDbEntity
  8
DRAW2
100
AcDbLine
 10
3085.613007640509
 20
190.5307492001957
 30
0.0
 11
3099.85683764051
 21
190.5307492001957
 31
0.0
  0
LINE
  5
5CF2
330
18
100
AcDbEntity
  8
DRAW2
  6
Continuous
100
AcDbLine
 10
3086.113007640509
 20
197.5307492001957
 30
0.0
 11
3086.113007640509
 21
190.5307492001957
 31
0.0
  0
LINE
  5
5CF3
330
18
100
AcDbEntity
  8
DRAW2
100
AcDbLine
 10
3084.113007640509
 20
190.5307492001957
 30
0.0
 11
3084.113007640509
 21
188.5307492001957
 31
0.0
  0
LINE
  5
5CF4
330
18
100
AcDbEntity
  8
DRAW2
  6
Continuous
100
AcDbLine
 10
3094.613007640509
 20
196.7717350709564
 30
0.0
 11
3094.613007640509
 21
196.6994485022182
 31
0.0
  0
LINE
  5
5CF5
330
18
100
AcDbEntity
  8
DRAW2
  6
Continuous
100
AcDbLine
 10
3094.613007640509
 20
196.7715634001957
 30
0.0
 11
3094.613007640509
 21
190.5307492001957
 31
0.0
  0
ARC
  5
5CF6
330
18
100
AcDbEntity
  8
DRAW2
  6
Continuous
100
AcDbCircle
 10
3090.363007640509
 20
185.2551907001957
 30
0.0
 40
12.275561
100
AcDbArc
 50
69.74391000000001
 51
110.2560709999999
  0
LINE
  5
5CF7
330
18
100
AcDbEntity
  8
DRAW2
  6
Continuous
100
AcDbLine
 10
3103.11300764051
 20
197.5307492001957
 30
0.0
 11
3103.11300764051
 21
190.5307492001957
 31
0.0
  0
LINE
  5
5CF8
330
18
100
AcDbEntity
  8
DRAW2
100
AcDbLine
 10
3105.113007640509
 20
190.5307492001957
 30
0.0
 11
3105.113007640509
 21
188.5307492001957
 31
0.0
  0
ARC
  5
5CF9
330
18
100
AcDbEntity
  8
DRAW2
100
AcDbCircle
 10
3211.857634174501
 20
153.5805984870614
 30
0.0
 40
20.0
100
AcDbArc
 50
153.2263260753641
 51
73.40964961931793
  0
LINE
  5
5CFA
330
18
100
AcDbEntity
  8
DRAW2
  6
Continuous
100
AcDbLine
 10
3202.893441325205
 20
159.1564251550632
 30
0.0
 11
3202.893441325205
 21
148.4050532453233
 31
0.0
  0
LINE
  5
5CFB
330
18
100
AcDbEntity
  8
DRAW2
  6
Continuous
100
AcDbLine
 10
3221.515341325205
 20
159.1564509717882
 30
0.0
 11
3221.515341325205
 21
148.4051048787732
 31
0.0
  0
CIRCLE
  5
5CFC
330
18
100
AcDbEntity
  8
DRAW2
  6
Continuous
100
AcDbCircle
 10
3212.204288058305
 20
153.7807392001933
 30
0.0
 40
9.31095
  0
CIRCLE
  5
5CFD
330
18
100
AcDbEntity
  8
DRAW2
100
AcDbCircle
 10
3212.204288058305
 20
153.7807392001933
 30
0.0
 40
12.0
  0
LINE
  5
5CFE
330
18
100
AcDbEntity
  8
DRAW2
  6
Continuous
100
AcDbLine
 10
3212.20423075805
 20
143.0293657668432
 30
0.0
 11
3221.515191503554
 21
148.4050532453233
 31
0.0
  0
LINE
  5
5CFF
330
18
100
AcDbEntity
  8
DRAW2
  6
Continuous
100
AcDbLine
 10
3202.893332133155
 20
148.4051130046933
 30
0.0
 11
3212.204293593774
 21
143.0294275576932
 31
0.0
  0
LINE
  5
5D00
330
18
100
AcDbEntity
  8
DRAW2
  6
Continuous
100
AcDbLine
 10
3212.2042789503
 20
164.5321481844432
 30
0.0
 11
3221.515240597655
 21
159.1564623142182
 31
0.0
  0
LINE
  5
5D01
330
18
100
AcDbEntity
  8
DRAW2
  6
Continuous
100
AcDbLine
 10
3202.893280499705
 20
159.1563989151133
 30
0.0
 11
3212.204241344982
 21
164.5320863935933
 31
0.0
  0
LINE
  5
5D02
330
18
100
AcDbEntity
  8
DRAW2
100
AcDbLine
 10
3233.515522495284
 20
129.030739200196
 30
0.0
 11
3231.814515369389
 21
154.8931886641968
 31
0.0
  0
LINE
  5
5D03
330
18
100
AcDbEntity
  8
DRAW2
100
AcDbLine
 10
3233.515522495284
 20
129.030739200196
 30
0.0
 11
3233.515522495284
 21
105.7815562023855
 31
0.0
  0
LINE
  5
5D04
330
18
100
AcDbEntity
  8
DRAW2
100
AcDbLine
 10
3221.41803735006
 20
188.5307492001957
 30
0.0
 11
3197.418037350061
 21
188.5307492001957
 31
0.0
  0
LINE
  5
5D05
330
18
100
AcDbEntity
  8
DRAW2
100
AcDbLine
 10
3219.91803735006
 20
190.5307492001957
 30
0.0
 11
3198.91803735006
 21
190.5307492001957
 31
0.0
  0
LINE
  5
5D06
330
18
100
AcDbEntity
  8
DRAW2
100
AcDbLine
 10
3198.91803735006
 20
190.5307492001957
 30
0.0
 11
3198.91803735006
 21
188.5307492001957
 31
0.0
  0
LINE
  5
5D08
330
18
100
AcDbEntity
  8
DRAW2
  6
Continuous
100
AcDbLine
 10
3200.91803735006
 20
197.5307492001957
 30
0.0
 11
3217.91803735006
 21
197.5307492001957
 31
0.0
  0
LINE
  5
5D09
330
18
100
AcDbEntity
  8
DRAW2
  6
Continuous
100
AcDbLine
 10
3200.91803735006
 20
190.5307492001957
 30
0.0
 11
3217.91803735006
 21
190.5307492001957
 31
0.0
  0
LINE
  5
5D0A
330
18
100
AcDbEntity
  8
DRAW2
100
AcDbLine
 10
3218.41803735006
 20
190.5307492001957
 30
0.0
 11
3204.17420735006
 21
190.5307492001957
 31
0.0
  0
ARC
  5
5D0B
330
18
100
AcDbEntity
  8
DRAW2
  6
Continuous
100
AcDbCircle
 10
3213.66803735006
 20
185.2551907001957
 30
0.0
 40
12.275561
100
AcDbArc
 50
69.74392900000004
 51
110.2560899999999
  0
LINE
  5
5D0C
330
18
100
AcDbEntity
  8
DRAW2
  6
Continuous
100
AcDbLine
 10
3209.41803735006
 20
196.7715634001957
 30
0.0
 11
3209.41803735006
 21
190.5307492001957
 31
0.0
  0
LINE
  5
5D0D
330
18
100
AcDbEntity
  8
DRAW2
  6
Continuous
100
AcDbLine
 10
3200.91803735006
 20
197.5307492001957
 30
0.0
 11
3200.91803735006
 21
190.5307492001957
 31
0.0
  0
ARC
  5
5D0E
330
18
100
AcDbEntity
  8
DRAW2
  6
Continuous
100
AcDbCircle
 10
3205.16803735006
 20
185.2551907001957
 30
0.0
 40
12.275561
100
AcDbArc
 50
69.74392900000004
 51
110.2560899999999
  0
LINE
  5
5D0F
330
18
100
AcDbEntity
  8
DRAW2
  6
Continuous
100
AcDbLine
 10
3209.41803735006
 20
196.7717350709564
 30
0.0
 11
3209.41803735006
 21
196.6994485022182
 31
0.0
  0
LINE
  5
5D10
330
18
100
AcDbEntity
  8
DRAW2
  6
Continuous
100
AcDbLine
 10
3217.91803735006
 20
197.5307492001957
 30
0.0
 11
3217.91803735006
 21
190.5307492001957
 31
0.0
  0
LINE
  5
5D11
330
18
100
AcDbEntity
  8
DRAW2
100
AcDbLine
 10
3219.91803735006
 20
190.5307492001957
 30
0.0
 11
3219.91803735006
 21
188.5307492001957
 31
0.0
  0
CIRCLE
  5
5D13
330
18
100
AcDbEntity
  8
DRAW3
100
AcDbCircle
 10
3152.015522495285
 20
327.5307492001961
 30
0.0
 40
6.5
  0
CIRCLE
  5
5D14
330
18
100
AcDbEntity
  8
DRAW2
100
AcDbCircle
 10
3152.015522495285
 20
327.5307492001961
 30
0.0
 40
5.75
  0
LINE
  5
5D15
330
18
100
AcDbEntity
  8
DRAW2
100
AcDbLine
 10
3143.515522495284
 20
322.6232719120846
 30
0.0
 11
3152.015522495285
 21
317.7157946239724
 31
0.0
  0
LINE
  5
5D16
330
18
100
AcDbEntity
  8
DRAW2
100
AcDbLine
 10
3143.515522495285
 20
332.4382264883081
 30
0.0
 11
3152.015522495285
 21
337.3457037764197
 31
0.0
  0
CIRCLE
  5
5D17
330
18
100
AcDbEntity
  8
DRAW2
100
AcDbCircle
 10
3152.015522495285
 20
327.5307492001961
 30
0.0
 40
8.5
  0
LINE
  5
5D18
330
18
100
AcDbEntity
  8
DRAW2
100
AcDbLine
 10
3143.515522495285
 20
322.6232719120847
 30
0.0
 11
3143.515522495285
 21
332.4382264883079
 31
0.0
  0
LINE
  5
5D19
330
18
100
AcDbEntity
  8
DRAW2
100
AcDbLine
 10
3160.515522495286
 20
322.6232719120846
 30
0.0
 11
3152.015522495285
 21
317.7157946239724
 31
0.0
  0
LINE
  5
5D1A
330
18
100
AcDbEntity
  8
DRAW2
100
AcDbLine
 10
3160.515522495285
 20
322.6232719120847
 30
0.0
 11
3160.515522495285
 21
332.4382264883079
 31
0.0
  0
LINE
  5
5D1B
330
18
100
AcDbEntity
  8
DRAW2
100
AcDbLine
 10
3160.515522495285
 20
332.4382264883081
 30
0.0
 11
3152.015522495285
 21
337.3457037764196
 31
0.0
  0
LINE
  5
5D1C
330
18
100
AcDbEntity
  8
DRAW2
100
AcDbLine
 10
3143.369375324163
 20
397.0050149429437
 30
0.0
 11
3142.015552495285
 21
381.530749200196
 31
0.0
  0
LINE
  5
5D1D
330
18
100
AcDbEntity
  8
DRAW2
100
AcDbLine
 10
3160.661669666406
 20
397.0050149429437
 30
0.0
 11
3162.015492495285
 21
381.530749200196
 31
0.0
  0
LINE
  5
5D1E
330
18
100
AcDbEntity
  8
DRAW2
100
AcDbLine
 10
3169.708031829784
 20
381.530749200196
 30
0.0
 11
3134.323013160785
 21
381.5307492001963
 31
0.0
  0
LINE
  5
5D1F
330
18
100
AcDbEntity
  8
DRAW2
100
AcDbLine
 10
3143.52754661679
 20
381.5307492001961
 30
0.0
 11
3143.52754661679
 21
362.5307492001961
 31
0.0
  0
LINE
  5
5D20
330
18
100
AcDbEntity
  8
DRAW2
100
AcDbLine
 10
3134.323013160785
 20
381.5307583094413
 30
0.0
 11
3134.323013160785
 21
362.5307583094413
 31
0.0
  0
LINE
  5
5D21
330
18
100
AcDbEntity
  8
DRAW2
100
AcDbLine
 10
3160.503498373779
 20
381.5307492001961
 30
0.0
 11
3160.503498373779
 21
362.5307492001961
 31
0.0
  0
LINE
  5
5D22
330
18
100
AcDbEntity
  8
DRAW2
100
AcDbLine
 10
3169.708031829784
 20
381.5307583094413
 30
0.0
 11
3169.708031829784
 21
362.5307583094413
 31
0.0
  0
ARC
  5
5D23
330
18
100
AcDbEntity
  8
DRAW2
100
AcDbCircle
 10
3147.015522495285
 20
398.917859200196
 30
0.0
 40
1.0
100
AcDbArc
 50
270.0
 51
0.000000000000007
  0
LINE
  5
5D24
330
18
100
AcDbEntity
  8
DRAW2
100
AcDbLine
 10
3159.665474968315
 20
397.917859200196
 30
0.0
 11
3144.365570022255
 21
397.917859200196
 31
0.0
  0
ARC
  5
5D26
330
18
100
AcDbEntity
  8
DRAW2
100
AcDbCircle
 10
3144.365570022255
 20
396.9178592001957
 30
0.0
 40
1.0
100
AcDbArc
 50
90.00000000001302
 51
174.9999999999854
  0
ARC
  5
5D27
330
18
100
AcDbEntity
  8
DRAW2
100
AcDbCircle
 10
3157.015522495285
 20
398.917859200196
 30
0.0
 40
1.0
100
AcDbArc
 50
180.0
 51
270.0
  0
ARC
  5
5D28
330
18
100
AcDbEntity
  8
DRAW2
100
AcDbCircle
 10
3159.665474968315
 20
396.9178592001957
 30
0.0
 40
1.0
100
AcDbArc
 50
5.000000000014554
 51
89.99999999998697
  0
LINE
  5
5D29
330
18
100
AcDbEntity
  8
DRAW2
100
AcDbLine
 10
3275.015522495285
 20
357.5307492001961
 30
0.0
 11
3275.015522495285
 21
314.5307492001961
 31
0.0
  0
ARC
  5
5D2A
330
18
100
AcDbEntity
  8
DRAW2
100
AcDbCircle
 10
3274.385942495284
 20
312.5307492001961
 30
0.0
 40
2.0
100
AcDbArc
 50
89.99999700000001
 51
185.0
  0
LINE
  5
5D2B
330
18
100
AcDbEntity
  8
DRAW2
100
AcDbLine
 10
3275.015522495285
 20
357.530779200196
 30
0.0
 11
3270.015522495285
 21
362.5307792001961
 31
0.0
  0
LINE
  5
5D2C
330
18
100
AcDbEntity
  8
DRAW2
100
AcDbLine
 10
3315.015552495285
 20
171.53071920022
 30
0.0
 11
3315.015552495285
 21
186.5307192001957
 31
0.0
  0
LINE
  5
5D2D
330
18
100
AcDbEntity
  8
DRAW2
100
AcDbLine
 10
3318.015522495285
 20
128.030739200196
 30
0.0
 11
3317.063128051177
 21
168.0313058527078
 31
0.0
  0
LINE
  5
5D2E
330
18
100
AcDbEntity
  8
DRAW2
100
AcDbLine
 10
3279.267902495284
 20
170.030739200196
 30
0.0
 11
3315.015522495285
 21
170.030739200196
 31
0.0
  0
ARC
  5
5D2F
330
18
100
AcDbEntity
  8
DRAW2
100
AcDbCircle
 10
3317.015522495285
 20
170.030739200196
 30
0.0
 40
2.0
100
AcDbArc
 50
180.0
 51
271.363927531606
  0
ARC
  5
5D30
330
18
100
AcDbEntity
  8
DRAW2
100
AcDbCircle
 10
3314.015552495284
 20
171.53071920022
 30
0.0
 40
1.0
100
AcDbArc
 50
270.0003860122151
 51
0.0
  0
LINE
  5
5D31
330
18
100
AcDbEntity
  8
DRAW2
100
AcDbLine
 10
3302.597432495284
 20
188.5307492001957
 30
0.0
 11
3278.597432495285
 21
188.5307492001957
 31
0.0
  0
LINE
  5
5D33
330
18
100
AcDbEntity
  8
DRAW2
100
AcDbLine
 10
3299.597432495284
 20
190.5307492001957
 30
0.0
 11
3285.353602495284
 21
190.5307492001957
 31
0.0
  0
ARC
  5
5D34
330
18
100
AcDbEntity
  8
DRAW2
  6
Continuous
100
AcDbCircle
 10
3286.347432495285
 20
185.2551907001957
 30
0.0
 40
12.275561
100
AcDbArc
 50
69.74392900000004
 51
110.2560899999999
  0
LINE
  5
5D35
330
18
100
AcDbEntity
  8
DRAW2
100
AcDbLine
 10
3301.097432495284
 20
190.5307492001957
 30
0.0
 11
3280.097432495284
 21
190.5307492001957
 31
0.0
  0
LINE
  5
5D36
330
18
100
AcDbEntity
  8
DRAW2
  6
Continuous
100
AcDbLine
 10
3282.097432495285
 20
197.5307492001957
 30
0.0
 11
3299.097432495285
 21
197.5307492001957
 31
0.0
  0
LINE
  5
5D37
330
18
100
AcDbEntity
  8
DRAW2
  6
Continuous
100
AcDbLine
 10
3282.097432495285
 20
190.5307492001957
 30
0.0
 11
3299.097432495285
 21
190.5307492001957
 31
0.0
  0
LINE
  5
5D38
330
18
100
AcDbEntity
  8
DRAW2
100
AcDbLine
 10
3280.097432495284
 20
190.5307492001957
 30
0.0
 11
3280.097432495284
 21
188.5307492001957
 31
0.0
  0
LINE
  5
5D39
330
18
100
AcDbEntity
  8
DRAW2
  6
Continuous
100
AcDbLine
 10
3282.097432495285
 20
197.5307492001957
 30
0.0
 11
3282.097432495285
 21
190.5307492001957
 31
0.0
  0
LINE
  5
5D3A
330
18
100
AcDbEntity
  8
DRAW2
  6
Continuous
100
AcDbLine
 10
3299.097432495285
 20
197.5307492001957
 30
0.0
 11
3299.097432495285
 21
190.5307492001957
 31
0.0
  0
LINE
  5
5D3B
330
18
100
AcDbEntity
  8
DRAW2
100
AcDbLine
 10
3301.097432495284
 20
190.5307492001957
 30
0.0
 11
3301.097432495284
 21
188.5307492001957
 31
0.0
  0
LINE
  5
5D3C
330
18
100
AcDbEntity
  8
DRAW2
  6
Continuous
100
AcDbLine
 10
3290.597432495285
 20
196.7715634001957
 30
0.0
 11
3290.597432495285
 21
190.5307492001957
 31
0.0
  0
LINE
  5
5D3D
330
18
100
AcDbEntity
  8
DRAW2
  6
Continuous
100
AcDbLine
 10
3290.597432495285
 20
196.7717350709564
 30
0.0
 11
3290.597432495285
 21
196.6994485022182
 31
0.0
  0
ARC
  5
5D3E
330
18
100
AcDbEntity
  8
DRAW2
  6
Continuous
100
AcDbCircle
 10
3294.847432495284
 20
185.2551907001957
 30
0.0
 40
12.275561
100
AcDbArc
 50
69.74392900000004
 51
110.2560899999999
  0
ARC
  5
5D3F
330
18
100
AcDbEntity
  8
DRAW2
100
AcDbCircle
 10
3313.015582495285
 20
186.5307492001957
 30
0.0
 40
2.0
100
AcDbArc
 50
359.9999899999999
 51
89.99999700000001
  0
LINE
  5
5D40
330
18
100
AcDbEntity
  8
DRAW2
100
AcDbLine
 10
2790.000000353827
 20
853.5404374471655
 30
0.0
 11
2790.000000353827
 21
694.5404374471654
 31
0.0
  0
LINE
  5
5D41
330
18
100
AcDbEntity
  8
DRAW2
100
AcDbLine
 10
2792.500000587397
 20
846.0404374471654
 30
0.0
 11
2792.500000587397
 21
702.0404374471654
 31
0.0
  0
LINE
  5
5D42
330
18
100
AcDbEntity
  8
DRAW2
100
AcDbLine
 10
2794.500385184879
 20
694.5404374471654
 30
0.0
 11
2794.500385184879
 21
853.5404374471655
 31
0.0
  0
LINE
  5
5D43
330
18
100
AcDbEntity
  8
DRAW2
100
AcDbLine
 10
2794.500385184879
 20
699.9968562085533
 30
0.0
 11
2794.500385184879
 21
848.0840186857776
 31
0.0
  0
LINE
  5
5D44
330
18
100
AcDbEntity
  8
DRAW2
100
AcDbLine
 10
2839.000385184879
 20
694.5404374471654
 30
0.0
 11
2839.000385184879
 21
853.5404374471655
 31
0.0
  0
LINE
  5
5D45
330
18
100
AcDbEntity
  8
DRAW2
100
AcDbLine
 10
2790.000000353827
 20
699.9968562085533
 30
0.0
 11
2790.000000353827
 21
848.0840186857776
 31
0.0
  0
ARC
  5
5D46
330
18
100
AcDbEntity
  8
DRAW2
100
AcDbCircle
 10
3110.500385184879
 20
774.0404374471654
 30
0.0
 40
278.0
100
AcDbArc
 50
167.5857136485401
 51
192.4142863514598
  0
ARC
  5
5D47
330
18
100
AcDbEntity
  8
DRAW2
100
AcDbCircle
 10
2474.000000353827
 20
774.0404374471654
 30
0.0
 40
278.0
100
AcDbArc
 50
347.5857136485401
 51
12.41428635145989
  0
LINE
  5
5D48
330
18
100
AcDbEntity
  8
DRAW2
100
AcDbLine
 10
2747.500000353827
 20
692.5404374471654
 30
0.0
 11
2788.000000353827
 21
692.5404374471654
 31
0.0
  0
LINE
  5
5D49
330
18
100
AcDbEntity
  8
DRAW2
100
AcDbLine
 10
2788.000000353827
 20
697.9968562085534
 30
0.0
 11
2747.500000353827
 21
697.9968562085534
 31
0.0
  0
LINE
  5
5D4A
330
18
100
AcDbEntity
  8
DRAW2
100
AcDbLine
 10
2739.000000353826
 20
709.073437447166
 30
0.0
 11
2739.000000353826
 21
717.8265601569449
 31
0.0
  0
LINE
  5
5D4B
330
18
100
AcDbEntity
  8
DRAW2
100
AcDbLine
 10
2745.500000353827
 20
699.2846845860391
 30
0.0
 11
2745.500000353827
 21
714.2763177765804
 31
0.0
  0
LINE
  5
5D4C
330
18
100
AcDbEntity
  8
DRAW2
100
AcDbLine
 10
2739.875046411306
 20
708.1984374471657
 30
0.0
 11
2739.875046411306
 21
720.1984374471656
 31
0.0
  0
LINE
  5
5D4D
330
18
100
AcDbEntity
  8
DRAW2
100
AcDbLine
 10
2745.500000353827
 20
694.5404374471654
 30
0.0
 11
2745.500000353827
 21
740.4435625925016
 31
0.0
  0
CIRCLE
  5
5D4E
330
18
100
AcDbEntity
  8
DRAW2
100
AcDbCircle
 10
2724.581930230519
 20
716.6379225924018
 30
0.0
 40
8.500000999999999
  0
LINE
  5
5D50
330
18
100
AcDbEntity
  8
DRAW2
100
AcDbLine
 10
2716.081953130519
 20
711.7304528924018
 30
0.0
 11
2716.081953130519
 21
721.5454170924017
 31
0.0
  0
LINE
  5
5D51
330
18
100
AcDbEntity
  8
DRAW2
100
AcDbLine
 10
2733.081935930519
 20
711.7304356924018
 30
0.0
 11
2733.081935930519
 21
721.5453999924017
 31
0.0
  0
LINE
  5
5D52
330
18
100
AcDbEntity
  8
DRAW2
100
AcDbLine
 10
2716.08194073052
 20
711.7304494924018
 30
0.0
 11
2724.581955425326
 21
706.8229630924017
 31
0.0
  0
ARC
  5
5D53
330
18
100
AcDbEntity
  8
DRAW2
100
AcDbCircle
 10
2724.581930230519
 20
716.6379225924018
 30
0.0
 40
9.0
100
AcDbArc
 50
220.8116936953981
 51
259.1882999565275
  0
LINE
  5
5D54
330
18
100
AcDbEntity
  8
DRAW2
100
AcDbLine
 10
2724.581943093131
 20
706.8229582924017
 30
0.0
 11
2733.081945530519
 21
711.7304361924017
 31
0.0
  0
ARC
  5
5D55
330
18
100
AcDbEntity
  8
DRAW2
100
AcDbCircle
 10
2724.581930230519
 20
716.6379225924018
 30
0.0
 40
9.0
100
AcDbArc
 50
280.8121538808937
 51
319.1878380774269
  0
ARC
  5
5D56
330
18
100
AcDbEntity
  8
DRAW2
100
AcDbCircle
 10
2747.500000353827
 20
694.5404374471654
 30
0.0
 40
2.0
100
AcDbArc
 50
180.0
 51
270.0
  0
LINE
  5
5D57
330
18
100
AcDbEntity
  8
DRAW2
100
AcDbLine
 10
2745.500000353827
 20
708.1984374471654
 30
0.0
 11
2739.875046411306
 21
708.1984374471654
 31
0.0
  0
LINE
  5
5D58
330
18
100
AcDbEntity
  8
DRAW3
100
AcDbLine
 10
2745.500000353827
 20
709.073497446534
 30
0.0
 11
2739.000000353826
 21
709.073497446534
 31
0.0
  0
ARC
  5
5D59
330
18
100
AcDbEntity
  8
DRAW2
100
AcDbCircle
 10
2747.500000353827
 20
699.9968562085533
 30
0.0
 40
2.0
100
AcDbArc
 50
200.8600059216548
 51
270.0
  0
LINE
  5
5D5A
330
18
100
AcDbEntity
  8
DRAW2
100
AcDbLine
 10
2739.875046411306
 20
708.1984374471654
 30
0.0
 11
2739.000000353827
 21
709.0734374471657
 31
0.0
  0
LINE
  5
5D5B
330
18
100
AcDbEntity
  8
DRAW2
100
AcDbLine
 10
2716.081935930519
 20
721.5454046924017
 30
0.0
 11
2724.581938147918
 21
726.4528820924017
 31
0.0
  0
ARC
  5
5D5C
330
18
100
AcDbEntity
  8
DRAW2
100
AcDbCircle
 10
2724.581930230519
 20
716.6379225924018
 30
0.0
 40
9.0
100
AcDbArc
 50
100.811873354624
 51
139.1881148323965
  0
ARC
  5
5D5D
330
18
100
AcDbEntity
  8
DRAW2
100
AcDbCircle
 10
2724.581930230519
 20
716.6379225924018
 30
0.0
 40
9.0
100
AcDbArc
 50
157.5000000000002
 51
199.1885800105347
  0
LINE
  5
5D5E
330
18
100
AcDbEntity
  8
DRAW2
100
AcDbLine
 10
2724.581939094105
 20
726.4528792924018
 30
0.0
 11
2733.081927330519
 21
721.5454089924017
 31
0.0
  0
ARC
  5
5D5F
330
18
100
AcDbEntity
  8
DRAW2
100
AcDbCircle
 10
2724.581930230519
 20
716.6379225924018
 30
0.0
 40
9.0
100
AcDbArc
 50
40.81198765376154
 51
79.1880143320635
  0
ARC
  5
5D61
330
18
100
AcDbEntity
  8
DRAW2
100
AcDbCircle
 10
2724.581930230519
 20
716.6379225924018
 30
0.0
 40
9.0
100
AcDbArc
 50
337.5000000000002
 51
19.18802604721743
  0
LINE
  5
5D62
330
18
100
AcDbEntity
  8
DRAW3
100
AcDbLine
 10
2745.500000353827
 20
719.3234374471654
 30
0.0
 11
2739.54168821416
 21
719.3234374471655
 31
0.0
  0
LINE
  5
5D63
330
18
100
AcDbEntity
  8
DRAW2
100
AcDbLine
 10
2745.500000353827
 20
720.1984374471654
 30
0.0
 11
2739.875046411306
 21
720.1984374471654
 31
0.0
  0
ARC
  5
5D64
330
18
100
AcDbEntity
  8
DRAW2
100
AcDbCircle
 10
2748.833130236639
 20
774.0404303222089
 30
0.0
 40
48.99999999999999
100
AcDbArc
 50
261.7725778144977
 51
266.0995359508715
  0
LINE
  5
5D65
330
18
100
AcDbEntity
  8
DRAW2
100
AcDbLine
 10
2739.875046411306
 20
720.1984374471656
 30
0.0
 11
2739.837592006402
 21
720.160985013649
 31
0.0
  0
ARC
  5
5D66
330
18
100
AcDbEntity
  8
DRAW2
100
AcDbCircle
 10
2741.105591174139
 20
720.5962164550214
 30
0.0
 40
5.00000000000004
100
AcDbArc
 50
81.77256768290245
 51
84.02308795771878
  0
LINE
  5
5D67
330
18
100
AcDbEntity
  8
DRAW2
100
AcDbLine
 10
2837.000385184879
 20
692.5404374471654
 30
0.0
 11
2796.500385184879
 21
692.5404374471654
 31
0.0
  0
LINE
  5
5D68
330
18
100
AcDbEntity
  8
DRAW2
100
AcDbLine
 10
2796.500385184879
 20
697.9968562085534
 30
0.0
 11
2837.000385184879
 21
697.9968562085534
 31
0.0
  0
ARC
  5
5D69
330
18
100
AcDbEntity
  8
DRAW2
100
AcDbCircle
 10
2796.500385184879
 20
694.5404374471654
 30
0.0
 40
2.0
100
AcDbArc
 50
180.0
 51
270.0
  0
ARC
  5
5D6A
330
18
100
AcDbEntity
  8
DRAW2
100
AcDbCircle
 10
2788.000000353827
 20
694.5404374471654
 30
0.0
 40
2.0
100
AcDbArc
 50
270.0
 51
0.0
  0
ARC
  5
5D6B
330
18
100
AcDbEntity
  8
DRAW2
100
AcDbCircle
 10
2796.500385184879
 20
699.9968562085533
 30
0.0
 40
2.0
100
AcDbArc
 50
180.0
 51
270.0
  0
LINE
  5
5D6C
330
18
100
AcDbEntity
  8
DRAW2
100
AcDbLine
 10
2792.500000587397
 20
708.198437447167
 30
0.0
 11
2790.000000353827
 21
708.198437447167
 31
0.0
  0
LINE
  5
5D6D
330
18
100
AcDbEntity
  8
DRAW3
100
AcDbLine
 10
2790.000000353827
 20
709.073497446534
 30
0.0
 11
2792.500000587397
 21
709.073497446534
 31
0.0
  0
LINE
  5
5D6E
330
18
100
AcDbEntity
  8
DRAW2
100
AcDbLine
 10
2792.500000587397
 20
702.0404374471654
 30
0.0
 11
2794.500385184879
 21
702.0404374471653
 31
0.0
  0
ARC
  5
5D6F
330
18
100
AcDbEntity
  8
DRAW2
100
AcDbCircle
 10
2788.000000353827
 20
699.9968562085533
 30
0.0
 40
2.0
100
AcDbArc
 50
270.0
 51
0.0
  0
LINE
  5
5D70
330
18
100
AcDbEntity
  8
DRAW2
100
AcDbLine
 10
2792.500000587397
 20
720.198437447167
 30
0.0
 11
2790.000000353827
 21
720.198437447167
 31
0.0
  0
LINE
  5
5D71
330
18
100
AcDbEntity
  8
DRAW3
100
AcDbLine
 10
2790.000000353827
 20
719.3234374471654
 30
0.0
 11
2792.500000587397
 21
719.3234374471654
 31
0.0
  0
ARC
  5
5D72
330
18
100
AcDbEntity
  8
DRAW2
100
AcDbCircle
 10
2838.78078068488
 20
709.4484294471655
 30
0.0
 40
13.719608
100
AcDbArc
 50
339.7437000000006
 51
20.25628300000436
  0
LINE
  5
5D73
330
18
100
AcDbEntity
  8
DRAW2
100
AcDbLine
 10
2844.500385184879
 20
703.8984494471654
 30
0.0
 11
2844.500385184879
 21
724.4984254471654
 31
0.0
  0
LINE
  5
5D74
330
18
100
AcDbEntity
  8
DRAW2
100
AcDbLine
 10
2852.500385184879
 20
704.6984294471655
 30
0.0
 11
2852.500385184879
 21
723.6984294471654
 31
0.0
  0
LINE
  5
5D75
330
18
100
AcDbEntity
  8
DRAW2
100
AcDbLine
 10
2839.000385184879
 20
699.2846845860391
 30
0.0
 11
2839.000385184879
 21
714.2763177765804
 31
0.0
  0
LINE
  5
5D76
330
18
100
AcDbEntity
  8
DRAW2
100
AcDbLine
 10
2839.000385184879
 20
702.1984374471655
 30
0.0
 11
2839.000385184879
 21
726.1984374471654
 31
0.0
  0
LINE
  5
5D77
330
18
100
AcDbEntity
  8
DRAW2
100
AcDbLine
 10
2841.500385184879
 20
702.1984374471655
 30
0.0
 11
2841.500385184879
 21
726.1984374471654
 31
0.0
  0
LINE
  5
5D78
330
18
100
AcDbEntity
  8
DRAW2
100
AcDbLine
 10
2844.500427184879
 20
714.7757684271653
 30
0.0
 11
2841.500418784879
 21
713.0437125471654
 31
0.0
  0
LINE
  5
5D79
330
18
100
AcDbEntity
  8
DRAW2
100
AcDbLine
 10
2841.500385184879
 20
702.1984374471655
 30
0.0
 11
2839.000385184879
 21
702.1984374471655
 31
0.0
  0
ARC
  5
5D7A
330
18
100
AcDbEntity
  8
DRAW2
100
AcDbCircle
 10
2837.000385184879
 20
694.5404374471654
 30
0.0
 40
2.0
100
AcDbArc
 50
270.0
 51
0.0
  0
ARC
  5
5D7B
330
18
100
AcDbEntity
  8
DRAW2
100
AcDbCircle
 10
2837.000385184879
 20
699.9968562085533
 30
0.0
 40
2.0
100
AcDbArc
 50
270.0
 51
339.1399940783451
  0
LINE
  5
5D7C
330
18
100
AcDbEntity
  8
DRAW2
100
AcDbLine
 10
2852.500385184879
 20
704.6984294471655
 30
0.0
 11
2844.500385184879
 21
704.6984294471655
 31
0.0
  0
LINE
  5
5D7D
330
18
100
AcDbEntity
  8
DRAW2
100
AcDbLine
 10
2844.500385184879
 20
703.8984494471654
 30
0.0
 11
2841.500385184879
 21
703.8984494471654
 31
0.0
  0
LINE
  5
5D7E
330
18
100
AcDbEntity
  8
DRAW2
100
AcDbLine
 10
2841.500385184879
 20
726.1984374471654
 30
0.0
 11
2839.000385184879
 21
726.1984374471654
 31
0.0
  0
LINE
  5
5D7F
330
18
100
AcDbEntity
  8
DRAW2
100
AcDbLine
 10
2852.500385184879
 20
723.6984294471654
 30
0.0
 11
2844.500385184879
 21
723.6984294471654
 31
0.0
  0
ARC
  5
5D80
330
18
100
AcDbEntity
  8
DRAW2
100
AcDbCircle
 10
2838.78078068488
 20
718.9484294471655
 30
0.0
 40
13.719608
100
AcDbArc
 50
339.7437000000006
 51
20.25628300000436
  0
LINE
  5
5D81
330
18
100
AcDbEntity
  8
DRAW2
100
AcDbLine
 10
2851.651874484879
 20
714.1984294471654
 30
0.0
 11
2844.500385184879
 21
714.1984294471654
 31
0.0
  0
LINE
  5
5D82
330
18
100
AcDbEntity
  8
DRAW2
100
AcDbLine
 10
2851.651874484879
 20
714.1984294471654
 30
0.0
 11
2844.500385184879
 21
714.1984294471654
 31
0.0
  0
LINE
  5
5D83
330
18
100
AcDbEntity
  8
DRAW2
100
AcDbLine
 10
2844.500391884878
 20
715.3530996471655
 30
0.0
 11
2841.500436484879
 21
713.6210743471655
 31
0.0
  0
LINE
  5
5D84
330
18
100
AcDbEntity
  8
DRAW2
100
AcDbLine
 10
2844.500385184879
 20
724.4984254471654
 30
0.0
 11
2841.500385184879
 21
724.4984254471654
 31
0.0
  0
LINE
  5
5D85
330
18
100
AcDbEntity
  8
DRAW2
100
AcDbLine
 10
2788.000000353827
 20
855.5404374471654
 30
0.0
 11
2747.500000353827
 21
855.5404374471654
 31
0.0
  0
LINE
  5
5D86
330
18
100
AcDbEntity
  8
DRAW2
100
AcDbLine
 10
2788.000000353827
 20
850.0840186857777
 30
0.0
 11
2747.500000353827
 21
850.0840186857777
 31
0.0
  0
LINE
  5
5D87
330
18
100
AcDbEntity
  8
DRAW2
100
AcDbLine
 10
2739.000000353826
 20
830.254314737386
 30
0.0
 11
2739.000000353826
 21
839.0074374471655
 31
0.0
  0
LINE
  5
5D88
330
18
100
AcDbEntity
  8
DRAW2
100
AcDbLine
 10
2739.875046411306
 20
827.8824374471655
 30
0.0
 11
2739.875046411306
 21
839.8824374471654
 31
0.0
  0
LINE
  5
5D89
330
18
100
AcDbEntity
  8
DRAW2
100
AcDbLine
 10
2745.500000353827
 20
807.6373123018292
 30
0.0
 11
2745.500000353827
 21
853.5404374471655
 31
0.0
  0
LINE
  5
5D8A
330
18
100
AcDbEntity
  8
DRAW2
100
AcDbLine
 10
2745.500000353827
 20
848.7961903082917
 30
0.0
 11
2745.500000353827
 21
833.8045571177504
 31
0.0
  0
LINE
  5
5D8B
330
18
100
AcDbEntity
  8
DRAW2
100
AcDbLine
 10
2724.581939094106
 20
841.2579090019285
 30
0.0
 11
2733.081927330519
 21
836.3504387019284
 31
0.0
  0
CIRCLE
  5
5D8C
330
18
100
AcDbEntity
  8
DRAW2
100
AcDbCircle
 10
2724.58193023052
 20
831.4429523019285
 30
0.0
 40
8.500000999999999
  0
LINE
  5
5D8D
330
18
100
AcDbEntity
  8
DRAW2
100
AcDbLine
 10
2716.081935930519
 20
836.3504344019284
 30
0.0
 11
2724.581938147918
 21
841.2579118019284
 31
0.0
  0
LINE
  5
5D8E
330
18
100
AcDbEntity
  8
DRAW3
100
AcDbLine
 10
2712.700010353827
 20
781.6306600852917
 30
0.0
 11
2708.734209094835
 21
781.5067296591522
 31
0.0
  0
LINE
  5
5D8F
330
18
100
AcDbEntity
  8
DRAW2
100
AcDbLine
 10
2714.268250353827
 20
782.5360500852919
 30
0.0
 11
2708.669797322288
 21
782.3611106519635
 31
0.0
  0
LINE
  5
5D90
330
18
100
AcDbEntity
  8
DRAW3
100
AcDbLine
 10
2712.700010353827
 20
766.4502400852918
 30
0.0
 11
2708.734210585726
 21
766.5741661488391
 31
0.0
  0
LINE
  5
5D91
330
18
100
AcDbEntity
  8
DRAW2
100
AcDbLine
 10
2714.268250353827
 20
765.5448100852918
 30
0.0
 11
2708.669797395468
 21
765.7197651629346
 31
0.0
  0
LINE
  5
5D92
330
18
100
AcDbEntity
  8
DRAW2
100
AcDbLine
 10
2716.649990353827
 20
782.5404500852917
 30
0.0
 11
2744.649990353827
 21
782.5404500852917
 31
0.0
  0
LINE
  5
5D93
330
18
100
AcDbEntity
  8
DRAW2
100
AcDbLine
 10
2717.409120655702
 20
774.040450085292
 30
0.0
 11
2743.890832853881
 21
774.040450085292
 31
0.0
  0
LINE
  5
5D94
330
18
100
AcDbEntity
  8
DRAW2
100
AcDbLine
 10
2716.649990353827
 20
765.5404500852921
 30
0.0
 11
2744.649990353827
 21
765.5404500852921
 31
0.0
  0
ARC
  5
5D95
330
18
100
AcDbEntity
  8
DRAW2
100
AcDbCircle
 10
2728.92639321193
 20
778.2904500852919
 30
0.0
 40
12.27640285810306
100
AcDbArc
 50
159.7453856151078
 51
200.2546143848921
  0
LINE
  5
5D96
330
18
100
AcDbEntity
  8
DRAW2
100
AcDbLine
 10
2716.649990353827
 20
782.5404500852917
 30
0.0
 11
2716.649990353827
 21
765.5404500852921
 31
0.0
  0
LINE
  5
5D97
330
18
100
AcDbEntity
  8
DRAW2
100
AcDbLine
 10
2712.700010353827
 20
765.5938200852918
 30
0.0
 11
2712.700010353827
 21
782.4870460094556
 31
0.0
  0
LINE
  5
5D98
330
18
100
AcDbEntity
  8
DRAW2
100
AcDbLine
 10
2714.268250353827
 20
765.5448100852918
 30
0.0
 11
2716.649990353827
 21
765.5448100852918
 31
0.0
  0
ARC
  5
5D99
330
18
100
AcDbEntity
  8
DRAW2
100
AcDbCircle
 10
2728.926393211929
 20
769.790450085292
 30
0.0
 40
12.2764028581025
100
AcDbArc
 50
159.7453856151078
 51
200.2546143848921
  0
LINE
  5
5D9A
330
18
100
AcDbEntity
  8
DRAW3
100
AcDbLine
 10
2714.268250353827
 20
765.5448100852918
 30
0.0
 11
2712.700010353827
 21
766.4502400852918
 31
0.0
  0
LINE
  5
5D9B
330
18
100
AcDbEntity
  8
DRAW2
100
AcDbLine
 10
2714.268250353827
 20
782.5360800852918
 30
0.0
 11
2716.649990353827
 21
782.5360800852918
 31
0.0
  0
LINE
  5
5D9C
330
18
100
AcDbEntity
  8
DRAW3
100
AcDbLine
 10
2714.268250353827
 20
782.5360800852918
 30
0.0
 11
2712.700010353827
 21
781.6306600852917
 31
0.0
  0
ARC
  5
5D9D
330
18
100
AcDbEntity
  8
DRAW2
100
AcDbCircle
 10
2732.374000120534
 20
778.2904500852919
 30
0.0
 40
12.27599023329243
100
AcDbArc
 50
339.7446749553655
 51
20.25532504463452
  0
LINE
  5
5D9E
330
18
100
AcDbEntity
  8
DRAW2
100
AcDbLine
 10
2744.649990353827
 20
782.5404500852917
 30
0.0
 11
2744.649990353827
 21
765.5404500852921
 31
0.0
  0
ARC
  5
5D9F
330
18
100
AcDbEntity
  8
DRAW2
100
AcDbCircle
 10
2732.374000120533
 20
769.7904500852922
 30
0.0
 40
12.27599023329306
100
AcDbArc
 50
339.7446749553655
 51
20.25532504463452
  0
LINE
  5
5DA1
330
18
100
AcDbEntity
  8
DRAW2
100
AcDbLine
 10
2716.08194073052
 20
826.5354792019284
 30
0.0
 11
2724.581955425326
 21
821.6279928019284
 31
0.0
  0
ARC
  5
5DA2
330
18
100
AcDbEntity
  8
DRAW2
100
AcDbCircle
 10
2724.58193023052
 20
831.4429523019287
 30
0.0
 40
9.0
100
AcDbArc
 50
160.8114199894652
 51
202.4999999999997
  0
LINE
  5
5DA3
330
18
100
AcDbEntity
  8
DRAW2
100
AcDbLine
 10
2716.081953130519
 20
826.5354826019283
 30
0.0
 11
2716.081953130519
 21
836.3504468019284
 31
0.0
  0
ARC
  5
5DA4
330
18
100
AcDbEntity
  8
DRAW2
100
AcDbCircle
 10
2724.58193023052
 20
831.4429523019287
 30
0.0
 40
9.0
100
AcDbArc
 50
220.8116936954073
 51
259.1882999565211
  0
LINE
  5
5DA5
330
18
100
AcDbEntity
  8
DRAW2
100
AcDbLine
 10
2724.581943093131
 20
821.6279880019285
 30
0.0
 11
2733.081945530519
 21
826.5354659019285
 31
0.0
  0
ARC
  5
5DA7
330
18
100
AcDbEntity
  8
DRAW2
100
AcDbCircle
 10
2724.58193023052
 20
831.4429523019287
 30
0.0
 40
9.0
100
AcDbArc
 50
280.8121538808874
 51
319.1878380774269
  0
LINE
  5
5DA8
330
18
100
AcDbEntity
  8
DRAW2
100
AcDbLine
 10
2733.081935930519
 20
826.5354654019283
 30
0.0
 11
2733.081935930519
 21
836.3504297019286
 31
0.0
  0
ARC
  5
5DA9
330
18
100
AcDbEntity
  8
DRAW2
100
AcDbCircle
 10
2724.58193023052
 20
831.4429523019287
 30
0.0
 40
9.0
100
AcDbArc
 50
340.8119739527825
 51
22.49999999999975
  0
LINE
  5
5DAA
330
18
100
AcDbEntity
  8
DRAW3
100
AcDbLine
 10
2745.500000353827
 20
828.7574974465339
 30
0.0
 11
2739.541666832426
 21
828.7574974465341
 31
0.0
  0
LINE
  5
5DAB
330
18
100
AcDbEntity
  8
DRAW2
100
AcDbLine
 10
2745.500000353827
 20
827.8824374471655
 30
0.0
 11
2739.875046411306
 21
827.8824374471655
 31
0.0
  0
ARC
  5
5DAC
330
18
100
AcDbEntity
  8
DRAW2
100
AcDbCircle
 10
2748.833130236639
 20
774.0404303222089
 30
0.0
 40
49.00000000000003
100
AcDbArc
 50
93.90047013922652
 51
98.22742229918425
  0
LINE
  5
5DAD
330
18
100
AcDbEntity
  8
DRAW2
100
AcDbLine
 10
2739.875046411306
 20
827.8824374471655
 30
0.0
 11
2739.837592006402
 21
827.9198898806825
 31
0.0
  0
ARC
  5
5DAE
330
18
100
AcDbEntity
  8
DRAW2
100
AcDbCircle
 10
2741.105591174139
 20
827.4846441893965
 30
0.0
 40
5.000000000000044
100
AcDbArc
 50
275.9769615643695
 51
278.2274187704073
  0
ARC
  5
5DAF
330
18
100
AcDbEntity
  8
DRAW2
100
AcDbCircle
 10
2724.58193023052
 20
831.4429523019287
 30
0.0
 40
9.0
100
AcDbArc
 50
100.8118733546176
 51
139.1881148324057
  0
ARC
  5
5DB0
330
18
100
AcDbEntity
  8
DRAW2
100
AcDbCircle
 10
2724.58193023052
 20
831.4429523019287
 30
0.0
 40
9.0
100
AcDbArc
 50
40.81198765375234
 51
79.1880143320699
  0
ARC
  5
5DB1
330
18
100
AcDbEntity
  8
DRAW2
100
AcDbCircle
 10
2747.500000353827
 20
853.5404374471655
 30
0.0
 40
2.0
100
AcDbArc
 50
90.0
 51
180.0
  0
ARC
  5
5DB2
330
18
100
AcDbEntity
  8
DRAW2
100
AcDbCircle
 10
2747.500000353827
 20
848.0840186857776
 30
0.0
 40
2.0
100
AcDbArc
 50
90.0
 51
159.1399940783451
  0
LINE
  5
5DB3
330
18
100
AcDbEntity
  8
DRAW3
100
AcDbLine
 10
2745.500000353827
 20
839.0074374471655
 30
0.0
 11
2739.000000353826
 21
839.0074374471655
 31
0.0
  0
LINE
  5
5DB4
330
18
100
AcDbEntity
  8
DRAW2
100
AcDbLine
 10
2745.500000353827
 20
839.8824374471654
 30
0.0
 11
2739.875046411306
 21
839.8824374471654
 31
0.0
  0
LINE
  5
5DB5
330
18
100
AcDbEntity
  8
DRAW2
100
AcDbLine
 10
2739.875046411306
 20
839.8824374471654
 30
0.0
 11
2739.000000353826
 21
839.0074374471655
 31
0.0
  0
ARC
  5
5DB6
330
18
100
AcDbEntity
  8
DRAW2
100
AcDbCircle
 10
2838.78078068488
 20
838.6324294471656
 30
0.0
 40
13.719608
100
AcDbArc
 50
339.7437000000006
 51
20.25628300000436
  0
LINE
  5
5DB7
330
18
100
AcDbEntity
  8
DRAW2
100
AcDbLine
 10
2852.500385184879
 20
824.3824294471655
 30
0.0
 11
2852.500385184879
 21
843.3824294471655
 31
0.0
  0
LINE
  5
5DB8
330
18
100
AcDbEntity
  8
DRAW2
100
AcDbLine
 10
2844.500385184879
 20
823.5824494471653
 30
0.0
 11
2844.500385184879
 21
844.1824254471653
 31
0.0
  0
LINE
  5
5DB9
330
18
100
AcDbEntity
  8
DRAW2
100
AcDbLine
 10
2841.500385184879
 20
821.8824374471655
 30
0.0
 11
2841.500385184879
 21
845.8824374471655
 31
0.0
  0
LINE
  5
5DBA
330
18
100
AcDbEntity
  8
DRAW2
100
AcDbLine
 10
2839.000385184879
 20
821.8824374471655
 30
0.0
 11
2839.000385184879
 21
845.8824374471655
 31
0.0
  0
LINE
  5
5DBB
330
18
100
AcDbEntity
  8
DRAW2
100
AcDbLine
 10
2839.000385184879
 20
848.7961903082917
 30
0.0
 11
2839.000385184879
 21
833.8045571177504
 31
0.0
  0
LINE
  5
5DBC
330
18
100
AcDbEntity
  8
DRAW3
100
AcDbLine
 10
2790.000000353827
 20
768.9154974465339
 30
0.0
 11
2792.500000587397
 21
768.9154974465339
 31
0.0
  0
LINE
  5
5DBD
330
18
100
AcDbEntity
  8
DRAW2
100
AcDbLine
 10
2792.500000587397
 20
768.040437447167
 30
0.0
 11
2790.000000353827
 21
768.040437447167
 31
0.0
  0
LINE
  5
5DBE
330
18
100
AcDbEntity
  8
DRAW2
100
AcDbLine
 10
2794.500385184879
 20
767.0404374471653
 30
0.0
 11
2792.500000587397
 21
767.0404374471655
 31
0.0
  0
LINE
  5
5DBF
330
18
100
AcDbEntity
  8
DRAW2
100
AcDbLine
 10
2792.500000587397
 20
781.0404374471654
 30
0.0
 11
2794.500385184879
 21
781.0404374471653
 31
0.0
  0
LINE
  5
5DC0
330
18
100
AcDbEntity
  8
DRAW3
100
AcDbLine
 10
2790.000000353827
 20
779.1654374471654
 30
0.0
 11
2792.500000587397
 21
779.1654374471654
 31
0.0
  0
LINE
  5
5DC1
330
18
100
AcDbEntity
  8
DRAW2
100
AcDbLine
 10
2792.500000587397
 20
780.040437447167
 30
0.0
 11
2790.000000353827
 21
780.040437447167
 31
0.0
  0
LINE
  5
5DC2
330
18
100
AcDbEntity
  8
DRAW3
100
AcDbLine
 10
2790.000000353827
 20
828.7574974465339
 30
0.0
 11
2792.500000587397
 21
828.7574974465339
 31
0.0
  0
LINE
  5
5DC3
330
18
100
AcDbEntity
  8
DRAW2
100
AcDbLine
 10
2792.500000587397
 20
827.8824374471669
 30
0.0
 11
2790.000000353827
 21
827.8824374471669
 31
0.0
  0
LINE
  5
5DC4
330
18
100
AcDbEntity
  8
DRAW2
100
AcDbLine
 10
2841.500385184879
 20
786.0404374471654
 30
0.0
 11
2839.000385184879
 21
786.0404374471654
 31
0.0
  0
LINE
  5
5DC5
330
18
100
AcDbEntity
  8
DRAW2
100
AcDbLine
 10
2841.500385184879
 20
762.0404374471654
 30
0.0
 11
2839.000385184879
 21
762.0404374471654
 31
0.0
  0
LINE
  5
5DC6
330
18
100
AcDbEntity
  8
DRAW2
100
AcDbLine
 10
2839.000385184879
 20
762.0404374471654
 30
0.0
 11
2839.000385184879
 21
786.0404374471654
 31
0.0
  0
LINE
  5
5DC7
330
18
100
AcDbEntity
  8
DRAW2
100
AcDbLine
 10
2844.500391884879
 20
775.1950996471655
 30
0.0
 11
2841.500436484879
 21
773.4630743471655
 31
0.0
  0
LINE
  5
5DC8
330
18
100
AcDbEntity
  8
DRAW2
100
AcDbLine
 10
2841.500385184879
 20
762.0404374471654
 30
0.0
 11
2841.500385184879
 21
786.0404374471654
 31
0.0
  0
ARC
  5
5DC9
330
18
100
AcDbEntity
  8
DRAW2
100
AcDbCircle
 10
2838.78078068488
 20
778.7904294471655
 30
0.0
 40
13.719608
100
AcDbArc
 50
339.7437000000006
 51
20.25628300000436
  0
LINE
  5
5DCA
330
18
100
AcDbEntity
  8
DRAW2
100
AcDbLine
 10
2852.500385184879
 20
764.5404294471655
 30
0.0
 11
2852.500385184879
 21
783.5404294471654
 31
0.0
  0
LINE
  5
5DCB
330
18
100
AcDbEntity
  8
DRAW2
100
AcDbLine
 10
2844.500385184879
 20
763.7404494471654
 30
0.0
 11
2844.500385184879
 21
784.3404254471654
 31
0.0
  0
LINE
  5
5DCC
330
18
100
AcDbEntity
  8
DRAW2
100
AcDbLine
 10
2852.500385184879
 20
764.5404294471655
 30
0.0
 11
2844.500385184879
 21
764.5404294471655
 31
0.0
  0
ARC
  5
5DCD
330
18
100
AcDbEntity
  8
DRAW2
100
AcDbCircle
 10
2838.78078068488
 20
769.2904294471654
 30
0.0
 40
13.719608
100
AcDbArc
 50
339.7437000000006
 51
20.25628300000436
  0
LINE
  5
5DCE
330
18
100
AcDbEntity
  8
DRAW2
100
AcDbLine
 10
2851.651874484879
 20
774.0404294471654
 30
0.0
 11
2844.500385184879
 21
774.0404294471654
 31
0.0
  0
LINE
  5
5DCF
330
18
100
AcDbEntity
  8
DRAW2
100
AcDbLine
 10
2851.651874484879
 20
774.0404294471654
 30
0.0
 11
2844.500385184879
 21
774.0404294471654
 31
0.0
  0
LINE
  5
5DD0
330
18
100
AcDbEntity
  8
DRAW2
100
AcDbLine
 10
2844.500427184879
 20
774.6177684271653
 30
0.0
 11
2841.500418784879
 21
772.8857125471654
 31
0.0
  0
LINE
  5
5DD1
330
18
100
AcDbEntity
  8
DRAW2
100
AcDbLine
 10
2844.500385184879
 20
763.7404494471654
 30
0.0
 11
2841.500385184879
 21
763.7404494471654
 31
0.0
  0
LINE
  5
5DD2
330
18
100
AcDbEntity
  8
DRAW2
100
AcDbLine
 10
2852.500385184879
 20
783.5404294471654
 30
0.0
 11
2844.500385184879
 21
783.5404294471654
 31
0.0
  0
LINE
  5
5DD3
330
18
100
AcDbEntity
  8
DRAW2
100
AcDbLine
 10
2844.500385184879
 20
784.3404254471654
 30
0.0
 11
2841.500385184879
 21
784.3404254471654
 31
0.0
  0
LINE
  5
5DD4
330
18
100
AcDbEntity
  8
DRAW2
100
AcDbLine
 10
2841.500385184879
 20
821.8824374471655
 30
0.0
 11
2839.000385184879
 21
821.8824374471655
 31
0.0
  0
LINE
  5
5DD5
330
18
100
AcDbEntity
  8
DRAW2
100
AcDbLine
 10
2852.500385184879
 20
824.3824294471655
 30
0.0
 11
2844.500385184879
 21
824.3824294471655
 31
0.0
  0
ARC
  5
5DD6
330
18
100
AcDbEntity
  8
DRAW2
100
AcDbCircle
 10
2838.78078068488
 20
829.1324294471655
 30
0.0
 40
13.719608
100
AcDbArc
 50
339.7437000000006
 51
20.25628300000436
  0
LINE
  5
5DD7
330
18
100
AcDbEntity
  8
DRAW2
100
AcDbLine
 10
2851.651874484879
 20
833.8824294471656
 30
0.0
 11
2844.500385184879
 21
833.8824294471656
 31
0.0
  0
LINE
  5
5DD8
330
18
100
AcDbEntity
  8
DRAW2
100
AcDbLine
 10
2851.651874484879
 20
833.8824294471656
 30
0.0
 11
2844.500385184879
 21
833.8824294471656
 31
0.0
  0
LINE
  5
5DD9
330
18
100
AcDbEntity
  8
DRAW2
100
AcDbLine
 10
2844.500427184879
 20
834.4597684271652
 30
0.0
 11
2841.500418784879
 21
832.7277125471654
 31
0.0
  0
LINE
  5
5DDA
330
18
100
AcDbEntity
  8
DRAW2
100
AcDbLine
 10
2844.500385184879
 20
823.5824494471653
 30
0.0
 11
2841.500385184879
 21
823.5824494471653
 31
0.0
  0
LINE
  5
5DDB
330
18
100
AcDbEntity
  8
DRAW2
100
AcDbLine
 10
2844.500391884879
 20
835.0370996471657
 30
0.0
 11
2841.500436484879
 21
833.3050743471654
 31
0.0
  0
LINE
  5
5DDC
330
18
100
AcDbEntity
  8
DRAW2
100
AcDbLine
 10
2796.500385184879
 20
855.5404374471654
 30
0.0
 11
2837.000385184879
 21
855.5404374471654
 31
0.0
  0
LINE
  5
5DDD
330
18
100
AcDbEntity
  8
DRAW2
100
AcDbLine
 10
2796.500385184879
 20
850.0840186857777
 30
0.0
 11
2837.000385184879
 21
850.0840186857777
 31
0.0
  0
ARC
  5
5DDE
330
18
100
AcDbEntity
  8
DRAW2
100
AcDbCircle
 10
2796.500385184879
 20
853.5404374471655
 30
0.0
 40
2.0
100
AcDbArc
 50
90.0
 51
180.0
  0
ARC
  5
5DDF
330
18
100
AcDbEntity
  8
DRAW2
100
AcDbCircle
 10
2796.500385184879
 20
848.0840186857776
 30
0.0
 40
2.0
100
AcDbArc
 50
90.0
 51
180.0
  0
LINE
  5
5DE0
330
18
100
AcDbEntity
  8
DRAW2
100
AcDbLine
 10
2794.500385184879
 20
846.0404374471654
 30
0.0
 11
2792.500000587397
 21
846.0404374471654
 31
0.0
  0
LINE
  5
5DE1
330
18
100
AcDbEntity
  8
DRAW3
100
AcDbLine
 10
2790.000000353827
 20
839.0074374471655
 30
0.0
 11
2792.500000587397
 21
839.0074374471655
 31
0.0
  0
LINE
  5
5DE2
330
18
100
AcDbEntity
  8
DRAW2
100
AcDbLine
 10
2792.500000587397
 20
839.8824374471669
 30
0.0
 11
2790.000000353827
 21
839.8824374471669
 31
0.0
  0
ARC
  5
5DE3
330
18
100
AcDbEntity
  8
DRAW2
100
AcDbCircle
 10
2788.000000353827
 20
853.5404374471655
 30
0.0
 40
2.0
100
AcDbArc
 50
0.0
 51
90.0
  0
ARC
  5
5DE4
330
18
100
AcDbEntity
  8
DRAW2
100
AcDbCircle
 10
2788.000000353827
 20
848.0840186857776
 30
0.0
 40
2.0
100
AcDbArc
 50
0.0
 51
90.0
  0
LINE
  5
5DE5
330
18
100
AcDbEntity
  8
DRAW2
100
AcDbLine
 10
2841.500385184879
 20
845.8824374471655
 30
0.0
 11
2839.000385184879
 21
845.8824374471655
 31
0.0
  0
ARC
  5
5DE6
330
18
100
AcDbEntity
  8
DRAW2
100
AcDbCircle
 10
2837.000385184879
 20
853.5404374471655
 30
0.0
 40
2.0
100
AcDbArc
 50
0.0
 51
90.0
  0
ARC
  5
5DE7
330
18
100
AcDbEntity
  8
DRAW2
100
AcDbCircle
 10
2837.000385184879
 20
848.0840186857776
 30
0.0
 40
2.0
100
AcDbArc
 50
20.86000592165488
 51
90.0
  0
LINE
  5
5DE8
330
18
100
AcDbEntity
  8
DRAW2
100
AcDbLine
 10
2852.500385184879
 20
843.3824294471655
 30
0.0
 11
2844.500385184879
 21
843.3824294471655
 31
0.0
  0
LINE
  5
5DE9
330
18
100
AcDbEntity
  8
DRAW2
100
AcDbLine
 10
2844.500385184879
 20
844.1824254471653
 30
0.0
 11
2841.500385184879
 21
844.1824254471653
 31
0.0
  0
ARC
  5
5DEA
330
18
100
AcDbEntity
  8
DRAW2
100
AcDbCircle
 10
3152.015522495285
 20
426.0307492001961
 30
0.0
 40
4.0
100
AcDbArc
 50
0.000000000000007
 51
179.9999999999991
  0
VIEWPORT
  5
BD5
330
15
100
AcDbEntity
 67
     1
  8
0
100
AcDbViewport
 10
296.9950122070312
 20
209.9950000476836
 30
0.0
 40
632.1056339387388
 41
423.1939163498098
 68
     1
 69
     1
 12
296.9950122070312
 22
209.9950000476836
 13
0.0
 23
0.0
 14
10.0
 24
10.0
 15
10.0
 25
10.0
 16
0.0
 26
0.0
 36
1.0
 17
0.0
 27
0.0
 37
0.0
 42
50.0
 43
0.0
 44
0.0
 45
423.1939163498098
 50
0.0
 51
0.0
 72
   100
 90
    32768
  1

281
     0
 71
     1
 74
     0
110
0.0
120
0.0
130
0.0
111
1.0
121
0.0
131
0.0
112
0.0
122
1.0
132
0.0
 79
     0
146
0.0
  0
ENDSEC
  0
SECTION
  2
OBJECTS
  0
DICTIONARY
  5
C
330
0
100
AcDbDictionary
281
     1
  3
ACAD_GROUP
350
D
  3
ACAD_LAYOUT
350
426B
  3
ACAD_MLINESTYLE
350
E
  3
ACAD_PLOTSETTINGS
350
426C
  3
ACAD_PLOTSTYLENAME
350
4269
  0
DICTIONARY
  5
432F
330
2
100
AcDbDictionary
280
     1
281
     1
  3
ACAD_LAYERFILTERS
360
4330
  0
DICTIONARY
  5
D
102
{ACAD_REACTORS
330
C
102
}
330
C
100
AcDbDictionary
281
     1
  3
*A1
350
4E5C
  0
DICTIONARY
  5
426B
102
{ACAD_REACTORS
330
C
102
}
330
C
100
AcDbDictionary
281
     1
  3
Model
350
426D
  3
ﾚｲｱｳﾄ1
350
426E
  0
DICTIONARY
  5
E
102
{ACAD_REACTORS
330
C
102
}
330
C
100
AcDbDictionary
281
     1
  3
STANDARD
350
1B
  0
DICTIONARY
  5
426C
102
{ACAD_REACTORS
330
C
102
}
330
C
100
AcDbDictionary
281
     1
  3
AdobePDF_A1
350
427A
  3
AdobePDF_A2
350
53D5
  0
ACDBDICTIONARYWDFLT
  5
4269
102
{ACAD_REACTORS
330
C
102
}
330
C
100
AcDbDictionary
281
     1
  3
Normal
350
426A
100
AcDbDictionaryWithDefault
340
426A
  0
DICTIONARY
  5
4330
102
{ACAD_REACTORS
330
432F
102
}
330
432F
100
AcDbDictionary
280
     1
281
     1
  3
0 画層
360
4331
  3
06
360
4332
  3
06siki
360
4333
  3
06siki2
360
4334
  3
2
360
4335
  3
A 画層
360
4336
  3
aaa
360
4337
  3
B 画層
360
4338
  3
E 画層
360
4339
  3
H 画層
360
433A
  3
L 画層
360
433B
  3
sekkei
360
433C
  3
一般画層
360
433D
  3
開発画層
360
433E
  3
外構一般画層
360
433F
  3
建築一般画層
360
4340
  3
座席のみ
360
4341
  3
詳細一般画層
360
4342
  3
全階平面図
360
4343
  0
GROUP
  5
4E5C
102
{ACAD_REACTORS
330
D
102
}
330
D
100
AcDbGroup
300

 70
     1
 71
     1
  0
LAYOUT
  5
426D
102
{ACAD_REACTORS
330
426B
102
}
330
426B
100
AcDbPlotSettings
  1

  2
Acrobat Distiller
  4

  6

 40
0.0
 41
0.0
 42
0.0
 43
0.0
 44
0.0
 45
0.0
 46
0.0
 47
0.0
 48
0.0
 49
0.0
140
0.0
141
0.0
142
1.0
143
1.0
 70
  1712
 72
     0
 73
     0
 74
     0
  7

 75
     0
147
1.0
148
0.0
149
0.0
100
AcDbLayout
  1
Model
 70
     1
 71
     0
 10
0.0
 20
0.0
 11
12.0
 21
9.0
 12
0.0
 22
0.0
 32
0.0
 14
0.0
 24
0.0
 34
0.0
 15
0.0
 25
0.0
 35
0.0
146
0.0
 13
0.0
 23
0.0
 33
0.0
 16
1.0
 26
0.0
 36
0.0
 17
0.0
 27
1.0
 37
0.0
 76
     0
330
18
  0
LAYOUT
  5
426E
102
{ACAD_REACTORS
330
426B
102
}
330
426B
100
AcDbPlotSettings
  1
AdobePDF_A2
  2
Adobe PDF
  4
User66
  6
A1
 40
3.174999952316284
 41
3.174999952316284
 42
3.17498779296875
 43
3.17498779296875
 44
420.0
 45
594.0
 46
-3.169999999999999
 47
-3.169999999999999
 48
0.0
 49
0.0
140
594.0
141
420.0
142
1.0
143
1.0
 70
   692
 72
     1
 73
     1
 74
     4
  7
LineScale_10.ctb
 75
    16
147
1.0
148
0.0
149
0.0
100
AcDbLayout
  1
ﾚｲｱｳﾄ1
 70
     1
 71
     1
 10
-0.0049877929687501
 20
-0.0049999523162843
 11
593.9950122070312
 21
419.9950000476837
 12
0.0
 22
0.0
 32
0.0
 14
1.000000000000000E+20
 24
1.000000000000000E+20
 34
1.000000000000000E+20
 15
-1.000000000000000E+20
 25
-1.000000000000000E+20
 35
-1.000000000000000E+20
146
0.0
 13
0.0
 23
0.0
 33
0.0
 16
1.0
 26
0.0
 36
0.0
 17
0.0
 27
1.0
 37
0.0
 76
     0
330
15
331
BD5
  0
MLINESTYLE
  5
1B
102
{ACAD_REACTORS
330
E
102
}
330
E
100
AcDbMlineStyle
  2
STANDARD
 70
     0
  3

 62
     0
 51
90.0
 52
90.0
 71
     2
 49
0.5
 62
   256
  6
BYLAYER
 49
-0.5
 62
   256
  6
BYLAYER
  0
PLOTSETTINGS
  5
427A
102
{ACAD_REACTORS
330
426C
102
}
330
426C
100
AcDbPlotSettings
  1
AdobePDF_A1
  2
Adobe PDF
  4
User120
  6
A1
 40
3.174999952316284
 41
3.174999952316284
 42
3.17498779296875
 43
3.17498779296875
 44
594.0
 45
841.0
 46
-3.169999999999999
 47
-3.169999999999999
 48
0.0
 49
0.0
140
841.0
141
594.0
142
1.0
143
1.0
 70
   692
 72
     1
 73
     1
 74
     4
  7
LineScale_10.ctb
 75
    16
147
1.0
148
0.0
149
0.0
  0
PLOTSETTINGS
  5
53D5
102
{ACAD_REACTORS
330
426C
102
}
330
426C
100
AcDbPlotSettings
  1
AdobePDF_A2
  2
Adobe PDF
  4
User66
  6
A1
 40
3.174999952316284
 41
3.174999952316284
 42
3.17498779296875
 43
3.17498779296875
 44
420.0
 45
594.0
 46
-3.169999999999999
 47
-3.169999999999999
 48
0.0
 49
0.0
140
594.0
141
420.0
142
1.0
143
1.0
 70
   692
 72
     1
 73
     1
 74
     4
  7
LineScale_10.ctb
 75
    16
147
1.0
148
0.0
149
0.0
  0
ACDBPLACEHOLDER
  5
426A
102
{ACAD_REACTORS
330
4269
102
}
330
4269
  0
XRECORD
  5
4331
102
{ACAD_REACTORS
330
4330
102
}
330
4330
100
AcDbXrecord
280
     1
  1
0 画層
  1
0*,*.
  1
*
  1
*
 70
     0
  1
*
  1
*
  0
XRECORD
  5
4332
102
{ACAD_REACTORS
330
4330
102
}
330
4330
100
AcDbXrecord
280
     1
  1
06
  1
06*
  1
*
  1
*
 70
     0
  1
*
  1
*
  0
XRECORD
  5
4333
102
{ACAD_REACTORS
330
4330
102
}
330
4330
100
AcDbXrecord
280
     1
  1
06siki
  1
06*siki*,sikiti,00waku,*|*
  1
*
  1
*
 70
     0
  1
*
  1
*
  0
XRECORD
  5
4334
102
{ACAD_REACTORS
330
4330
102
}
330
4330
100
AcDbXrecord
280
     1
  1
06siki2
  1
06*siki*,sikiti,00waku,*|*
  1
*
  1
*
 70
     0
  1
*
  1
*
  0
XRECORD
  5
4335
102
{ACAD_REACTORS
330
4330
102
}
330
4330
100
AcDbXrecord
280
     1
  1
2
  1
2*
  1
*
  1
*
 70
     0
  1
*
  1
*
  0
XRECORD
  5
4336
102
{ACAD_REACTORS
330
4330
102
}
330
4330
100
AcDbXrecord
280
     1
  1
A 画層
  1
A*,*.
  1
*
  1
*
 70
     0
  1
*
  1
*
  0
XRECORD
  5
4337
102
{ACAD_REACTORS
330
4330
102
}
330
4330
100
AcDbXrecord
280
     1
  1
aaa
  1
*moji*
  1
*
  1
*
 70
     0
  1
*
  1
*
  0
XRECORD
  5
4338
102
{ACAD_REACTORS
330
4330
102
}
330
4330
100
AcDbXrecord
280
     1
  1
B 画層
  1
B*,*.
  1
*
  1
*
 70
     0
  1
*
  1
*
  0
XRECORD
  5
4339
102
{ACAD_REACTORS
330
4330
102
}
330
4330
100
AcDbXrecord
280
     1
  1
E 画層
  1
E*,*.
  1
*
  1
*
 70
     0
  1
*
  1
*
  0
XRECORD
  5
433A
102
{ACAD_REACTORS
330
4330
102
}
330
4330
100
AcDbXrecord
280
     1
  1
H 画層
  1
H*,*.
  1
*
  1
*
 70
     0
  1
*
  1
*
  0
XRECORD
  5
433B
102
{ACAD_REACTORS
330
4330
102
}
330
4330
100
AcDbXrecord
280
     1
  1
L 画層
  1
L*,*.
  1
*
  1
*
 70
     0
  1
*
  1
*
  0
XRECORD
  5
433C
102
{ACAD_REACTORS
330
4330
102
}
330
4330
100
AcDbXrecord
280
     1
  1
sekkei
  1
34
  1
*
  1
*
 70
     0
  1
*
  1
*
  0
XRECORD
  5
433D
102
{ACAD_REACTORS
330
4330
102
}
330
4330
100
AcDbXrecord
280
     1
  1
一般画層
  1
.*
  1
*
  1
*
 70
     0
  1
*
  1
*
  0
XRECORD
  5
433E
102
{ACAD_REACTORS
330
4330
102
}
330
4330
100
AcDbXrecord
280
     1
  1
開発画層
  1
L*,B*
  1
*
  1
*
 70
     0
  1
*
  1
*
  0
XRECORD
  5
433F
102
{ACAD_REACTORS
330
4330
102
}
330
4330
100
AcDbXrecord
280
     1
  1
外構一般画層
  1
L*,B*
  1
*
  1
*
 70
     0
  1
*
  1
*
  0
XRECORD
  5
4340
102
{ACAD_REACTORS
330
4330
102
}
330
4330
100
AcDbXrecord
280
     1
  1
建築一般画層
  1
B*,A*
  1
*
  1
*
 70
     0
  1
*
  1
*
  0
XRECORD
  5
4341
102
{ACAD_REACTORS
330
4330
102
}
330
4330
100
AcDbXrecord
280
     1
  1
座席のみ
  1
*
  1
*
  1
*
 70
     0
  1
*
  1
*
  0
XRECORD
  5
4342
102
{ACAD_REACTORS
330
4330
102
}
330
4330
100
AcDbXrecord
280
     1
  1
詳細一般画層
  1
B*,A*,D*
  1
*
  1
*
 70
     0
  1
*
  1
*
  0
XRECORD
  5
4343
102
{ACAD_REACTORS
330
4330
102
}
330
4330
100
AcDbXrecord
280
     1
  1
全階平面図
  1
*
  1
*
  1
*
 70
     0
  1
*
  1
*
  0
ENDSEC
  0
EOF
