  0
SECTION
  2
HEADER
  9
$ACADVER
  1
AC1015
  9
$ACADMAINTVER
 70
     6
  9
$DWGCODEPAGE
  3
ANSI_932
  9
$INSBASE
 10
0.0
 20
0.0
 30
0.0
  9
$EXTMIN
 10
1836.262168593998
 20
80.9024475706542
 30
-0.0000000100021362
  9
$EXTMAX
 10
2803.398855921244
 20
944.3697153569228
 30
0.0000000100021363
  9
$LIMMIN
 10
0.0
 20
0.0
  9
$LIMMAX
 10
841.0
 20
594.0
  9
$ORTHOMODE
 70
     1
  9
$REGENMODE
 70
     1
  9
$FILLMODE
 70
     1
  9
$QTEXTMODE
 70
     0
  9
$MIRRTEXT
 70
     0
  9
$LTSCALE
 40
7.0
  9
$ATTMODE
 70
     1
  9
$TEXTSIZE
 40
3.2
  9
$TRACEWID
 40
0.05
  9
$TEXTSTYLE
  7
DIMFONT
  9
$CLAYER
  8
DRAW2
  9
$CELTYPE
  6
BYLAYER
  9
$CECOLOR
 62
   256
  9
$CELTSCALE
 40
1.0
  9
$DISPSILH
 70
     0
  9
$DIMSCALE
 40
2.5
  9
$DIMASZ
 40
3.0
  9
$DIMEXO
 40
0.0
  9
$DIMDLI
 40
10.0
  9
$DIMRND
 40
0.0
  9
$DIMDLE
 40
0.0
  9
$DIMEXE
 40
1.0
  9
$DIMTP
 40
0.5
  9
$DIMTM
 40
0.0
  9
$DIMTXT
 40
3.2
  9
$DIMCEN
 40
0.0
  9
$DIMTSZ
 40
0.0
  9
$DIMTOL
 70
     0
  9
$DIMLIM
 70
     0
  9
$DIMTIH
 70
     0
  9
$DIMTOH
 70
     0
  9
$DIMSE1
 70
     0
  9
$DIMSE2
 70
     0
  9
$DIMTAD
 70
     3
  9
$DIMZIN
 70
     8
  9
$DIMBLK
  1

  9
$DIMASO
 70
     1
  9
$DIMSHO
 70
     1
  9
$DIMPOST
  1

  9
$DIMAPOST
  1

  9
$DIMALT
 70
     0
  9
$DIMALTD
 70
     2
  9
$DIMALTF
 40
25.4
  9
$DIMLFAC
 40
1.0
  9
$DIMTOFL
 70
     1
  9
$DIMTVP
 40
0.0
  9
$DIMTIX
 70
     0
  9
$DIMSOXD
 70
     0
  9
$DIMSAH
 70
     1
  9
$DIMBLK1
  1
OPEN
  9
$DIMBLK2
  1
OPEN
  9
$DIMSTYLE
  2
２44５
  9
$DIMCLRD
 70
     0
  9
$DIMCLRE
 70
     0
  9
$DIMCLRT
 70
     0
  9
$DIMTFAC
 40
0.75
  9
$DIMGAP
 40
1.0
  9
$DIMJUST
 70
     0
  9
$DIMSD1
 70
     0
  9
$DIMSD2
 70
     0
  9
$DIMTOLJ
 70
     1
  9
$DIMTZIN
 70
     8
  9
$DIMALTZ
 70
     0
  9
$DIMALTTZ
 70
     0
  9
$DIMUPT
 70
     0
  9
$DIMDEC
 70
     3
  9
$DIMTDEC
 70
     3
  9
$DIMALTU
 70
     2
  9
$DIMALTTD
 70
     2
  9
$DIMTXSTY
  7
DIMFONT
  9
$DIMAUNIT
 70
     0
  9
$DIMADEC
 70
     0
  9
$DIMALTRND
 40
0.0
  9
$DIMAZIN
 70
     0
  9
$DIMDSEP
 70
    46
  9
$DIMATFIT
 70
     3
  9
$DIMFRAC
 70
     0
  9
$DIMLDRBLK
  1
OPEN
  9
$DIMLUNIT
 70
     2
  9
$DIMLWD
 70
    -2
  9
$DIMLWE
 70
    -2
  9
$DIMTMOVE
 70
     0
  9
$LUNITS
 70
     2
  9
$LUPREC
 70
     4
  9
$SKETCHINC
 40
0.1
  9
$FILLETRAD
 40
1.0
  9
$AUNITS
 70
     0
  9
$AUPREC
 70
     4
  9
$MENU
  1
acad
  9
$ELEVATION
 40
0.0
  9
$PELEVATION
 40
0.0
  9
$THICKNESS
 40
0.0
  9
$LIMCHECK
 70
     0
  9
$CHAMFERA
 40
0.0
  9
$CHAMFERB
 40
0.0
  9
$CHAMFERC
 40
0.0
  9
$CHAMFERD
 40
0.0
  9
$SKPOLY
 70
     0
  9
$TDCREATE
 40
2451359.410181030
  9
$TDUCREATE
 40
2451359.035181030
  9
$TDUPDATE
 40
2454973.358715451
  9
$TDUUPDATE
 40
2454972.983715451
  9
$TDINDWG
 40
0.0704092361
  9
$TDUSRTIMER
 40
0.0704092361
  9
$USRTIMER
 70
     1
  9
$ANGBASE
 50
0.0
  9
$ANGDIR
 70
     0
  9
$PDMODE
 70
    35
  9
$PDSIZE
 40
0.5
  9
$PLINEWID
 40
0.0
  9
$SPLFRAME
 70
     0
  9
$SPLINETYPE
 70
     6
  9
$SPLINESEGS
 70
     8
  9
$HANDSEED
  5
84EC
  9
$SURFTAB1
 70
     6
  9
$SURFTAB2
 70
     6
  9
$SURFTYPE
 70
     6
  9
$SURFU
 70
     6
  9
$SURFV
 70
     6
  9
$UCSBASE
  2

  9
$UCSNAME
  2

  9
$UCSORG
 10
0.0
 20
0.0
 30
0.0
  9
$UCSXDIR
 10
1.0
 20
0.0
 30
0.0
  9
$UCSYDIR
 10
0.0
 20
1.0
 30
0.0
  9
$UCSORTHOREF
  2

  9
$UCSORTHOVIEW
 70
     0
  9
$UCSORGTOP
 10
0.0
 20
0.0
 30
0.0
  9
$UCSORGBOTTOM
 10
0.0
 20
0.0
 30
0.0
  9
$UCSORGLEFT
 10
0.0
 20
0.0
 30
0.0
  9
$UCSORGRIGHT
 10
0.0
 20
0.0
 30
0.0
  9
$UCSORGFRONT
 10
0.0
 20
0.0
 30
0.0
  9
$UCSORGBACK
 10
0.0
 20
0.0
 30
0.0
  9
$PUCSBASE
  2

  9
$PUCSNAME
  2

  9
$PUCSORG
 10
0.0
 20
0.0
 30
0.0
  9
$PUCSXDIR
 10
1.0
 20
0.0
 30
0.0
  9
$PUCSYDIR
 10
0.0
 20
1.0
 30
0.0
  9
$PUCSORTHOREF
  2

  9
$PUCSORTHOVIEW
 70
     0
  9
$PUCSORGTOP
 10
0.0
 20
0.0
 30
0.0
  9
$PUCSORGBOTTOM
 10
0.0
 20
0.0
 30
0.0
  9
$PUCSORGLEFT
 10
0.0
 20
0.0
 30
0.0
  9
$PUCSORGRIGHT
 10
0.0
 20
0.0
 30
0.0
  9
$PUCSORGFRONT
 10
0.0
 20
0.0
 30
0.0
  9
$PUCSORGBACK
 10
0.0
 20
0.0
 30
0.0
  9
$USERI1
 70
     0
  9
$USERI2
 70
     0
  9
$USERI3
 70
     0
  9
$USERI4
 70
     0
  9
$USERI5
 70
     0
  9
$USERR1
 40
0.0
  9
$USERR2
 40
0.0
  9
$USERR3
 40
0.0
  9
$USERR4
 40
0.0
  9
$USERR5
 40
0.0
  9
$WORLDVIEW
 70
     1
  9
$SHADEDGE
 70
     3
  9
$SHADEDIF
 70
    70
  9
$TILEMODE
 70
     1
  9
$MAXACTVP
 70
    16
  9
$PINSBASE
 10
0.0
 20
0.0
 30
0.0
  9
$PLIMCHECK
 70
     0
  9
$PEXTMIN
 10
1.000000000000000E+20
 20
1.000000000000000E+20
 30
1.000000000000000E+20
  9
$PEXTMAX
 10
-1.000000000000000E+20
 20
-1.000000000000000E+20
 30
-1.000000000000000E+20
  9
$PLIMMIN
 10
-0.0049877929687501
 20
-0.0049999523162843
  9
$PLIMMAX
 10
593.9950122070312
 20
419.9950000476837
  9
$UNITMODE
 70
     0
  9
$VISRETAIN
 70
     0
  9
$PLINEGEN
 70
     1
  9
$PSLTSCALE
 70
     1
  9
$TREEDEPTH
 70
  3020
  9
$CMLSTYLE
  2
STANDARD
  9
$CMLJUST
 70
     0
  9
$CMLSCALE
 40
1.0
  9
$PROXYGRAPHICS
 70
     1
  9
$MEASUREMENT
 70
     1
  9
$CELWEIGHT
370
    -1
  9
$ENDCAPS
280
     0
  9
$JOINSTYLE
280
     0
  9
$LWDISPLAY
290
     0
  9
$INSUNITS
 70
     0
  9
$HYPERLINKBASE
  1

  9
$STYLESHEET
  1

  9
$XEDIT
290
     1
  9
$CEPSNTYPE
380
     0
  9
$PSTYLEMODE
290
     1
  9
$FINGERPRINTGUID
  2
{F36464C6-4B86-43C1-BB48-05B54BB1B3D6}
  9
$VERSIONGUID
  2
{372493A1-BF8A-4B8C-9A1E-F50AA8BE7822}
  9
$EXTNAMES
290
     1
  9
$PSVPSCALE
 40
0.0
  9
$OLESTARTUP
290
     0
  0
ENDSEC
  0
SECTION
  2
CLASSES
  0
CLASS
  1
ACDBDICTIONARYWDFLT
  2
AcDbDictionaryWithDefault
  3
AutoCAD 2000
 90
        0
280
     0
281
     0
  0
CLASS
  1
ACDBPLACEHOLDER
  2
AcDbPlaceHolder
  3
AutoCAD 2000
 90
        0
280
     0
281
     0
  0
CLASS
  1
LAYOUT
  2
AcDbLayout
  3
AutoCAD 2000
 90
        0
280
     0
281
     0
  0
CLASS
  1
PLOTSETTINGS
  2
AcDbPlotSettings
  3
AutoCAD 2000
 90
        0
280
     0
281
     0
  0
ENDSEC
  0
SECTION
  2
TABLES
  0
TABLE
  2
VPORT
  5
8
330
0
100
AcDbSymbolTable
 70
     2
  0
VPORT
  5
84EB
330
8
100
AcDbSymbolTableRecord
100
AcDbViewportTableRecord
  2
*Active
 70
     0
 10
0.0
 20
0.0
 11
1.0
 21
1.0
 12
2319.830512257621
 22
512.6360814637885
 13
0.0
 23
0.0
 14
5.0
 24
5.0
 15
10.0
 25
10.0
 16
0.0
 26
0.0
 36
1.0
 17
0.0
 27
0.0
 37
0.0
 40
870.03355879605
 41
1.493654822335025
 42
50.0
 43
0.0
 44
0.0
 50
0.0
 51
0.0
 71
     0
 72
   100
 73
     1
 74
     0
 75
     0
 76
     0
 77
     0
 78
     0
281
     0
 65
     1
110
0.0
120
0.0
130
0.0
111
1.0
121
0.0
131
0.0
112
0.0
122
1.0
132
0.0
 79
     0
146
0.0
  0
ENDTAB
  0
TABLE
  2
LTYPE
  5
5
330
0
100
AcDbSymbolTable
 70
     6
  0
LTYPE
  5
12
330
5
100
AcDbSymbolTableRecord
100
AcDbLinetypeTableRecord
  2
BYBLOCK
 70
     0
  3

 72
    65
 73
     0
 40
0.0
  0
LTYPE
  5
13
330
5
100
AcDbSymbolTableRecord
100
AcDbLinetypeTableRecord
  2
BYLAYER
 70
     0
  3

 72
    65
 73
     0
 40
0.0
  0
LTYPE
  5
14
330
5
100
AcDbSymbolTableRecord
100
AcDbLinetypeTableRecord
  2
CONTINUOUS
 70
     0
  3
Solid line
 72
    65
 73
     0
 40
0.0
  0
ENDTAB
  0
TABLE
  2
LAYER
  5
2
102
{ACAD_XDICTIONARY
360
7A67
102
}
330
0
100
AcDbSymbolTable
 70
    18
  0
LAYER
  5
F
330
2
100
AcDbSymbolTableRecord
100
AcDbLayerTableRecord
  2
0
 70
     0
 62
     7
  6
CONTINUOUS
370
    -3
390
6720
  0
LAYER
  5
30
330
2
100
AcDbSymbolTableRecord
100
AcDbLayerTableRecord
  2
DRAW2
 70
     0
 62
     4
  6
CONTINUOUS
370
    -3
390
6720
  0
LAYER
  5
B93
330
2
100
AcDbSymbolTableRecord
100
AcDbLayerTableRecord
  2
DRAW3
 70
     0
 62
     1
  6
CONTINUOUS
370
    -3
390
6720
  0
LAYER
  5
5E91
330
2
100
AcDbSymbolTableRecord
100
AcDbLayerTableRecord
  2
DEFPOINTS
 70
     0
 62
     7
  6
CONTINUOUS
290
     0
370
    -3
390
6720
  0
ENDTAB
  0
TABLE
  2
STYLE
  5
3
330
0
100
AcDbSymbolTable
 70
     4
  0
STYLE
  5
10
330
3
100
AcDbSymbolTableRecord
100
AcDbTextStyleTableRecord
  2
STANDARD
 70
     0
 40
0.0
 41
1.0
 50
0.0
 71
     0
 42
0.2
  3
ROMANS.SHX
  4

  0
STYLE
  5
20
330
3
100
AcDbSymbolTableRecord
100
AcDbTextStyleTableRecord
  2
DIMFONT
 70
     0
 40
0.0
 41
1.0
 50
10.0
 71
     0
 42
3.2
  3
romans.shx
  4
extfont.shx
  0
ENDTAB
  0
TABLE
  2
VIEW
  5
6
330
0
100
AcDbSymbolTable
 70
     4
  0
VIEW
  5
24
330
6
100
AcDbSymbolTableRecord
100
AcDbViewTableRecord
  2
OLE1
 70
     0
 40
300.0
 10
232.1482602118003
 20
150.0
 41
464.2965204236006
 11
0.0
 21
0.0
 31
1.0
 12
0.0
 22
0.0
 32
0.0
 42
50.0
 43
0.0
 44
0.0
 50
0.0
 71
     0
281
     0
 72
     0
  0
VIEW
  5
E0E
330
6
100
AcDbSymbolTableRecord
100
AcDbViewTableRecord
  2
A1
 70
     1
 40
660.0
 10
511.7119266055046
 20
297.0
 41
1137.137614678899
 11
0.0
 21
0.0
 31
1.0
 12
0.0
 22
0.0
 32
0.0
 42
50.0
 43
0.0
 44
0.0
 50
0.0
 71
     0
281
     0
 72
     0
  0
VIEW
  5
E0F
330
6
100
AcDbSymbolTableRecord
100
AcDbViewTableRecord
  2
A2
 70
     1
 40
466.6666666666666
 10
361.8165137614679
 20
210.0
 41
804.0366972477063
 11
0.0
 21
0.0
 31
1.0
 12
0.0
 22
0.0
 32
0.0
 42
50.0
 43
0.0
 44
0.0
 50
0.0
 71
     0
281
     0
 72
     0
  0
VIEW
  5
E10
330
6
100
AcDbSymbolTableRecord
100
AcDbViewTableRecord
  2
A3
 70
     1
 40
330.0
 10
255.8559633027523
 20
148.5
 41
568.5688073394495
 11
0.0
 21
0.0
 31
1.0
 12
0.0
 22
0.0
 32
0.0
 42
50.0
 43
0.0
 44
0.0
 50
0.0
 71
     0
281
     0
 72
     0
  0
ENDTAB
  0
TABLE
  2
UCS
  5
7
330
0
100
AcDbSymbolTable
 70
     0
  0
ENDTAB
  0
TABLE
  2
APPID
  5
9
330
0
100
AcDbSymbolTable
 70
     1
  0
APPID
  5
11
330
9
100
AcDbSymbolTableRecord
100
AcDbRegAppTableRecord
  2
ACAD
 70
     0
  0
ENDTAB
  0
TABLE
  2
DIMSTYLE
  5
A
330
0
100
AcDbSymbolTable
 70
    11
100
AcDbDimStyleTable
 71
     1
340
5E96
  0
DIMSTYLE
105
5E94
330
A
100
AcDbSymbolTableRecord
100
AcDbDimStyleTableRecord
  2
STANDARD
 70
     0
340
10
  0
DIMSTYLE
105
5E96
102
{ACAD_REACTORS
330
7657
330
65DB
330
65D9
330
65D8
330
65D5
330
65D4
330
65D3
330
65D7
330
65D6
330
65D2
330
79FA
330
7658
330
79E4
102
}
330
A
100
AcDbSymbolTableRecord
100
AcDbDimStyleTableRecord
  2
２44５
 70
     0
 40
2.5
 41
3.0
 42
0.0
 43
10.0
 44
1.0
 47
0.5
 73
     0
 74
     0
 77
     3
 78
     8
140
3.2
141
0.0
146
0.75
147
1.0
172
     1
173
     1
271
     3
272
     3
284
     8
340
20
341
EAC
343
EAC
344
EAC
  0
ENDTAB
  0
TABLE
  2
BLOCK_RECORD
  5
1
330
0
100
AcDbSymbolTable
 70
   331
  0
BLOCK_RECORD
  5
18
330
1
100
AcDbSymbolTableRecord
100
AcDbBlockTableRecord
  2
*MODEL_SPACE
340
6723
  0
BLOCK_RECORD
  5
15
330
1
100
AcDbSymbolTableRecord
100
AcDbBlockTableRecord
  2
*PAPER_SPACE
340
6724
  0
BLOCK_RECORD
  5
EAC
330
1
100
AcDbSymbolTableRecord
100
AcDbBlockTableRecord
  2
_OPEN
340
0
102
{BLKREFS
331
3104
331
3105
331
3110
331
3111
331
311C
331
311D
331
3128
331
3129
331
3134
331
3135
331
3140
331
3141
331
314B
331
3155
331
316B
331
316C
331
7DC6
331
7DC7
331
7E07
331
7E08
331
7E10
331
7E11
331
7E19
331
7E1A
331
7E34
331
7E35
331
7E3D
331
7E3E
331
7E46
331
7E47
331
7E4F
331
7E50
331
7E58
331
7E59
331
7E61
331
7E62
331
7E7C
331
7E7D
331
7E85
331
7E86
331
7E8E
331
7E8F
331
7E97
331
7E98
331
7EA4
331
7EA5
331
8443
331
8444
331
844C
331
844D
331
8455
331
8456
331
845E
331
845F
331
8467
331
8468
331
8470
331
8471
331
8479
331
847A
331
8482
331
8483
331
848B
331
848C
331
8494
331
8495
331
849D
331
849E
331
84A6
331
84A7
331
84AF
331
84B0
102
}
  0
ENDTAB
  0
ENDSEC
  0
SECTION
  2
BLOCKS
  0
BLOCK
  5
36
330
18
100
AcDbEntity
  8
0
100
AcDbBlockBegin
  2
*MODEL_SPACE
 70
     0
 10
0.0
 20
0.0
 30
0.0
  3
*MODEL_SPACE
  1

  0
ENDBLK
  5
37
330
18
100
AcDbEntity
  8
0
100
AcDbBlockEnd
  0
BLOCK
  5
34
330
15
100
AcDbEntity
 67
     1
  8
0
100
AcDbBlockBegin
  2
*PAPER_SPACE
 70
     0
 10
0.0
 20
0.0
 30
0.0
  3
*PAPER_SPACE
  1

  0
ENDBLK
  5
35
330
15
100
AcDbEntity
 67
     1
  8
0
100
AcDbBlockEnd
  0
BLOCK
  5
EB0
330
EAC
100
AcDbEntity
  8
0
100
AcDbBlockBegin
  2
_OPEN
 70
     0
 10
0.0
 20
0.0
 30
0.0
  3
_OPEN
  1

  0
LINE
  5
EAD
330
EAC
100
AcDbEntity
  8
0
  6
ByBlock
 62
     0
100
AcDbLine
 10
-1.0
 20
0.1666666666666666
 30
0.0
 11
0.0
 21
0.0
 31
0.0
  0
LINE
  5
EAE
330
EAC
100
AcDbEntity
  8
0
  6
ByBlock
 62
     0
100
AcDbLine
 10
0.0
 20
0.0
 30
0.0
 11
-1.0
 21
-0.1666666666666666
 31
0.0
  0
LINE
  5
EAF
330
EAC
100
AcDbEntity
  8
0
  6
ByBlock
 62
     0
100
AcDbLine
 10
0.0
 20
0.0
 30
0.0
 11
-1.0
 21
0.0
 31
0.0
  0
ENDBLK
  5
EB1
330
EAC
100
AcDbEntity
  8
0
100
AcDbBlockEnd
  0
ENDSEC
  0
SECTION
  2
ENTITIES
  0
TEXT
  5
5E97
330
18
100
AcDbEntity
  8
0
100
AcDbText
 10
338.6765186030352
 20
200.8059015933533
 30
0.0
 40
3.2
  1

 51
10.0
  7
DIMFONT
100
AcDbText
  0
TEXT
  5
5E98
330
18
100
AcDbEntity
  8
0
100
AcDbText
 10
281.5596257700369
 20
339.0583298581392
 30
0.0
 40
3.2
  1

 51
10.0
  7
DIMFONT
100
AcDbText
  0
TEXT
  5
5E99
330
18
100
AcDbEntity
  8
0
100
AcDbText
 10
280.0852357150527
 20
337.0939882877213
 30
0.0
 40
6.4
  1

 51
10.0
  7
DIMFONT
100
AcDbText
  0
TEXT
  5
5F9B
330
18
100
AcDbEntity
  8
0
100
AcDbText
 10
1779.873526003061
 20
729.0977058304374
 30
0.0
 40
3.2
  1

 51
10.0
  7
DIMFONT
100
AcDbText
  0
TEXT
  5
5F9C
330
18
100
AcDbEntity
  8
0
100
AcDbText
 10
1722.756633170063
 20
867.3501340952233
 30
0.0
 40
3.2
  1

 51
10.0
  7
DIMFONT
100
AcDbText
  0
TEXT
  5
5F9D
330
18
100
AcDbEntity
  8
0
100
AcDbText
 10
1721.282243115078
 20
865.3857925248054
 30
0.0
 40
6.4
  1

 51
10.0
  7
DIMFONT
100
AcDbText
  0
TEXT
  5
5F9F
330
18
100
AcDbEntity
  8
0
100
AcDbText
 10
4445.103299876538
 20
2116.973511135392
 30
0.0
 40
3.2
  1

 51
10.0
  7
DIMFONT
100
AcDbText
  0
TEXT
  5
5FA0
330
18
100
AcDbEntity
  8
0
100
AcDbText
 10
4387.986407043541
 20
2255.225939400178
 30
0.0
 40
3.2
  1

 51
10.0
  7
DIMFONT
100
AcDbText
  0
TEXT
  5
5FA1
330
18
100
AcDbEntity
  8
0
100
AcDbText
 10
4386.512016988556
 20
2253.26159782976
 30
0.0
 40
6.4
  1

 51
10.0
  7
DIMFONT
100
AcDbText
  0
TEXT
  5
5FA3
330
18
100
AcDbEntity
  8
0
100
AcDbText
 10
6689.777781123341
 20
3693.024055787083
 30
0.0
 40
3.2
  1

 51
10.0
  7
DIMFONT
100
AcDbText
  0
TEXT
  5
5FA4
330
18
100
AcDbEntity
  8
0
100
AcDbText
 10
6632.660888290344
 20
3831.276484051869
 30
0.0
 40
3.2
  1

 51
10.0
  7
DIMFONT
100
AcDbText
  0
TEXT
  5
5FA5
330
18
100
AcDbEntity
  8
0
100
AcDbText
 10
6631.186498235358
 20
3829.312142481451
 30
0.0
 40
6.4
  1

 51
10.0
  7
DIMFONT
100
AcDbText
  0
TEXT
  5
5FA6
330
18
100
AcDbEntity
  8
0
100
AcDbText
 10
6552.814110269536
 20
4847.018113698582
 30
0.0
 40
3.2
  1

 51
10.0
  7
DIMFONT
100
AcDbText
  0
LINE
  5
7EB1
330
18
100
AcDbEntity
  8
DRAW2
100
AcDbLine
 10
2273.030002049515
 20
863.3177363682531
 30
0.0
 11
2289.030032567092
 21
863.3177363682531
 31
0.0
  0
LINE
  5
7EB2
330
18
100
AcDbEntity
  8
DRAW2
100
AcDbLine
 10
2273.030002049514
 20
699.317736368253
 30
0.0
 11
2289.030032567092
 21
699.317736368253
 31
0.0
  0
LINE
  5
7EB9
330
18
100
AcDbEntity
  8
DRAW2
100
AcDbLine
 10
2273.030002049514
 20
264.3855970872414
 30
0.0
 11
2289.030032567092
 21
264.3855970872414
 31
0.0
  0
LINE
  5
7EBC
330
18
100
AcDbEntity
  8
DRAW2
100
AcDbLine
 10
2273.030002049514
 20
100.3855970872414
 30
0.0
 11
2289.030032567092
 21
100.3855970872414
 31
0.0
  0
ARC
  5
7EBF
330
18
100
AcDbEntity
  8
DRAW2
100
AcDbCircle
 10
2066.030002049514
 20
470.3856570872415
 30
0.0
 40
20.5
100
AcDbArc
 50
310.0631
 51
229.9368999999999
  0
LINE
  5
7EC3
330
18
100
AcDbEntity
  8
DRAW2
100
AcDbLine
 10
1904.029982224047
 20
231.3855970872416
 30
0.0
 11
2228.030031874982
 21
231.3856270872415
 31
0.0
  0
ARC
  5
7EC4
330
18
100
AcDbEntity
  8
DRAW2
100
AcDbCircle
 10
1927.448062049514
 20
192.6446870872436
 30
0.0
 40
16.24093999999999
100
AcDbArc
 50
72.41220800000002
 51
107.5878499999999
  0
LINE
  5
7EC5
330
18
100
AcDbEntity
  8
DRAW2
100
AcDbLine
 10
1935.948092049514
 20
81.08566208724187
 30
0.0
 11
1918.948092049514
 21
81.0856520872419
 31
0.0
  0
LINE
  5
7EC6
330
18
100
AcDbEntity
  8
DRAW2
100
AcDbLine
 10
1918.448092049514
 20
208.8856270872415
 30
0.0
 11
1936.448092049514
 21
208.8856270872415
 31
0.0
  0
LINE
  5
7EC7
330
18
100
AcDbEntity
  8
DRAW2
100
AcDbLine
 10
1918.448092049514
 20
210.8856270872415
 30
0.0
 11
1936.448092049514
 21
210.8856270872415
 31
0.0
  0
LINE
  5
7EC8
330
18
100
AcDbEntity
  8
DRAW2
100
AcDbLine
 10
1905.148292049514
 20
210.8856270872415
 30
0.0
 11
2228.523662049514
 21
210.8856270872415
 31
0.0
  0
LINE
  5
7EC9
330
18
100
AcDbEntity
  8
DRAW2
100
AcDbLine
 10
1904.006262049514
 20
230.8856270872415
 30
0.0
 11
2228.029912049514
 21
230.8856270872415
 31
0.0
  0
LINE
  5
7ECB
330
18
100
AcDbEntity
  8
DRAW2
100
AcDbLine
 10
1905.029982049514
 20
249.3856570872416
 30
0.0
 11
2227.030062154234
 21
249.3856570872416
 31
0.0
  0
LINE
  5
7ECC
330
18
100
AcDbEntity
  8
DRAW2
100
AcDbLine
 10
1904.029942049515
 20
230.8856270872414
 30
0.0
 11
2228.030062049514
 21
230.8856270872415
 31
0.0
  0
ARC
  5
7ECD
330
18
100
AcDbEntity
  8
DRAW2
100
AcDbCircle
 10
1927.448092049514
 20
97.3264620872419
 30
0.0
 40
16.24081
100
AcDbArc
 50
252.41205
 51
287.58795
  0
LINE
  5
7ECF
330
18
100
AcDbEntity
  8
DRAW2
100
AcDbLine
 10
1865.029942049514
 20
115.3857270872415
 30
0.0
 11
1865.029942049514
 21
262.7251270872416
 31
0.0
  0
LINE
  5
7ED0
330
18
100
AcDbEntity
  8
DRAW2
100
AcDbLine
 10
1865.030002049515
 20
278.3856270872415
 30
0.0
 11
1865.030002049515
 21
115.3856870872414
 31
0.0
  0
LINE
  5
7ED1
330
18
100
AcDbEntity
  8
DRAW2
100
AcDbLine
 10
1879.029942049514
 20
118.3856870872414
 30
0.0
 11
1879.029942049514
 21
259.7251270872416
 31
0.0
  0
LINE
  5
7ED2
330
18
100
AcDbEntity
  8
DRAW2
100
AcDbLine
 10
1847.029971531936
 20
278.3856270872415
 30
0.0
 11
1847.029971531936
 21
116.3856270872416
 31
0.0
  0
LINE
  5
7ED3
330
18
100
AcDbEntity
  8
DRAW2
100
AcDbLine
 10
1917.633093829236
 20
208.1264270872416
 30
0.0
 11
1917.633122049515
 21
81.84485208724186
 31
0.0
  0
LINE
  5
7ED4
330
18
100
AcDbEntity
  8
DRAW2
100
AcDbLine
 10
1922.540592049514
 20
208.1264463633303
 30
0.0
 11
1922.540592049514
 21
81.84483684473264
 31
0.0
  0
LINE
  5
7ED6
330
18
100
AcDbEntity
  8
DRAW2
100
AcDbLine
 10
1837.378467015334
 20
117.4159615598975
 30
0.0
 11
1844.529971531936
 21
117.4159615598975
 31
0.0
  0
LINE
  5
7ED7
330
18
100
AcDbEntity
  8
DRAW2
100
AcDbLine
 10
1837.378467015334
 20
122.9007943235694
 30
0.0
 11
1844.529971531936
 21
122.9007943235694
 31
0.0
  0
LINE
  5
7ED8
330
18
100
AcDbEntity
  8
DRAW2
100
AcDbLine
 10
1837.378451756546
 20
133.8704445921246
 30
0.0
 11
1844.529971531937
 21
133.8704445921237
 31
0.0
  0
LINE
  5
7ED9
330
18
100
AcDbEntity
  8
DRAW2
100
AcDbLine
 10
1837.378482274124
 20
139.3552773557964
 30
0.0
 11
1844.529971531937
 21
139.3552773557955
 31
0.0
  0
ARC
  5
7EDA
330
18
100
AcDbEntity
  8
DRAW2
100
AcDbCircle
 10
1841.386096409865
 20
120.1583779417335
 30
0.0
 40
4.856120109558063
100
AcDbArc
 50
145.6162052603231
 51
205.6176993262967
  0
LINE
  5
7EDB
330
18
100
AcDbEntity
  8
DRAW2
100
AcDbLine
 10
1836.529971531936
 20
118.8855813108746
 30
0.0
 11
1836.529971531937
 21
137.8856118284527
 31
0.0
  0
LINE
  5
7EDC
330
18
100
AcDbEntity
  8
DRAW2
100
AcDbLine
 10
1837.378467492172
 20
117.4159548841778
 30
0.0
 11
1836.52997582347
 21
118.8855860792455
 31
0.0
  0
LINE
  5
7EDD
330
18
100
AcDbEntity
  8
DRAW2
100
AcDbLine
 10
1836.529970578262
 20
137.8856185041724
 30
0.0
 11
1837.378480843613
 21
139.3552821241676
 31
0.0
  0
ARC
  5
7EDE
330
18
100
AcDbEntity
  8
DRAW2
100
AcDbCircle
 10
1854.681704930374
 20
128.3856270872404
 30
0.0
 40
18.15173721313484
100
AcDbArc
 50
162.4123268633945
 51
197.5877532776363
  0
ARC
  5
7EDF
330
18
100
AcDbEntity
  8
DRAW2
100
AcDbCircle
 10
1841.386020115921
 20
136.6128609739596
 30
0.0
 40
4.856048107147216
100
AcDbArc
 50
154.3845801356468
 51
214.3844247109372
  0
LINE
  5
7EE0
330
18
100
AcDbEntity
  8
DRAW2
100
AcDbLine
 10
1890.281447049515
 20
133.917610669502
 30
0.0
 11
1881.129942049514
 21
133.917610669502
 31
0.0
  0
LINE
  5
7EE1
330
18
100
AcDbEntity
  8
DRAW2
100
AcDbLine
 10
1890.281447049515
 20
139.4024438695017
 30
0.0
 11
1881.129942049514
 21
139.4024438695017
 31
0.0
  0
LINE
  5
7EE2
330
18
100
AcDbEntity
  8
DRAW2
100
AcDbLine
 10
1890.281462049514
 20
122.947960369502
 30
0.0
 11
1881.129942049514
 21
122.947960369502
 31
0.0
  0
LINE
  5
7EE3
330
18
100
AcDbEntity
  8
DRAW2
100
AcDbLine
 10
1890.281431049515
 20
117.4631278695017
 30
0.0
 11
1881.129942049514
 21
117.4631278695017
 31
0.0
  0
LINE
  5
7EE4
330
18
100
AcDbEntity
  8
DRAW2
100
AcDbLine
 10
1864.030002049514
 20
115.3856270872415
 30
0.0
 11
1848.029971531936
 21
115.3856270872416
 31
0.0
  0
LINE
  5
7EE5
330
18
100
AcDbEntity
  8
DRAW2
100
AcDbLine
 10
1844.529971531936
 20
117.4159615598975
 30
0.0
 11
1844.529971531937
 21
139.3552773557955
 31
0.0
  0
LINE
  5
7EE6
330
18
100
AcDbEntity
  8
DRAW2
100
AcDbLine
 10
1844.529971531936
 20
117.8856270872417
 30
0.0
 11
1847.029971531936
 21
117.8856270872417
 31
0.0
  0
LINE
  5
7EE7
330
18
100
AcDbEntity
  8
DRAW2
100
AcDbLine
 10
1847.029971531936
 20
116.3856270872416
 30
0.0
 11
1848.029971531936
 21
115.3856270872416
 31
0.0
  0
LINE
  5
7EE8
330
18
100
AcDbEntity
  8
DRAW2
100
AcDbLine
 10
1844.529971531936
 20
138.8856270872415
 30
0.0
 11
1847.029971531936
 21
138.8856270872415
 31
0.0
  0
LINE
  5
7EE9
330
18
100
AcDbEntity
  8
DRAW2
100
AcDbLine
 10
1879.029942049514
 20
139.1977778695016
 30
0.0
 11
1879.029942049514
 21
117.5977778695017
 31
0.0
  0
LINE
  5
7EEA
330
18
100
AcDbEntity
  8
DRAW2
100
AcDbLine
 10
1881.129942049514
 20
139.4024438695017
 30
0.0
 11
1881.129942049514
 21
117.4631278695017
 31
0.0
  0
LINE
  5
7EEB
330
18
100
AcDbEntity
  8
DRAW2
100
AcDbLine
 10
1876.029942049514
 20
115.3857270872415
 30
0.0
 11
1865.029942049514
 21
115.3857270872415
 31
0.0
  0
LINE
  5
7EEC
330
18
100
AcDbEntity
  8
DRAW2
100
AcDbLine
 10
1876.029942049514
 20
115.3856870872414
 30
0.0
 11
1865.030002049515
 21
115.3856870872414
 31
0.0
  0
LINE
  5
7EED
330
18
100
AcDbEntity
  8
DRAW2
100
AcDbLine
 10
1865.029971531936
 20
116.3856270872418
 30
0.0
 11
1864.029971531936
 21
115.3856270872418
 31
0.0
  0
LINE
  5
7EEE
330
18
100
AcDbEntity
  8
DRAW2
100
AcDbLine
 10
1879.029942049514
 20
117.5977778695017
 30
0.0
 11
1881.129942049514
 21
117.5977778695017
 31
0.0
  0
ARC
  5
7EEF
330
18
100
AcDbEntity
  8
DRAW2
100
AcDbCircle
 10
1876.029942049514
 20
118.3856870872414
 30
0.0
 40
3.000000000000003
100
AcDbArc
 50
269.9999899999998
 51
0.0
  0
LINE
  5
7EF0
330
18
100
AcDbEntity
  8
DRAW2
100
AcDbLine
 10
1879.029942049514
 20
128.6477778695019
 30
0.0
 11
1881.129942049514
 21
128.6477778695019
 31
0.0
  0
LINE
  5
7EF1
330
18
100
AcDbEntity
  8
DRAW2
100
AcDbLine
 10
1879.029942049514
 20
139.1977778695016
 30
0.0
 11
1881.129942049514
 21
139.1977778695016
 31
0.0
  0
LINE
  5
7EF2
330
18
100
AcDbEntity
  8
DRAW2
100
AcDbLine
 10
1879.029942049514
 20
128.1477778695019
 30
0.0
 11
1881.129942049514
 21
128.1477778695019
 31
0.0
  0
LINE
  5
7EF3
330
18
100
AcDbEntity
  8
DRAW2
100
AcDbLine
 10
1917.633122049515
 20
81.84485208724186
 30
0.0
 11
1918.948092049514
 21
81.0856520872419
 31
0.0
  0
ARC
  5
7EF4
330
18
100
AcDbEntity
  8
DRAW2
100
AcDbCircle
 10
1920.086862049515
 20
85.43055208724183
 30
0.0
 40
4.344898699999999
100
AcDbArc
 50
244.38425
 51
304.38425
  0
ARC
  5
7EF5
330
18
100
AcDbEntity
  8
DRAW2
100
AcDbCircle
 10
1886.273893049514
 20
120.2055439695021
 30
0.0
 40
4.856048099999999
100
AcDbArc
 50
334.3845800000035
 51
34.3844199999975
  0
LINE
  5
7EF6
330
18
100
AcDbEntity
  8
DRAW2
100
AcDbLine
 10
1891.129942049514
 20
137.9328236695017
 30
0.0
 11
1891.129942049514
 21
118.9327931695018
 31
0.0
  0
LINE
  5
7EF7
330
18
100
AcDbEntity
  8
DRAW2
100
AcDbLine
 10
1891.129937049515
 20
118.932790269502
 30
0.0
 11
1890.281426049514
 21
117.4631268695018
 31
0.0
  0
LINE
  5
7EF8
330
18
100
AcDbEntity
  8
DRAW2
100
AcDbLine
 10
1898.654942049514
 20
122.3977778695019
 30
0.0
 11
1891.129942049514
 21
122.3977778695019
 31
0.0
  0
LINE
  5
7EF9
330
18
100
AcDbEntity
  8
DRAW3
100
AcDbLine
 10
1899.529942049514
 20
123.2727778695019
 30
0.0
 11
1891.129942049514
 21
123.2727778695019
 31
0.0
  0
LINE
  5
7EFA
330
18
100
AcDbEntity
  8
DRAW3
100
AcDbLine
 10
1899.529942049514
 20
133.5227778695019
 30
0.0
 11
1891.129942049514
 21
133.5227778695014
 31
0.0
  0
LINE
  5
7EFB
330
18
100
AcDbEntity
  8
DRAW2
100
AcDbLine
 10
1898.654942049514
 20
134.3977778695019
 30
0.0
 11
1891.129942049514
 21
134.3977778695019
 31
0.0
  0
LINE
  5
7EFC
330
18
100
AcDbEntity
  8
DRAW2
100
AcDbLine
 10
1890.281444049515
 20
139.402456869502
 30
0.0
 11
1891.129935049515
 21
137.9328264695021
 31
0.0
  0
ARC
  5
7EFD
330
18
100
AcDbEntity
  8
DRAW2
100
AcDbCircle
 10
1886.273817049515
 20
136.6600269695021
 30
0.0
 40
4.856120099999999
100
AcDbArc
 50
325.6162050000024
 51
25.61769999999506
  0
ARC
  5
7EFE
330
18
100
AcDbEntity
  8
DRAW2
100
AcDbCircle
 10
1872.978208649515
 20
128.4327778695017
 30
0.0
 40
18.151737
100
AcDbArc
 50
342.4123269999927
 51
17.58774999999916
  0
LINE
  5
7EFF
330
18
100
AcDbEntity
  8
DRAW2
100
AcDbLine
 10
1898.654942049514
 20
134.3977778695019
 30
0.0
 11
1899.529942049514
 21
133.5227778695019
 31
0.0
  0
LINE
  5
7F00
330
18
100
AcDbEntity
  8
DRAW2
100
AcDbLine
 10
1898.654942049514
 20
122.3977778695019
 30
0.0
 11
1899.529942049514
 21
123.2727778695019
 31
0.0
  0
LINE
  5
7F01
330
18
100
AcDbEntity
  8
DRAW2
100
AcDbLine
 10
1898.654942049514
 20
122.3977778695019
 30
0.0
 11
1898.654942049514
 21
134.3977778695019
 31
0.0
  0
LINE
  5
7F02
330
18
100
AcDbEntity
  8
DRAW2
100
AcDbLine
 10
1899.529942049514
 20
123.2727778695019
 30
0.0
 11
1899.529942049514
 21
133.5227778695019
 31
0.0
  0
LINE
  5
7F05
330
18
100
AcDbEntity
  8
DRAW2
100
AcDbLine
 10
1837.378467015334
 20
226.6507943235665
 30
0.0
 11
1844.529971531936
 21
226.6507943235664
 31
0.0
  0
LINE
  5
7F06
330
18
100
AcDbEntity
  8
DRAW2
100
AcDbLine
 10
1837.378467015334
 20
221.1659615598946
 30
0.0
 11
1844.529971531936
 21
221.1659615598945
 31
0.0
  0
LINE
  5
7F07
330
18
100
AcDbEntity
  8
DRAW2
100
AcDbLine
 10
1837.378482274124
 20
243.1052773557935
 30
0.0
 11
1844.529971531937
 21
243.1052773557926
 31
0.0
  0
LINE
  5
7F08
330
18
100
AcDbEntity
  8
DRAW2
100
AcDbLine
 10
1837.378451756546
 20
237.6204445921216
 30
0.0
 11
1844.529971531937
 21
237.6204445921207
 31
0.0
  0
ARC
  5
7F0B
330
18
100
AcDbEntity
  8
DRAW2
100
AcDbCircle
 10
1841.386020115921
 20
240.3628609739566
 30
0.0
 40
4.856048107147216
100
AcDbArc
 50
154.3845801356468
 51
214.3844247109372
  0
LINE
  5
7F0C
330
18
100
AcDbEntity
  8
DRAW2
100
AcDbLine
 10
1836.529971531936
 20
222.6355813108716
 30
0.0
 11
1836.529971531937
 21
241.6356118284497
 31
0.0
  0
ARC
  5
7F0D
330
18
100
AcDbEntity
  8
DRAW2
100
AcDbCircle
 10
1841.386096409865
 20
223.9083779417305
 30
0.0
 40
4.856120109558063
100
AcDbArc
 50
145.6162052603231
 51
205.6176993262967
  0
LINE
  5
7F0E
330
18
100
AcDbEntity
  8
DRAW2
100
AcDbLine
 10
1837.378467492172
 20
221.1659548841748
 30
0.0
 11
1836.52997582347
 21
222.6355860792425
 31
0.0
  0
ARC
  5
7F0F
330
18
100
AcDbEntity
  8
DRAW2
100
AcDbCircle
 10
1854.681704930374
 20
232.1356270872374
 30
0.0
 40
18.15173721313484
100
AcDbArc
 50
162.4123268633945
 51
197.5877532776363
  0
LINE
  5
7F10
330
18
100
AcDbEntity
  8
DRAW2
100
AcDbLine
 10
1836.529970578262
 20
241.6356185041695
 30
0.0
 11
1837.378480843613
 21
243.1052821241646
 31
0.0
  0
LINE
  5
7F11
330
18
100
AcDbEntity
  8
DRAW2
100
AcDbLine
 10
1903.788492049514
 20
216.8857270872415
 30
0.0
 11
1903.107152049514
 21
229.8870270872416
 31
0.0
  0
LINE
  5
7F12
330
18
100
AcDbEntity
  8
DRAW2
100
AcDbLine
 10
1843.029971531936
 20
221.1659615598945
 30
0.0
 11
1843.029971531936
 21
159.3856270872415
 31
0.0
  0
ARC
  5
7F13
330
18
100
AcDbEntity
  8
DRAW2
100
AcDbCircle
 10
1948.248142049514
 20
-39.2545729127587
 30
0.0
 40
200.0
100
AcDbArc
 50
98.80518408956639
 51
109.6414519999999
  0
LINE
  5
7F14
330
18
100
AcDbEntity
  8
DRAW2
100
AcDbLine
 10
1880.351482049515
 20
198.2777270872416
 30
0.0
 11
1893.958902049514
 21
207.4626270872415
 31
0.0
  0
ARC
  5
7F15
330
18
100
AcDbEntity
  8
DRAW2
100
AcDbCircle
 10
1882.029942049514
 20
209.0300270872416
 30
0.0
 40
3.0
100
AcDbArc
 50
180.000003
 51
304.01926
  0
ARC
  5
7F16
330
18
100
AcDbEntity
  8
DRAW2
100
AcDbCircle
 10
1889.029942049515
 20
157.3856270872415
 30
0.0
 40
10.0
100
AcDbArc
 50
90.0
 51
180.000003
  0
ARC
  5
7F17
330
18
100
AcDbEntity
  8
DRAW2
100
AcDbCircle
 10
1845.029971531936
 20
155.3856270872415
 30
0.0
 40
2.0
100
AcDbArc
 50
0.0
 51
90.0
  0
ARC
  5
7F18
330
18
100
AcDbEntity
  8
DRAW2
100
AcDbCircle
 10
1845.029971531936
 20
159.3856270872415
 30
0.0
 40
2.0
100
AcDbArc
 50
180.0
 51
270.0
  0
ARC
  5
7F19
330
18
100
AcDbEntity
  8
DRAW2
100
AcDbCircle
 10
1882.029942049515
 20
146.2829270872411
 30
0.0
 40
3.0
100
AcDbArc
 50
109.6414519999999
 51
180.000003
  0
ARC
  5
7F1A
330
18
100
AcDbEntity
  8
DRAW2
100
AcDbCircle
 10
1882.029942049514
 20
195.7911270872416
 30
0.0
 40
3.0
100
AcDbArc
 50
124.019256
 51
180.000003
  0
LINE
  5
7F1B
330
18
100
AcDbEntity
  8
DRAW2
100
AcDbLine
 10
1889.029942049515
 20
167.3856270872415
 30
0.0
 11
1917.633092049514
 21
167.3856270872415
 31
0.0
  0
ARC
  5
7F1C
330
18
100
AcDbEntity
  8
DRAW2
100
AcDbCircle
 10
1905.148292049514
 20
190.8856270872415
 30
0.0
 40
20.0
100
AcDbArc
 50
89.99998999999997
 51
124.019256
  0
LINE
  5
7F1D
330
18
100
AcDbEntity
  8
DRAW2
100
AcDbLine
 10
1902.089152049514
 20
216.8856270872415
 30
0.0
 11
1910.692422049514
 21
216.8856270872415
 31
0.0
  0
LINE
  5
7F1E
330
18
100
AcDbEntity
  8
DRAW2
100
AcDbLine
 10
1883.708352049514
 20
206.5434270872417
 30
0.0
 11
1896.494422049514
 21
215.1740270872417
 31
0.0
  0
ARC
  5
7F1F
330
18
100
AcDbEntity
  8
DRAW2
100
AcDbCircle
 10
1902.089152049514
 20
206.8856270872415
 30
0.0
 40
10.0
100
AcDbArc
 50
89.99998999999997
 51
124.019256
  0
LINE
  5
7F20
330
18
100
AcDbEntity
  8
DRAW2
100
AcDbLine
 10
1913.692422049514
 20
211.8856270872415
 30
0.0
 11
1913.692422049514
 21
216.6495270872417
 31
0.0
  0
ARC
  5
7F21
330
18
100
AcDbEntity
  8
DRAW2
100
AcDbCircle
 10
1910.692422049514
 20
219.8856270872415
 30
0.0
 40
3.0
100
AcDbArc
 50
269.99999
 51
0.0
  0
LINE
  5
7F22
330
18
100
AcDbEntity
  8
DRAW2
100
AcDbLine
 10
1917.633093829236
 20
208.1264270872416
 30
0.0
 11
1918.948023829236
 21
208.8856270872415
 31
0.0
  0
ARC
  5
7F23
330
18
100
AcDbEntity
  8
DRAW2
100
AcDbCircle
 10
1920.086839398698
 20
204.5407207426991
 30
0.0
 40
4.3449049
100
AcDbArc
 50
55.615878
 51
115.6157399999999
  0
LINE
  5
7F24
330
18
100
AcDbEntity
  8
DRAW2
100
AcDbLine
 10
1918.448092049514
 20
208.8856270872415
 30
0.0
 11
1918.448092049514
 21
210.8856270872415
 31
0.0
  0
LINE
  5
7F25
330
18
100
AcDbEntity
  8
DRAW2
100
AcDbLine
 10
1890.281447049515
 20
237.6558731475943
 30
0.0
 11
1881.129942049514
 21
237.6558731475943
 31
0.0
  0
LINE
  5
7F26
330
18
100
AcDbEntity
  8
DRAW2
100
AcDbLine
 10
1890.281447049515
 20
243.140706347594
 30
0.0
 11
1881.129942049514
 21
243.140706347594
 31
0.0
  0
LINE
  5
7F27
330
18
100
AcDbEntity
  8
DRAW2
100
AcDbLine
 10
1890.281462049514
 20
226.6862228475943
 30
0.0
 11
1881.129942049514
 21
226.6862228475943
 31
0.0
  0
LINE
  5
7F28
330
18
100
AcDbEntity
  8
DRAW2
100
AcDbLine
 10
1890.281431049515
 20
221.201390347594
 30
0.0
 11
1881.129942049514
 21
221.201390347594
 31
0.0
  0
LINE
  5
7F29
330
18
100
AcDbEntity
  8
DRAW2
100
AcDbLine
 10
1844.529971531936
 20
221.1659615598945
 30
0.0
 11
1844.529971531937
 21
243.1052773557926
 31
0.0
  0
LINE
  5
7F2A
330
18
100
AcDbEntity
  8
DRAW2
100
AcDbLine
 10
1844.529971531936
 20
221.6364536079497
 30
0.0
 11
1847.029971531936
 21
221.6364536079497
 31
0.0
  0
LINE
  5
7F2B
330
18
100
AcDbEntity
  8
DRAW2
100
AcDbLine
 10
1844.529971531936
 20
242.6356270872386
 30
0.0
 11
1847.029971531936
 21
242.6356270872386
 31
0.0
  0
LINE
  5
7F2C
330
18
100
AcDbEntity
  8
DRAW2
100
AcDbLine
 10
1881.129942049514
 20
243.140706347594
 30
0.0
 11
1881.129942049514
 21
221.201390347594
 31
0.0
  0
LINE
  5
7F2D
330
18
100
AcDbEntity
  8
DRAW2
100
AcDbLine
 10
1879.029942049514
 20
232.3860403475941
 30
0.0
 11
1881.129942049514
 21
232.3860403475941
 31
0.0
  0
LINE
  5
7F2E
330
18
100
AcDbEntity
  8
DRAW2
100
AcDbLine
 10
1879.029942049514
 20
221.3360403475939
 30
0.0
 11
1881.129942049514
 21
221.3360403475939
 31
0.0
  0
LINE
  5
7F2F
330
18
100
AcDbEntity
  8
DRAW2
100
AcDbLine
 10
1879.029942049514
 20
231.8860403475941
 30
0.0
 11
1881.129942049514
 21
231.8860403475941
 31
0.0
  0
LINE
  5
7F30
330
18
100
AcDbEntity
  8
DRAW2
100
AcDbLine
 10
1879.029942049514
 20
242.9360403475939
 30
0.0
 11
1881.129942049514
 21
242.9360403475939
 31
0.0
  0
LINE
  5
7F31
330
18
100
AcDbEntity
  8
DRAW2
100
AcDbLine
 10
1864.030002049514
 20
279.3856270872415
 30
0.0
 11
1848.029971531936
 21
279.3856270872415
 31
0.0
  0
LINE
  5
7F32
330
18
100
AcDbEntity
  8
DRAW2
100
AcDbLine
 10
1848.029971531936
 20
279.3856270872415
 30
0.0
 11
1847.029971531936
 21
278.3856270872415
 31
0.0
  0
LINE
  5
7F33
330
18
100
AcDbEntity
  8
DRAW2
100
AcDbLine
 10
1864.030002049514
 20
279.3856270872415
 30
0.0
 11
1865.030002049515
 21
278.3856270872415
 31
0.0
  0
LINE
  5
7F34
330
18
100
AcDbEntity
  8
DRAW2
100
AcDbLine
 10
1876.029942049514
 20
262.7251270872411
 30
0.0
 11
1865.030002049515
 21
262.7251270872411
 31
0.0
  0
ARC
  5
7F35
330
18
100
AcDbEntity
  8
DRAW2
100
AcDbCircle
 10
1876.029942049514
 20
259.7251270872416
 30
0.0
 40
3.0
100
AcDbArc
 50
0.0
 51
90.00000865142139
  0
ARC
  5
7F36
330
18
100
AcDbEntity
  8
DRAW2
100
AcDbCircle
 10
1905.029982049514
 20
247.3856570872416
 30
0.0
 40
2.0
100
AcDbArc
 50
90.0
 51
180.0
  0
LINE
  5
7F37
330
18
100
AcDbEntity
  8
DRAW2
100
AcDbLine
 10
1903.107152049514
 20
229.8870270872416
 30
0.0
 11
1904.006262049514
 21
230.8856270872415
 31
0.0
  0
ARC
  5
7F38
330
18
100
AcDbEntity
  8
DRAW2
100
AcDbCircle
 10
1904.029982049514
 20
232.3855970872416
 30
0.0
 40
1.000000000000028
100
AcDbArc
 50
180.0000000000032
 51
270.0000099999985
  0
ARC
  5
7F39
330
18
100
AcDbEntity
  8
DRAW2
100
AcDbCircle
 10
1886.273817049515
 20
240.3982894475944
 30
0.0
 40
4.856120099999999
100
AcDbArc
 50
325.6162050000017
 51
25.61769999999506
  0
LINE
  5
7F3A
330
18
100
AcDbEntity
  8
DRAW2
100
AcDbLine
 10
1891.129942049514
 20
241.671086147594
 30
0.0
 11
1891.129942049514
 21
222.6710556475941
 31
0.0
  0
LINE
  5
7F3B
330
18
100
AcDbEntity
  8
DRAW2
100
AcDbLine
 10
1903.029982049514
 20
232.3855970872416
 30
0.0
 11
1903.029982049514
 21
247.3856570872416
 31
0.0
  0
LINE
  5
7F3C
330
18
100
AcDbEntity
  8
DRAW2
100
AcDbLine
 10
1898.654942049514
 20
226.1360403475941
 30
0.0
 11
1891.129942049514
 21
226.1360403475941
 31
0.0
  0
LINE
  5
7F3D
330
18
100
AcDbEntity
  8
DRAW3
100
AcDbLine
 10
1899.529942049514
 20
227.0110403475941
 30
0.0
 11
1891.129942049514
 21
227.0110403475941
 31
0.0
  0
LINE
  5
7F3E
330
18
100
AcDbEntity
  8
DRAW3
100
AcDbLine
 10
1899.529942049514
 20
237.2610403475941
 30
0.0
 11
1891.129942049514
 21
237.2610403475937
 31
0.0
  0
LINE
  5
7F3F
330
18
100
AcDbEntity
  8
DRAW2
100
AcDbLine
 10
1898.654942049514
 20
238.1360403475941
 30
0.0
 11
1891.129942049514
 21
238.1360403475941
 31
0.0
  0
LINE
  5
7F40
330
18
100
AcDbEntity
  8
DRAW2
100
AcDbLine
 10
1891.129937049515
 20
222.6710527475943
 30
0.0
 11
1890.281426049514
 21
221.2013893475941
 31
0.0
  0
ARC
  5
7F41
330
18
100
AcDbEntity
  8
DRAW2
100
AcDbCircle
 10
1886.273893049514
 20
223.9438064475943
 30
0.0
 40
4.856048099999999
100
AcDbArc
 50
334.3845800000035
 51
34.3844199999975
  0
ARC
  5
7F42
330
18
100
AcDbEntity
  8
DRAW2
100
AcDbCircle
 10
1872.978208649515
 20
232.171040347594
 30
0.0
 40
18.151737
100
AcDbArc
 50
342.4123269999927
 51
17.58774999999916
  0
LINE
  5
7F43
330
18
100
AcDbEntity
  8
DRAW2
100
AcDbLine
 10
1898.654942049514
 20
238.1360403475941
 30
0.0
 11
1899.529942049514
 21
237.2610403475941
 31
0.0
  0
LINE
  5
7F44
330
18
100
AcDbEntity
  8
DRAW2
100
AcDbLine
 10
1898.654942049514
 20
226.1360403475941
 30
0.0
 11
1899.529942049514
 21
227.0110403475941
 31
0.0
  0
LINE
  5
7F45
330
18
100
AcDbEntity
  8
DRAW2
100
AcDbLine
 10
1898.654942049514
 20
226.1360403475941
 30
0.0
 11
1898.654942049514
 21
238.1360403475941
 31
0.0
  0
LINE
  5
7F46
330
18
100
AcDbEntity
  8
DRAW2
100
AcDbLine
 10
1899.529942049514
 20
227.0110403475941
 30
0.0
 11
1899.529942049514
 21
237.2610403475941
 31
0.0
  0
LINE
  5
7F47
330
18
100
AcDbEntity
  8
DRAW2
100
AcDbLine
 10
1900.529882049514
 20
227.3856270872415
 30
0.0
 11
1901.130652049514
 21
227.3856270872415
 31
0.0
  0
LINE
  5
7F48
330
18
100
AcDbEntity
  8
DRAW2
100
AcDbLine
 10
1899.529679314215
 20
227.3860230422411
 30
0.0
 11
1903.238242139517
 21
227.3855717387257
 31
0.0
  0
LINE
  5
7F49
330
18
100
AcDbEntity
  8
DRAW2
100
AcDbLine
 10
1890.281444049515
 20
243.1407193475943
 30
0.0
 11
1891.129935049515
 21
241.6710889475944
 31
0.0
  0
LINE
  5
7F4A
330
18
100
AcDbEntity
  8
DRAW2
100
AcDbLine
 10
1923.030002049514
 20
231.3855470872415
 30
0.0
 11
1923.030002049514
 21
230.8856470872415
 31
0.0
  0
LINE
  5
7F4B
330
18
100
AcDbEntity
  8
DRAW2
100
AcDbLine
 10
1918.448092049514
 20
251.3856570872416
 30
0.0
 11
1918.448092049514
 21
249.3856570872416
 31
0.0
  0
LINE
  5
7F54
330
18
100
AcDbEntity
  8
DRAW2
100
AcDbLine
 10
2258.030002049514
 20
125.3856270872415
 30
0.0
 11
2234.795512049514
 21
145.4517270872415
 31
0.0
  0
LINE
  5
7F55
330
18
100
AcDbEntity
  8
DRAW2
100
AcDbLine
 10
2272.029972049514
 20
100.3856270872415
 30
0.0
 11
2272.029972049514
 21
247.7251270872416
 31
0.0
  0
LINE
  5
7F56
330
18
100
AcDbEntity
  8
DRAW2
100
AcDbLine
 10
2272.030002049514
 20
100.3856570872412
 30
0.0
 11
2272.030002049514
 21
263.3855970872414
 31
0.0
  0
LINE
  5
7F57
330
18
100
AcDbEntity
  8
DRAW2
100
AcDbLine
 10
2258.029942049514
 20
103.3856570872412
 30
0.0
 11
2258.029952049514
 21
244.7250969301618
 31
0.0
  0
LINE
  5
7F58
330
18
100
AcDbEntity
  8
DRAW2
100
AcDbLine
 10
2214.426852049514
 20
208.1264338884375
 30
0.0
 11
2214.426852049514
 21
81.84483709474404
 31
0.0
  0
LINE
  5
7F59
330
18
100
AcDbEntity
  8
DRAW2
100
AcDbLine
 10
2194.796912049514
 20
208.1264087386114
 30
0.0
 11
2194.796912049514
 21
81.84484709474389
 31
0.0
  0
LINE
  5
7F5A
330
18
100
AcDbEntity
  8
DRAW2
100
AcDbLine
 10
2209.519382049515
 20
208.1264463633303
 30
0.0
 11
2209.519382049514
 21
81.84484869532509
 31
0.0
  0
LINE
  5
7F5B
330
18
100
AcDbEntity
  8
DRAW2
100
AcDbLine
 10
2199.704442049515
 20
208.1264463633305
 30
0.0
 11
2199.704442049515
 21
81.84484419353617
 31
0.0
  0
LINE
  5
7F5C
330
18
100
AcDbEntity
  8
DRAW2
100
AcDbLine
 10
1937.263002049514
 20
208.1264396619893
 30
0.0
 11
1937.263002049514
 21
81.84482476675567
 31
0.0
  0
LINE
  5
7F5D
330
18
100
AcDbEntity
  8
DRAW2
100
AcDbLine
 10
1932.355532049514
 20
208.1264463633305
 30
0.0
 11
1932.355532049514
 21
81.84482967646227
 31
0.0
  0
LINE
  5
7F62
330
18
100
AcDbEntity
  8
DRAW2
100
AcDbLine
 10
1935.948092049514
 20
81.08566208724187
 30
0.0
 11
1937.263032049514
 21
81.84484208724189
 31
0.0
  0
ARC
  5
7F63
330
18
100
AcDbEntity
  8
DRAW2
100
AcDbCircle
 10
1934.809302049514
 20
85.43055208724183
 30
0.0
 40
4.344898699999999
100
AcDbArc
 50
235.61575
 51
295.6157499999999
  0
LINE
  5
7F65
330
18
100
AcDbEntity
  8
DRAW2
100
AcDbLine
 10
2231.294412049515
 20
134.3857270872415
 30
0.0
 11
2247.608807425297
 21
134.3857270872415
 31
0.0
  0
ARC
  5
7F66
330
18
100
AcDbEntity
  8
DRAW2
100
AcDbCircle
 10
2211.973122049514
 20
85.43055709474391
 30
0.0
 40
4.344898699999999
100
AcDbArc
 50
235.61575
 51
295.6157499999999
  0
LINE
  5
7F67
330
18
100
AcDbEntity
  8
DRAW2
100
AcDbLine
 10
2196.111912049514
 20
81.08565709474396
 30
0.0
 11
2213.111912049514
 21
81.08565709474396
 31
0.0
  0
ARC
  5
7F68
330
18
100
AcDbEntity
  8
DRAW2
100
AcDbCircle
 10
2204.611912049514
 20
97.32646709474398
 30
0.0
 40
16.24081
100
AcDbArc
 50
252.41205
 51
287.58795
  0
LINE
  5
7F69
330
18
100
AcDbEntity
  8
DRAW2
100
AcDbLine
 10
2196.111912049514
 20
81.08564709474398
 30
0.0
 11
2194.796912049514
 21
81.84484709474395
 31
0.0
  0
ARC
  5
7F6A
330
18
100
AcDbEntity
  8
DRAW2
100
AcDbCircle
 10
2197.250652049514
 20
85.43055709474391
 30
0.0
 40
4.344898699999999
100
AcDbArc
 50
244.38425
 51
304.38425
  0
LINE
  5
7F6B
330
18
100
AcDbEntity
  8
DRAW2
100
AcDbLine
 10
2214.426852049514
 20
81.84483709474397
 30
0.0
 11
2213.111912049514
 21
81.08565709474396
 31
0.0
  0
ARC
  5
7F6C
330
18
100
AcDbEntity
  8
DRAW2
100
AcDbCircle
 10
2231.329962049514
 20
182.3856270872415
 30
0.0
 40
48.0
100
AcDbArc
 50
249.3812395518516
 51
269.95255
  0
ARC
  5
7F6D
330
18
100
AcDbEntity
  8
DRAW2
100
AcDbCircle
 10
2261.029972049514
 20
103.3857270872415
 30
0.0
 40
3.0
100
AcDbArc
 50
180.000003
 51
270.00001
  0
ARC
  5
7F6E
330
18
100
AcDbEntity
  8
DRAW2
100
AcDbCircle
 10
2261.029952049514
 20
103.3856570872412
 30
0.0
 40
3.0
100
AcDbArc
 50
180.000003
 51
270.00001
  0
LINE
  5
7F6F
330
18
100
AcDbEntity
  8
DRAW2
100
AcDbLine
 10
2261.029972049514
 20
100.3857270872415
 30
0.0
 11
2272.029972049514
 21
100.3857270872415
 31
0.0
  0
LINE
  5
7F70
330
18
100
AcDbEntity
  8
DRAW2
100
AcDbLine
 10
2261.029952049514
 20
100.3856570872412
 30
0.0
 11
2272.030002049514
 21
100.3856570872412
 31
0.0
  0
LINE
  5
7F71
330
18
100
AcDbEntity
  8
DRAW2
100
AcDbLine
 10
2272.030002049514
 20
101.3855970872414
 30
0.0
 11
2273.030002049514
 21
100.3855970872414
 31
0.0
  0
LINE
  5
7F72
330
18
100
AcDbEntity
  8
DRAW2
100
AcDbLine
 10
2246.778437757029
 20
118.9054598872417
 30
0.0
 11
2255.929942757029
 21
118.9054598872417
 31
0.0
  0
LINE
  5
7F73
330
18
100
AcDbEntity
  8
DRAW2
100
AcDbLine
 10
2246.778437757029
 20
124.3902930872413
 30
0.0
 11
2255.929942757029
 21
124.3902930872413
 31
0.0
  0
LINE
  5
7F74
330
18
100
AcDbEntity
  8
DRAW2
100
AcDbLine
 10
2246.778422757029
 20
107.9358095872416
 30
0.0
 11
2255.929942757029
 21
107.9358095872416
 31
0.0
  0
LINE
  5
7F75
330
18
100
AcDbEntity
  8
DRAW2
100
AcDbLine
 10
2246.778453757029
 20
102.4509770872414
 30
0.0
 11
2255.929942757029
 21
102.4509770872414
 31
0.0
  0
ARC
  5
7F76
330
18
100
AcDbEntity
  8
DRAW2
100
AcDbCircle
 10
2250.786067757029
 20
121.6478761872417
 30
0.0
 40
4.856120099999999
100
AcDbArc
 50
154.3823000000045
 51
214.3837950000003
  0
LINE
  5
7F77
330
18
100
AcDbEntity
  8
DRAW2
100
AcDbLine
 10
2245.929942757029
 20
122.9206728872413
 30
0.0
 11
2245.929942757029
 21
103.9206423872415
 31
0.0
  0
LINE
  5
7F78
330
18
100
AcDbEntity
  8
DRAW2
100
AcDbLine
 10
2238.404942757028
 20
119.3856270872415
 30
0.0
 11
2245.929942757029
 21
119.3856270872415
 31
0.0
  0
LINE
  5
7F79
330
18
100
AcDbEntity
  8
DRAW3
100
AcDbLine
 10
2237.529942757029
 20
118.5106270872415
 30
0.0
 11
2245.929942757029
 21
118.5106270872415
 31
0.0
  0
LINE
  5
7F7A
330
18
100
AcDbEntity
  8
DRAW2
100
AcDbLine
 10
2238.404942757028
 20
107.3856270872415
 30
0.0
 11
2245.929942757029
 21
107.3856270872415
 31
0.0
  0
LINE
  5
7F7B
330
18
100
AcDbEntity
  8
DRAW3
100
AcDbLine
 10
2237.529942757029
 20
108.2606270872415
 30
0.0
 11
2245.929942757029
 21
108.2606270872415
 31
0.0
  0
LINE
  5
7F7C
330
18
100
AcDbEntity
  8
DRAW2
100
AcDbLine
 10
2238.404942757028
 20
119.3856270872415
 30
0.0
 11
2237.529942757029
 21
118.5106270872415
 31
0.0
  0
LINE
  5
7F7D
330
18
100
AcDbEntity
  8
DRAW2
100
AcDbLine
 10
2238.404942757028
 20
107.3856270872415
 30
0.0
 11
2237.529942757029
 21
108.2606270872415
 31
0.0
  0
LINE
  5
7F7E
330
18
100
AcDbEntity
  8
DRAW2
100
AcDbLine
 10
2238.404942757028
 20
107.3856270872415
 30
0.0
 11
2238.404942757028
 21
119.3856270872415
 31
0.0
  0
LINE
  5
7F7F
330
18
100
AcDbEntity
  8
DRAW2
100
AcDbLine
 10
2237.529942757029
 20
108.2606270872415
 30
0.0
 11
2237.529942757029
 21
118.5106270872415
 31
0.0
  0
LINE
  5
7F80
330
18
100
AcDbEntity
  8
DRAW2
100
AcDbLine
 10
2245.929947757029
 20
103.9206394872417
 30
0.0
 11
2246.778458757029
 21
102.4509760872415
 31
0.0
  0
ARC
  5
7F81
330
18
100
AcDbEntity
  8
DRAW2
100
AcDbCircle
 10
2250.785991757028
 20
105.1933931872417
 30
0.0
 40
4.856048099999999
100
AcDbArc
 50
145.6155799999995
 51
205.6154199999964
  0
ARC
  5
7F82
330
18
100
AcDbEntity
  8
DRAW2
100
AcDbCircle
 10
2264.081676157029
 20
113.4206270872414
 30
0.0
 40
18.151737
100
AcDbArc
 50
162.4122499999998
 51
197.5876730000077
  0
LINE
  5
7F83
330
18
100
AcDbEntity
  8
DRAW2
100
AcDbLine
 10
2246.778440757029
 20
124.3903060872417
 30
0.0
 11
2245.929949757029
 21
122.9206756872417
 31
0.0
  0
LINE
  5
7F84
330
18
100
AcDbEntity
  8
DRAW2
100
AcDbLine
 10
2255.929942757029
 20
124.3902930872413
 30
0.0
 11
2255.929942757029
 21
102.4509770872414
 31
0.0
  0
LINE
  5
7F85
330
18
100
AcDbEntity
  8
DRAW2
100
AcDbLine
 10
2258.029942757028
 20
102.5856270872413
 30
0.0
 11
2258.029942757028
 21
124.1856270872413
 31
0.0
  0
LINE
  5
7F87
330
18
100
AcDbEntity
  8
DRAW2
100
AcDbLine
 10
2258.029942757028
 20
113.6356270872415
 30
0.0
 11
2255.929942757029
 21
113.6356270872416
 31
0.0
  0
LINE
  5
7F88
330
18
100
AcDbEntity
  8
DRAW2
100
AcDbLine
 10
2258.029942757028
 20
113.1356270872415
 30
0.0
 11
2255.929942757029
 21
113.1356270872416
 31
0.0
  0
LINE
  5
7F89
330
18
100
AcDbEntity
  8
DRAW2
100
AcDbLine
 10
2258.029942757028
 20
102.5856270872413
 30
0.0
 11
2255.929942757029
 21
102.5856270872413
 31
0.0
  0
LINE
  5
7F8A
330
18
100
AcDbEntity
  8
DRAW2
100
AcDbLine
 10
2258.029942757028
 20
124.1856270872413
 30
0.0
 11
2255.929942757029
 21
124.1856270872413
 31
0.0
  0
LINE
  5
7F8B
330
18
100
AcDbEntity
  8
DRAW2
100
AcDbLine
 10
1943.030002049514
 20
418.3856570872414
 30
0.0
 11
2189.030002049514
 21
418.3856570872414
 31
0.0
  0
LWPOLYLINE
  5
7F8C
330
18
100
AcDbEntity
  8
DRAW2
100
AcDbPolyline
 90
        4
 70
     0
 43
0.0
 10
2134.864602049514
 20
160.1986270872416
 42
-0.011686112
 10
2121.539622049514
 20
156.6936270872415
 42
-0.011761897
 10
2108.065042049515
 20
153.8170270872417
 42
-0.0118088
 10
2094.469882049514
 20
151.5786270872415
  0
LWPOLYLINE
  5
7F8D
330
18
100
AcDbEntity
  8
DRAW2
100
AcDbPolyline
 90
        4
 70
     0
 43
0.0
 10
2138.679662049514
 20
153.4469270872416
 42
-0.012520847
 10
2124.112182049514
 20
149.5933270872417
 42
-0.012611737
 10
2109.369312049514
 20
146.4764270872417
 42
-0.012658122
 10
2094.488322049515
 20
144.1082270872415
  0
LWPOLYLINE
  5
7F8E
330
18
100
AcDbEntity
  8
DRAW2
100
AcDbPolyline
 90
        4
 70
     0
 43
0.0
 10
2136.618442049515
 20
153.4469270872416
 42
-0.011952006
 10
2122.717642049514
 20
149.7908270872416
 42
-0.012036502
 10
2108.657552049514
 20
146.8053270872417
 42
-0.01207857
 10
2094.469882049514
 20
144.5013270872416
  0
LINE
  5
7F8F
330
18
100
AcDbEntity
  8
DRAW2
100
AcDbLine
 10
2020.951452049514
 20
143.5161270872415
 30
0.0
 11
2111.108562049514
 21
143.5161270872415
 31
0.0
  0
LINE
  5
7F90
330
18
100
AcDbEntity
  8
DRAW2
100
AcDbLine
 10
2184.030002049515
 20
423.3856570872415
 30
0.0
 11
1948.030002049514
 21
423.3856570872415
 31
0.0
  0
LINE
  5
7F91
330
18
100
AcDbEntity
  8
DRAW2
100
AcDbLine
 10
2189.030002049514
 20
375.3856570872414
 30
0.0
 11
1943.030002049514
 21
375.3856570872414
 31
0.0
  0
LINE
  5
7F92
330
18
100
AcDbEntity
  8
DRAW2
100
AcDbLine
 10
1935.606068639261
 20
258.3856426908886
 30
0.0
 11
1945.652012049515
 21
373.2113370872415
 31
0.0
  0
LINE
  5
7F94
330
18
100
AcDbEntity
  8
DRAW2
100
AcDbLine
 10
1998.806400102518
 20
209.0857270872414
 30
0.0
 11
2018.448309948838
 21
209.0857270872414
 31
0.0
  0
LINE
  5
7F95
330
18
100
AcDbEntity
  8
DRAW2
100
AcDbLine
 10
1998.460167224047
 20
210.8856270872415
 30
0.0
 11
2018.794796874981
 21
210.8856270872415
 31
0.0
  0
ARC
  5
7F96
330
18
100
AcDbEntity
  8
DRAW2
100
AcDbCircle
 10
2015.993047285398
 20
205.4209718660815
 30
0.0
 40
4.337441655125864
100
AcDbArc
 50
235.5242942659133
 51
295.5239102553667
  0
LINE
  5
7F97
330
18
100
AcDbEntity
  8
DRAW2
100
AcDbLine
 10
2000.122158572798
 20
201.0857270872414
 30
0.0
 11
2017.132596595318
 21
201.0857270872414
 31
0.0
  0
LWPOLYLINE
  5
7F98
330
18
100
AcDbEntity
  8
DRAW2
100
AcDbPolyline
 90
        4
 70
     0
 43
0.0
 10
1975.270662049514
 20
153.4469270872416
 42
0.014183862
 10
1988.968322049514
 20
149.4998270872415
 42
0.014391435
 10
2002.869412049514
 20
146.3413270872415
 42
0.014536809
 10
2016.928872049514
 20
143.9920270872416
  0
LWPOLYLINE
  5
7F99
330
18
100
AcDbEntity
  8
DRAW2
100
AcDbPolyline
 90
        4
 70
     0
 43
0.0
 10
1976.272562049514
 20
153.4469270872416
 42
0.013614683
 10
1989.423982049514
 20
149.6015270872416
 42
0.013800489
 10
2002.766712049514
 20
146.4823270872416
 42
0.013943278
 10
2016.260902049514
 20
144.1082270872415
  0
LWPOLYLINE
  5
7F9A
330
18
100
AcDbEntity
  8
DRAW2
100
AcDbPolyline
 90
        4
 70
     0
 43
0.0
 10
1993.380342049514
 20
153.4469270872416
 42
0.012520847
 10
2007.947822049514
 20
149.5933270872417
 42
0.012611737
 10
2022.690692049514
 20
146.4764270872417
 42
0.012658122
 10
2037.571692049514
 20
144.1082270872415
  0
LWPOLYLINE
  5
7F9B
330
18
100
AcDbEntity
  8
DRAW2
100
AcDbPolyline
 90
        4
 70
     0
 43
0.0
 10
1995.441562049514
 20
153.4469270872416
 42
0.011952006
 10
2009.342372049514
 20
149.7908270872416
 42
0.012036502
 10
2023.402462049515
 20
146.8053270872417
 42
0.01207857
 10
2037.590122049514
 20
144.5013270872416
  0
LWPOLYLINE
  5
7F9C
330
18
100
AcDbEntity
  8
DRAW2
100
AcDbPolyline
 90
        4
 70
     0
 43
0.0
 10
1997.195412049514
 20
160.1986270872416
 42
0.011686112
 10
2010.520392049514
 20
156.6936270872415
 42
0.011761897
 10
2023.994972049514
 20
153.8170270872417
 42
0.0118088
 10
2037.590122049514
 20
151.5786270872415
  0
LWPOLYLINE
  5
7F9E
330
18
100
AcDbEntity
  8
DRAW2
100
AcDbPolyline
 90
        7
 70
     0
 43
0.0
 10
1976.858132049514
 20
160.1986270872416
 42
-0.033323924
 10
1973.610512049514
 20
161.4784270872416
 42
-0.032281273
 10
1970.558062049514
 20
163.1720270872414
 42
-0.030714823
 10
1967.741942049514
 20
165.2354270872415
 42
-0.029075518
 10
1965.192612049514
 20
167.6207270872416
 42
-0.027652521
 10
1962.929332049514
 20
170.2792270872416
 42
-0.026097205
 10
1960.962862049514
 20
173.1657270872417
  0
LWPOLYLINE
  5
7F9F
330
18
100
AcDbEntity
  8
DRAW2
100
AcDbPolyline
 90
        7
 70
     0
 43
0.0
 10
1977.845372049514
 20
160.1986270872416
 42
-0.033589973
 10
1974.618202049514
 20
161.4833270872415
 42
-0.032439769
 10
1971.588052049514
 20
163.1816270872415
 42
-0.030704864
 10
1968.795262049514
 20
165.2477270872416
 42
-0.028996302
 10
1966.268922049514
 20
167.6324270872416
 42
-0.027517673
 10
1964.027292049514
 20
170.2868270872415
 42
-0.025921001
 10
1962.080112049514
 20
173.1657270872417
  0
LWPOLYLINE
  5
7FA0
330
18
100
AcDbEntity
  8
DRAW2
100
AcDbPolyline
 90
        7
 70
     0
 43
0.0
 10
1975.270662049514
 20
153.4469270872416
 42
-0.033429398
 10
1971.361862049514
 20
154.9908270872415
 42
-0.03239074
 10
1967.689212049514
 20
157.0341270872415
 42
-0.030746178
 10
1964.302392049514
 20
159.5234270872417
 42
-0.029090136
 10
1961.237522049514
 20
162.3999270872416
 42
-0.027650252
 10
1958.517682049514
 20
165.6050270872414
 42
-0.026055499
 10
1956.155312049514
 20
169.0838270872415
  0
LWPOLYLINE
  5
7FA1
330
18
100
AcDbEntity
  8
DRAW2
100
AcDbPolyline
 90
        7
 70
     0
 43
0.0
 10
1976.272562049514
 20
153.4469270872416
 42
-0.033706738
 10
1972.387062049515
 20
154.9970270872415
 42
-0.032476952
 10
1968.739662049514
 20
157.0458270872415
 42
-0.030744011
 10
1965.379012049514
 20
159.5379270872415
 42
-0.029006334
 10
1962.339932049514
 20
162.4137270872415
 42
-0.027514557
 10
1959.644212049514
 20
165.6138270872415
 42
-0.025887965
 10
1957.303202049514
 20
169.0838270872415
  0
LWPOLYLINE
  5
7FA2
330
18
100
AcDbEntity
  8
DRAW2
100
AcDbPolyline
 90
        7
 70
     0
 43
0.0
 10
1961.839502049514
 20
210.8859270872417
 42
0.012068842
 10
1964.017852049514
 20
204.2582270872416
 42
0.012186581
 10
1966.514992049514
 20
197.7446270872416
 42
0.01233497
 10
1969.328262049514
 20
191.3612270872415
 42
0.012464857
 10
1972.454572049514
 20
185.1252270872416
 42
0.012644087
 10
1975.889952049515
 20
179.0539270872415
 42
0.012809759
 10
1979.629312049514
 20
173.1657270872417
  0
LWPOLYLINE
  5
7FA3
330
18
100
AcDbEntity
  8
DRAW2
100
AcDbPolyline
 90
        7
 70
     0
 43
0.0
 10
1953.235052049514
 20
210.8850270872416
 42
0.012551559
 10
1955.523922049514
 20
203.5381270872417
 42
0.01269527
 10
1958.180742049514
 20
196.3160270872415
 42
0.012827112
 10
1961.202362049514
 20
189.2389270872415
 42
0.012978232
 10
1964.585132049514
 20
182.3271270872416
 42
0.013173216
 10
1968.324562049514
 20
175.6016270872416
 42
0.013349049
 10
1972.415072049514
 20
169.0838270872415
  0
LWPOLYLINE
  5
7FA4
330
18
100
AcDbEntity
  8
DRAW2
100
AcDbPolyline
 90
        7
 70
     0
 43
0.0
 10
1955.037312049515
 20
210.8864270872415
 42
0.012615495
 10
1957.337692049514
 20
203.5352270872415
 42
0.012757944
 10
1960.008032049515
 20
196.3102270872415
 42
0.012898915
 10
1963.045202049515
 20
189.2317270872415
 42
0.013048826
 10
1966.445552049514
 20
182.3202270872416
 42
0.013246947
 10
1970.204442049515
 20
175.5971270872416
 42
0.013423166
 10
1974.316202049514
 20
169.0838270872415
  0
LWPOLYLINE
  5
7FA5
330
18
100
AcDbEntity
  8
DRAW2
100
AcDbPolyline
 90
        7
 70
     0
 43
0.0
 10
1944.865852049514
 20
210.8859270872417
 42
0.011025681
 10
1946.819522049514
 20
204.3124270872417
 42
0.011224826
 10
1949.063552049514
 20
197.8331270872415
 42
0.011470332
 10
1951.599062049514
 20
191.4623270872416
 42
0.011716414
 10
1954.427132049515
 20
185.2159270872416
 42
0.012024762
 10
1957.548492049514
 20
179.1108270872416
 42
0.012344896
 10
1960.962862049514
 20
173.1657270872417
  0
LWPOLYLINE
  5
7FA6
330
18
100
AcDbEntity
  8
DRAW2
100
AcDbPolyline
 90
        7
 70
     0
 43
0.0
 10
1946.074962049514
 20
210.8849270872417
 42
0.010960625
 10
1948.017952049514
 20
204.3150270872415
 42
0.011158318
 10
1950.249452049514
 20
197.8382270872416
 42
0.011398845
 10
1952.770582049514
 20
191.4686270872416
 42
0.011641772
 10
1955.582402049514
 20
185.2219270872417
 42
0.011944552
 10
1958.685662049514
 20
179.1148270872415
 42
0.012260754
 10
1962.080112049514
 20
173.1657270872417
  0
LWPOLYLINE
  5
7FA7
330
18
100
AcDbEntity
  8
DRAW2
100
AcDbPolyline
 90
        7
 70
     0
 43
0.0
 10
1938.711342049514
 20
210.8864270872415
 42
0.011507561
 10
1940.773432049514
 20
203.5969270872417
 42
0.011735116
 10
1943.172272049514
 20
196.4113270872416
 42
0.011977712
 10
1945.908792049514
 20
189.3473270872416
 42
0.012250416
 10
1948.984282049514
 20
182.4243270872416
 42
0.012587545
 10
1952.399702049515
 20
175.6625270872416
 42
0.012936688
 10
1956.155312049514
 20
169.0838270872415
  0
LWPOLYLINE
  5
7FA8
330
18
100
AcDbEntity
  8
DRAW2
100
AcDbPolyline
 90
        7
 70
     0
 43
0.0
 10
1939.948212049514
 20
210.8850270872416
 42
0.011444895
 10
1942.000512049514
 20
203.5993270872415
 42
0.011671824
 10
1944.387382049514
 20
196.4162270872416
 42
0.011909552
 10
1947.109982049514
 20
189.3536270872416
 42
0.012180427
 10
1950.169612049514
 20
182.4303270872416
 42
0.012515091
 10
1953.567242049514
 20
175.6665270872415
 42
0.012855612
 10
1957.303202049514
 20
169.0838270872415
  0
LINE
  5
7FA9
330
18
100
AcDbEntity
  8
DRAW2
100
AcDbLine
 10
1937.263002049514
 20
167.3856270872415
 30
0.0
 11
1957.775763506039
 21
167.3856270872415
 31
0.0
  0
ARC
  5
7FAA
330
18
100
AcDbEntity
  8
DRAW2
100
AcDbCircle
 10
1948.248142049514
 20
-39.2545729127587
 30
0.0
 40
200.0
100
AcDbArc
 50
85.57794133004071
 51
93.14859528288941
  0
LINE
  5
7FAB
330
18
100
AcDbEntity
  8
DRAW2
100
AcDbLine
 10
1935.948073829235
 20
208.8856270872415
 30
0.0
 11
1937.263023829236
 21
208.1264270872416
 31
0.0
  0
ARC
  5
7FAC
330
18
100
AcDbEntity
  8
DRAW2
100
AcDbCircle
 10
1934.809269398698
 20
204.5407207426991
 30
0.0
 40
4.3449545
100
AcDbArc
 50
64.38234399999998
 51
124.3836499999999
  0
LINE
  5
7FAD
330
18
100
AcDbEntity
  8
DRAW2
100
AcDbLine
 10
1936.448092049514
 20
208.8856270872415
 30
0.0
 11
1936.448092049514
 21
210.8856270872415
 31
0.0
  0
LWPOLYLINE
  5
7FAE
330
18
100
AcDbEntity
  8
DRAW2
100
AcDbPolyline
 90
        7
 70
     0
 43
0.0
 10
1997.195412049514
 20
160.1986270872416
 42
-0.030114916
 10
1993.696982049514
 20
161.4399270872415
 42
-0.030028798
 10
1990.372922049514
 20
163.0914270872414
 42
-0.029487169
 10
1987.268382049514
 20
165.1254270872416
 42
-0.028938736
 10
1984.422232049514
 20
167.5087270872415
 42
-0.028466297
 10
1981.867872049514
 20
170.2017270872415
 42
-0.027708154
 10
1979.629312049514
 20
173.1657270872417
  0
LWPOLYLINE
  5
7FAF
330
18
100
AcDbEntity
  8
DRAW2
100
AcDbPolyline
 90
        7
 70
     0
 43
0.0
 10
1993.380342049514
 20
153.4469270872416
 42
-0.030446335
 10
1989.195042049514
 20
154.9497270872415
 42
-0.030197509
 10
1985.222632049515
 20
156.9471270872415
 42
-0.029610909
 10
1981.515852049514
 20
159.4040270872417
 42
-0.028954026
 10
1978.122562049514
 20
162.2785270872415
 42
-0.028308194
 10
1975.079912049514
 20
165.5209270872416
 42
-0.027514471
 10
1972.415072049514
 20
169.0838270872415
  0
LWPOLYLINE
  5
7FB0
330
18
100
AcDbEntity
  8
DRAW2
100
AcDbPolyline
 90
        7
 70
     0
 43
0.0
 10
1995.441562049514
 20
153.4469270872416
 42
-0.030209113
 10
1991.231062049514
 20
154.9442270872416
 42
-0.030117734
 10
1987.231532049514
 20
156.9365270872415
 42
-0.029543719
 10
1983.497522049514
 20
159.3902270872415
 42
-0.028966526
 10
1980.075542049514
 20
162.2645270872417
 42
-0.028468568
 10
1977.005682049514
 20
165.5114270872415
 42
-0.027663469
 10
1974.317542049514
 20
169.0818270872416
  0
LWPOLYLINE
  5
7FB1
330
18
100
AcDbEntity
  8
DRAW2
100
AcDbPolyline
 90
        4
 70
     0
 43
0.0
 10
1976.858132049514
 20
160.1986270872416
 42
0.002171694
 10
1978.911592049514
 20
159.5544270872414
 42
0.0021757477
 10
1980.970582049514
 20
158.9281270872415
 42
0.0021800223
 10
1983.034942049514
 20
158.3198270872417
  0
LWPOLYLINE
  5
7FB2
330
18
100
AcDbEntity
  8
DRAW2
100
AcDbPolyline
 90
        4
 70
     0
 43
0.0
 10
1977.845372049514
 20
160.1986270872416
 42
0.001582458
 10
1979.342102049514
 20
159.7224270872415
 42
0.0015845646
 10
1980.841822049514
 20
159.2556270872416
 42
0.0015867565
 10
1982.344472049514
 20
158.7985270872415
  0
LINE
  5
7FB3
330
18
100
AcDbEntity
  8
DRAW3
100
AcDbLine
 10
2012.877355565967
 20
191.3856830872414
 30
0.0
 11
2012.877355565966
 21
201.0857420872415
 31
0.0
  0
LINE
  5
7FB4
330
18
100
AcDbEntity
  8
DRAW2
100
AcDbLine
 10
2013.627355565967
 20
192.1356830872414
 30
0.0
 11
2013.627355565967
 21
201.0857420872415
 31
0.0
  0
LINE
  5
7FB5
330
18
100
AcDbEntity
  8
DRAW3
100
AcDbLine
 10
2004.377355565967
 20
191.3856830872414
 30
0.0
 11
2004.377355565968
 21
201.0857420872415
 31
0.0
  0
LINE
  5
7FB6
330
18
100
AcDbEntity
  8
DRAW2
100
AcDbLine
 10
2003.627482049514
 20
192.1356830872413
 30
0.0
 11
2003.627355565967
 21
201.0857420872415
 31
0.0
  0
LINE
  5
7FB7
330
18
100
AcDbEntity
  8
DRAW2
100
AcDbLine
 10
2012.877482049514
 20
191.3856830872414
 30
0.0
 11
2013.627482049514
 21
192.1356830872414
 31
0.0
  0
LINE
  5
7FB8
330
18
100
AcDbEntity
  8
DRAW2
100
AcDbLine
 10
2004.377482049514
 20
191.3856830872414
 30
0.0
 11
2003.627482049514
 21
192.1356830872414
 31
0.0
  0
LINE
  5
7FB9
330
18
100
AcDbEntity
  8
DRAW2
100
AcDbLine
 10
2012.877482049514
 20
191.3856830872414
 30
0.0
 11
2004.377482049514
 21
191.3856830872414
 31
0.0
  0
LINE
  5
7FBA
330
18
100
AcDbEntity
  8
DRAW2
100
AcDbLine
 10
2003.627482049514
 20
192.1356830872413
 30
0.0
 11
2013.627482049514
 21
192.1356830872414
 31
0.0
  0
ARC
  5
7FBB
330
18
100
AcDbEntity
  8
DRAW2
100
AcDbCircle
 10
2001.261639175873
 20
205.4210192795352
 30
0.0
 40
4.337441655125864
100
AcDbArc
 50
244.4757209284553
 51
304.4753369179073
  0
LINE
  5
7FBC
330
18
100
AcDbEntity
  8
DRAW2
100
AcDbLine
 10
1999.327336874982
 20
210.8856270872415
 30
0.0
 11
1999.327336874982
 21
209.0857270872414
 31
0.0
  0
LINE
  5
7FBD
330
18
100
AcDbEntity
  8
DRAW2
100
AcDbLine
 10
2000.122158572798
 20
201.0857270872414
 30
0.0
 11
1998.806400102518
 21
201.8453805942458
 31
0.0
  0
LINE
  5
7FBE
330
18
100
AcDbEntity
  8
DRAW2
100
AcDbLine
 10
1998.806400102518
 20
201.8453805942456
 30
0.0
 11
1998.806400102518
 21
209.0857270872414
 31
0.0
  0
LINE
  5
7FBF
330
18
100
AcDbEntity
  8
DRAW2
100
AcDbLine
 10
2008.877336874982
 20
209.0857270872415
 30
0.0
 11
2008.877336874982
 21
210.8856270872415
 31
0.0
  0
LINE
  5
7FC0
330
18
100
AcDbEntity
  8
DRAW2
100
AcDbLine
 10
2008.377336874981
 20
209.0857270872415
 30
0.0
 11
2008.377336874981
 21
210.8856270872415
 31
0.0
  0
ARC
  5
7FC1
330
18
100
AcDbEntity
  8
DRAW2
100
AcDbCircle
 10
2008.627392262331
 20
217.3370818955439
 30
0.0
 40
16.25135480830907
100
AcDbArc
 50
252.412573883284
 51
287.5870421061557
  0
LINE
  5
7FC2
330
18
100
AcDbEntity
  8
DRAW2
100
AcDbLine
 10
2013.537809183894
 20
201.8453312274631
 30
0.0
 11
2013.537814336572
 21
209.0857270872414
 31
0.0
  0
LINE
  5
7FC3
330
18
100
AcDbEntity
  8
DRAW2
100
AcDbLine
 10
2003.716871511315
 20
201.8453641386458
 30
0.0
 11
2003.716871511315
 21
209.0857270872414
 31
0.0
  0
LINE
  5
7FC4
330
18
100
AcDbEntity
  8
DRAW2
100
AcDbLine
 10
1936.448092049514
 20
251.3856570872416
 30
0.0
 11
1936.448092049514
 21
249.3856570872416
 31
0.0
  0
LINE
  5
7FC5
330
18
100
AcDbEntity
  8
DRAW2
100
AcDbLine
 10
1999.627482049514
 20
251.3856570872416
 30
0.0
 11
1999.627482049514
 21
249.3856570872416
 31
0.0
  0
LWPOLYLINE
  5
7FC6
330
18
100
AcDbEntity
  8
DRAW2
100
AcDbPolyline
 90
        7
 70
     0
 43
0.0
 10
2049.515042049514
 20
150.5733270872414
 42
0.00001179724
 10
2052.267342049514
 20
150.5732270872415
 42
0.0000073435074
 10
2055.018612049514
 20
150.5732270872415
 42
0.0000035323919
 10
2057.770782049514
 20
150.5733270872414
 42
0.00039784391
 10
2060.523182049514
 20
150.5734270872417
 42
-0.0000032359717
 10
2063.275722049514
 20
150.5735270872416
 42
-0.0000065881346
 10
2066.030002049514
 20
150.5736270872416
  0
LWPOLYLINE
  5
7FC7
330
18
100
AcDbEntity
  8
DRAW2
100
AcDbPolyline
 90
        7
 70
     0
 43
0.0
 10
2049.056552049515
 20
210.8856270872415
 42
-0.0012054136
 10
2048.860662049514
 20
204.5947270872416
 42
-0.0012779969
 10
2048.633542049514
 20
198.3051270872415
 42
-0.0013660039
 10
2048.373212049515
 20
192.0170270872415
 42
-0.0014794481
 10
2048.077132049515
 20
185.7302270872416
 42
-0.0016281943
 10
2047.742022049515
 20
179.4453270872415
 42
-0.0018096709
 10
2047.363992049514
 20
173.1657270872417
  0
LWPOLYLINE
  5
7FC8
330
18
100
AcDbEntity
  8
DRAW2
100
AcDbPolyline
 90
        7
 70
     0
 43
0.0
 10
2049.703742049514
 20
210.8863270872415
 42
-0.0012465682
 10
2049.497132049514
 20
203.9150270872416
 42
-0.001321527
 10
2049.254742049515
 20
196.9448270872416
 42
-0.0014183778
 10
2048.974222049514
 20
189.9762270872415
 42
-0.0015373007
 10
2048.652522049514
 20
183.0088270872415
 42
-0.0016957239
 10
2048.285762049514
 20
176.0418270872416
 42
-0.0018926883
 10
2047.869482049514
 20
169.0838270872415
  0
LWPOLYLINE
  5
7FC9
330
18
100
AcDbEntity
  8
DRAW2
100
AcDbPolyline
 90
        7
 70
     0
 43
0.0
 10
2052.743202049514
 20
210.8866270872415
 42
-0.0012399894
 10
2052.537502049514
 20
203.9153270872415
 42
-0.0013152877
 10
2052.296202049514
 20
196.9451270872416
 42
-0.0014080043
 10
2052.017012049514
 20
189.9764270872417
 42
-0.0015258916
 10
2051.696932049514
 20
183.0090270872417
 42
-0.0016806865
 10
2051.332262049514
 20
176.0438270872416
 42
-0.0018760126
 10
2050.918312049514
 20
169.0838270872415
  0
LWPOLYLINE
  5
7FCA
330
18
100
AcDbEntity
  8
DRAW2
100
AcDbPolyline
 90
        9
 70
     0
 43
0.0
 10
2016.260902049514
 20
144.1082270872415
 42
0.0012795172
 10
2016.845252049515
 20
144.0238270872416
 42
0.00099812388
 10
2017.430532049514
 20
143.9420270872417
 42
0.0033755232
 10
2018.016262049514
 20
143.8639270872415
 42
0.000099357442
 10
2018.602202049514
 20
143.7858270872415
 42
0.0015639922
 10
2019.188422049514
 20
143.7097270872415
 42
0.0013799932
 10
2019.775112049514
 20
143.6372270872416
 42
0.0024636571
 10
2020.363242049514
 20
143.5690270872416
 42
0.014570202
 10
2020.951452049514
 20
143.5161270872415
  0
LWPOLYLINE
  5
7FCB
330
18
100
AcDbEntity
  8
DRAW2
100
AcDbPolyline
 90
        7
 70
     0
 43
0.0
 10
2045.692722049514
 20
160.1986270872416
 42
0.031119096
 10
2046.205382049514
 20
162.3177270872415
 42
0.011932332
 10
2046.550262049514
 20
164.4718270872415
 42
0.0069412188
 10
2046.816252049514
 20
166.6377270872416
 42
0.0047800497
 10
2047.032272049514
 20
168.8090270872416
 42
0.0036161507
 10
2047.212112049514
 20
170.9842270872415
 42
0.0029184186
 10
2047.363712049514
 20
173.1614270872416
  0
LWPOLYLINE
  5
7FCC
330
18
100
AcDbEntity
  8
DRAW2
100
AcDbPolyline
 90
        7
 70
     0
 43
0.0
 10
2045.859592049514
 20
153.4469270872416
 42
0.031091385
 10
2046.476472049514
 20
156.0025270872415
 42
0.011911719
 10
2046.891222049514
 20
158.6001270872415
 42
0.0069321513
 10
2047.211022049514
 20
161.2120270872416
 42
0.0047634303
 10
2047.470702049514
 20
163.8302270872415
 42
0.0036045158
 10
2047.686902049514
 20
166.4532270872416
 42
0.0029116921
 10
2047.869152049514
 20
169.0787270872414
  0
LWPOLYLINE
  5
7FCD
330
18
100
AcDbEntity
  8
DRAW2
100
AcDbPolyline
 90
        7
 70
     0
 43
0.0
 10
2048.923682049514
 20
153.4469270872416
 42
0.030773186
 10
2049.535242049514
 20
156.0034270872417
 42
0.011791883
 10
2049.946772049514
 20
158.6011270872415
 42
0.0068670581
 10
2050.264232049515
 20
161.2129270872417
 42
0.0047228889
 10
2050.522132049514
 20
163.8309270872416
 42
0.003576888
 10
2050.736902049514
 20
166.4536270872415
 42
0.0028878584
 10
2050.917992049514
 20
169.0787270872414
  0
LWPOLYLINE
  5
7FCE
330
18
100
AcDbEntity
  8
DRAW2
100
AcDbPolyline
 90
        4
 70
     0
 43
0.0
 10
2048.923682049514
 20
153.4469270872416
 42
-0.012898248
 10
2047.782362049515
 20
150.2171270872415
 42
-0.020811978
 10
2046.431262049514
 20
147.0702270872416
 42
-0.041209157
 10
2044.719212049514
 20
144.1082270872415
  0
LWPOLYLINE
  5
7FCF
330
18
100
AcDbEntity
  8
DRAW2
100
AcDbPolyline
 90
        9
 70
     0
 43
0.0
 10
2044.719212049514
 20
144.1082270872415
 42
0.24877258
 10
2045.137882049514
 20
143.8600270872416
 42
0.020682782
 10
2045.657962049514
 20
143.7527270872417
 42
0.010811888
 10
2046.184192049514
 20
143.6764270872415
 42
0.0071478496
 10
2046.712422049514
 20
143.6186270872417
 42
0.006075577
 10
2047.242482049514
 20
143.5745270872416
 42
0.0057142011
 10
2047.773802049514
 20
143.5430270872416
 42
0.0054853779
 10
2048.305792049514
 20
143.5233270872415
 42
0.0063953248
 10
2048.838162049514
 20
143.5161270872415
  0
LWPOLYLINE
  5
7FD0
330
18
100
AcDbEntity
  8
DRAW2
100
AcDbPolyline
 90
        7
 70
     0
 43
0.0
 10
2037.590122049514
 20
151.5786270872415
 42
0.0091159953
 10
2038.301252049514
 20
151.4928270872417
 42
0.0079652109
 10
2039.015272049514
 20
151.4307270872415
 42
0.0083735272
 10
2039.731372049514
 20
151.3921270872415
 42
0.010705404
 10
2040.448512049514
 20
151.3800270872415
 42
0.018423884
 10
2041.165012049514
 20
151.4085270872417
 42
0.12172946
 10
2041.849462049514
 20
151.5786270872415
  0
LWPOLYLINE
  5
7FD1
330
18
100
AcDbEntity
  8
DRAW2
100
AcDbPolyline
 90
        9
 70
     0
 43
0.0
 10
2037.571692049514
 20
144.1082270872415
 42
-0.0050530862
 10
2037.944722049514
 20
144.0548270872415
 42
-0.0063729837
 10
2038.316712049514
 20
143.9929270872416
 42
-0.010029985
 10
2038.686052049514
 20
143.9193270872415
 42
-0.023382151
 10
2039.049732049514
 20
143.8228270872416
 42
-0.51827826
 10
2039.254282049514
 20
143.6214270872417
 42
-0.0751518
 10
2038.888592049514
 20
143.5453270872416
 42
-0.01535545
 10
2038.514142049514
 20
143.5221270872416
 42
-0.0085765564
 10
2038.140112049514
 20
143.5161270872415
  0
LWPOLYLINE
  5
7FD2
330
18
100
AcDbEntity
  8
DRAW2
100
AcDbPolyline
 90
        7
 70
     0
 43
0.0
 10
2037.590122049514
 20
144.5013270872416
 42
0.0089177885
 10
2038.301202049515
 20
144.4171270872415
 42
0.0078318732
 10
2039.015062049514
 20
144.3562270872416
 42
0.0082198394
 10
2039.730952049514
 20
144.3184270872418
 42
0.010467273
 10
2040.447852049514
 20
144.3066270872416
 42
0.018024772
 10
2041.164132049514
 20
144.3344270872414
 42
0.11958716
 10
2041.849462049514
 20
144.5013270872416
  0
LWPOLYLINE
  5
7FD3
330
18
100
AcDbEntity
  8
DRAW2
100
AcDbPolyline
 90
        4
 70
     0
 43
0.0
 10
2045.692722049514
 20
160.1986270872416
 42
-0.012360897
 10
2044.634232049514
 20
157.2264270872417
 42
-0.019421872
 10
2043.392862049514
 20
154.3258270872415
 42
-0.036418545
 10
2041.849462049514
 20
151.5786270872415
  0
LWPOLYLINE
  5
7FD4
330
18
100
AcDbEntity
  8
DRAW2
100
AcDbPolyline
 90
        4
 70
     0
 43
0.0
 10
2045.859592049514
 20
153.4469270872416
 42
-0.012571824
 10
2044.760522049514
 20
150.3589270872416
 42
-0.019932798
 10
2043.467662049514
 20
147.3477270872415
 42
-0.038075557
 10
2041.849462049514
 20
144.5013270872416
  0
LINE
  5
7FD5
330
18
100
AcDbEntity
  8
DRAW2
100
AcDbLine
 10
2017.927336874981
 20
209.0857270872415
 30
0.0
 11
2017.927336874981
 21
210.8856270872415
 31
0.0
  0
LINE
  5
7FD6
330
18
100
AcDbEntity
  8
DRAW2
100
AcDbLine
 10
2017.132497860379
 20
201.0856700834805
 30
0.0
 11
2018.448261422016
 21
201.8453147719274
 31
0.0
  0
LINE
  5
7FD7
330
18
100
AcDbEntity
  8
DRAW2
100
AcDbLine
 10
2018.448261422016
 20
201.8453147719274
 30
0.0
 11
2018.448309948838
 21
209.0857270872414
 31
0.0
  0
LWPOLYLINE
  5
7FD8
330
18
100
AcDbEntity
  8
DRAW2
100
AcDbPolyline
 90
        7
 70
     0
 43
0.0
 10
2083.003452049514
 20
210.8856270872415
 42
0.0012054136
 10
2083.199342049514
 20
204.5947270872416
 42
0.0012779969
 10
2083.426472049514
 20
198.3051270872415
 42
0.0013660039
 10
2083.686792049515
 20
192.0170270872415
 42
0.0014794481
 10
2083.982882049514
 20
185.7302270872416
 42
0.0016281943
 10
2084.317982049515
 20
179.4453270872415
 42
0.0018096709
 10
2084.696022049514
 20
173.1657270872417
  0
LWPOLYLINE
  5
7FD9
330
18
100
AcDbEntity
  8
DRAW2
100
AcDbPolyline
 90
        7
 70
     0
 43
0.0
 10
2082.356272049514
 20
210.8863270872415
 42
0.0012465682
 10
2082.562882049515
 20
203.9150270872416
 42
0.001321527
 10
2082.805272049514
 20
196.9448270872416
 42
0.0014183778
 10
2083.085782049515
 20
189.9762270872415
 42
0.0015373007
 10
2083.407492049514
 20
183.0088270872415
 42
0.0016957239
 10
2083.774252049515
 20
176.0418270872416
 42
0.0018926883
 10
2084.190532049514
 20
169.0838270872415
  0
LWPOLYLINE
  5
7FDA
330
18
100
AcDbEntity
  8
DRAW2
100
AcDbPolyline
 90
        7
 70
     0
 43
0.0
 10
2079.316812049515
 20
210.8866270872415
 42
0.0012399894
 10
2079.522512049514
 20
203.9153270872415
 42
0.0013152877
 10
2079.763802049514
 20
196.9451270872416
 42
0.0014080043
 10
2080.043002049514
 20
189.9764270872417
 42
0.0015258916
 10
2080.363072049514
 20
183.0090270872417
 42
0.0016806865
 10
2080.727742049514
 20
176.0438270872416
 42
0.0018760126
 10
2081.141702049514
 20
169.0838270872415
  0
LWPOLYLINE
  5
7FDB
330
18
100
AcDbEntity
  8
DRAW2
100
AcDbPolyline
 90
        7
 70
     0
 43
0.0
 10
2082.544972049514
 20
150.5733270872414
 42
-0.00001179724
 10
2079.792672049514
 20
150.5732270872415
 42
-0.0000073435074
 10
2077.041392049514
 20
150.5732270872415
 42
-0.0000035323919
 10
2074.289232049514
 20
150.5733270872414
 42
-0.00040025312
 10
2071.536822049514
 20
150.5734270872417
 42
0.0000032359717
 10
2068.784292049514
 20
150.5735270872416
 42
0.0000065881346
 10
2066.030002049514
 20
150.5736270872416
  0
LWPOLYLINE
  5
7FDC
330
18
100
AcDbEntity
  8
DRAW2
100
AcDbPolyline
 90
        7
 70
     0
 43
0.0
 10
2086.367282049514
 20
160.1986270872416
 42
-0.031119096
 10
2085.854632049514
 20
162.3177270872415
 42
-0.011932332
 10
2085.509752049514
 20
164.4718270872415
 42
-0.0069412188
 10
2085.243762049514
 20
166.6377270872416
 42
-0.0047800497
 10
2085.027742049514
 20
168.8090270872416
 42
-0.0036161507
 10
2084.847902049514
 20
170.9842270872415
 42
-0.0029184186
 10
2084.696292049514
 20
173.1614270872416
  0
LWPOLYLINE
  5
7FDD
330
18
100
AcDbEntity
  8
DRAW2
100
AcDbPolyline
 90
        7
 70
     0
 43
0.0
 10
2086.200412049515
 20
153.4469270872416
 42
-0.031091385
 10
2085.583542049514
 20
156.0025270872415
 42
-0.011911719
 10
2085.168782049514
 20
158.6001270872415
 42
-0.0069321513
 10
2084.848982049514
 20
161.2120270872416
 42
-0.0047634303
 10
2084.589312049514
 20
163.8302270872415
 42
-0.0036045158
 10
2084.373102049514
 20
166.4532270872416
 42
-0.0029116921
 10
2084.190852049514
 20
169.0787270872414
  0
LWPOLYLINE
  5
7FDE
330
18
100
AcDbEntity
  8
DRAW2
100
AcDbPolyline
 90
        7
 70
     0
 43
0.0
 10
2083.136332049514
 20
153.4469270872416
 42
-0.030773186
 10
2082.524762049514
 20
156.0034270872417
 42
-0.011791883
 10
2082.113242049514
 20
158.6011270872415
 42
-0.0068670581
 10
2081.795772049515
 20
161.2129270872417
 42
-0.0047228889
 10
2081.537882049514
 20
163.8309270872416
 42
-0.003576888
 10
2081.323112049514
 20
166.4536270872415
 42
-0.0028878584
 10
2081.142022049514
 20
169.0787270872414
  0
LWPOLYLINE
  5
7FDF
330
18
100
AcDbEntity
  8
DRAW2
100
AcDbPolyline
 90
        7
 70
     0
 43
0.0
 10
2094.469882049514
 20
151.5786270872415
 42
-0.0091159953
 10
2093.758752049514
 20
151.4928270872417
 42
-0.0079652109
 10
2093.044742049515
 20
151.4307270872415
 42
-0.0083735272
 10
2092.328642049514
 20
151.3921270872415
 42
-0.010705404
 10
2091.611492049514
 20
151.3800270872415
 42
-0.018423884
 10
2090.894992049514
 20
151.4085270872417
 42
-0.12172946
 10
2090.210552049514
 20
151.5786270872415
  0
LWPOLYLINE
  5
7FE0
330
18
100
AcDbEntity
  8
DRAW2
100
AcDbPolyline
 90
        7
 70
     0
 43
0.0
 10
2094.469882049514
 20
144.5013270872416
 42
-0.0089177885
 10
2093.758812049514
 20
144.4171270872415
 42
-0.0078318732
 10
2093.044952049515
 20
144.3562270872416
 42
-0.0082198394
 10
2092.329052049514
 20
144.3184270872418
 42
-0.010467273
 10
2091.612162049514
 20
144.3066270872416
 42
-0.018024772
 10
2090.895882049514
 20
144.3344270872414
 42
-0.11958716
 10
2090.210552049514
 20
144.5013270872416
  0
LWPOLYLINE
  5
7FE1
330
18
100
AcDbEntity
  8
DRAW2
100
AcDbPolyline
 90
        4
 70
     0
 43
0.0
 10
2086.367282049514
 20
160.1986270872416
 42
0.012360897
 10
2087.425782049515
 20
157.2264270872417
 42
0.019421872
 10
2088.667152049514
 20
154.3258270872415
 42
0.036418545
 10
2090.210552049514
 20
151.5786270872415
  0
LWPOLYLINE
  5
7FE2
330
18
100
AcDbEntity
  8
DRAW2
100
AcDbPolyline
 90
        4
 70
     0
 43
0.0
 10
2086.200412049515
 20
153.4469270872416
 42
0.012571824
 10
2087.299492049515
 20
150.3589270872416
 42
0.019932798
 10
2088.592352049514
 20
147.3477270872415
 42
0.038075557
 10
2090.210552049514
 20
144.5013270872416
  0
LWPOLYLINE
  5
7FE3
330
18
100
AcDbEntity
  8
DRAW2
100
AcDbPolyline
 90
        4
 70
     0
 43
0.0
 10
2083.136332049514
 20
153.4469270872416
 42
0.012898248
 10
2084.277652049514
 20
150.2171270872415
 42
0.020811978
 10
2085.628752049514
 20
147.0702270872416
 42
0.041209157
 10
2087.340792049514
 20
144.1082270872415
  0
LWPOLYLINE
  5
7FE4
330
18
100
AcDbEntity
  8
DRAW2
100
AcDbPolyline
 90
        9
 70
     0
 43
0.0
 10
2087.340792049514
 20
144.1082270872415
 42
-0.24877258
 10
2086.922132049514
 20
143.8600270872416
 42
-0.020682782
 10
2086.402042049514
 20
143.7527270872417
 42
-0.010811888
 10
2085.875822049514
 20
143.6764270872415
 42
-0.0071478496
 10
2085.347592049515
 20
143.6186270872417
 42
-0.006075577
 10
2084.817532049514
 20
143.5745270872416
 42
-0.0057142011
 10
2084.286212049514
 20
143.5430270872416
 42
-0.0054853779
 10
2083.754222049514
 20
143.5233270872415
 42
-0.0063953248
 10
2083.221852049514
 20
143.5161270872415
  0
LWPOLYLINE
  5
7FE5
330
18
100
AcDbEntity
  8
DRAW2
100
AcDbPolyline
 90
        9
 70
     0
 43
0.0
 10
2094.488322049515
 20
144.1082270872415
 42
0.0050530862
 10
2094.115282049514
 20
144.0548270872415
 42
0.0063729837
 10
2093.743302049514
 20
143.9929270872416
 42
0.010029985
 10
2093.373952049514
 20
143.9193270872415
 42
0.023382151
 10
2093.010282049515
 20
143.8228270872416
 42
0.51827826
 10
2092.805732049514
 20
143.6214270872417
 42
0.0751518
 10
2093.171422049514
 20
143.5453270872416
 42
0.01535545
 10
2093.545862049514
 20
143.5221270872416
 42
0.0085765564
 10
2093.919902049514
 20
143.5161270872415
  0
LINE
  5
7FE6
330
18
100
AcDbEntity
  8
DRAW2
100
AcDbLine
 10
2017.627482049514
 20
251.3856570872416
 30
0.0
 11
2017.627482049514
 21
249.3856570872416
 31
0.0
  0
LINE
  5
7FE7
330
18
100
AcDbEntity
  8
DRAW2
100
AcDbLine
 10
1943.030002049514
 20
418.3856570872414
 30
0.0
 11
1943.030002049514
 21
375.3856570872414
 31
0.0
  0
ARC
  5
7FE8
330
18
100
AcDbEntity
  8
DRAW2
100
AcDbCircle
 10
1943.659582049514
 20
373.3856570872414
 30
0.0
 40
2.0
100
AcDbArc
 50
355.0
 51
90.00000300000001
  0
LINE
  5
7FE9
330
18
100
AcDbEntity
  8
DRAW2
100
AcDbLine
 10
1943.030002049514
 20
418.3856870872415
 30
0.0
 11
1948.030002049514
 21
423.3856870872415
 31
0.0
  0
LINE
  5
7FEA
330
18
100
AcDbEntity
  8
DRAW2
100
AcDbLine
 10
2051.030002049514
 20
442.3856570872414
 30
0.0
 11
2081.030002049514
 21
442.3856570872414
 31
0.0
  0
LINE
  5
7FEC
330
18
100
AcDbEntity
  8
DRAW2
100
AcDbLine
 10
2046.250032049514
 20
440.8856570872415
 30
0.0
 11
2031.500032049514
 21
440.8856570872415
 31
0.0
  0
LINE
  5
7FED
330
18
100
AcDbEntity
  8
DRAW2
100
AcDbLine
 10
2046.250032049514
 20
429.8856570872414
 30
0.0
 11
2031.500032049514
 21
429.8856570872414
 31
0.0
  0
LINE
  5
7FEE
330
18
100
AcDbEntity
  8
DRAW2
100
AcDbLine
 10
2031.500032049514
 20
429.8856570872414
 30
0.0
 11
2031.500032049514
 21
440.8856570872415
 31
0.0
  0
LINE
  5
7FEF
330
18
100
AcDbEntity
  8
DRAW2
100
AcDbLine
 10
2046.250032049514
 20
429.8856570872414
 30
0.0
 11
2046.250032049514
 21
440.8856570872415
 31
0.0
  0
LINE
  5
7FF0
330
18
100
AcDbEntity
  8
DRAW2
100
AcDbLine
 10
2048.530002049514
 20
440.3277660221533
 30
0.0
 11
2048.530002049514
 21
430.4435470872415
 31
0.0
  0
LINE
  5
7FF1
330
18
100
AcDbEntity
  8
DRAW2
100
AcDbLine
 10
2051.030002049514
 20
442.3856570872414
 30
0.0
 11
2051.030002049514
 21
423.3856570872415
 31
0.0
  0
ARC
  5
7FF2
330
18
100
AcDbEntity
  8
DRAW2
100
AcDbCircle
 10
2046.750032049514
 20
429.9102770872415
 30
0.0
 40
0.5
100
AcDbArc
 50
89.99999599999993
 51
180.00001
  0
LINE
  5
7FF3
330
18
100
AcDbEntity
  8
DRAW3
100
AcDbLine
 10
2047.465542049514
 20
430.4102770872415
 30
0.0
 11
2048.530002049514
 21
431.0248470872415
 31
0.0
  0
LINE
  5
7FF4
330
18
100
AcDbEntity
  8
DRAW2
100
AcDbLine
 10
2047.465542049514
 20
430.4102770872415
 30
0.0
 11
2046.750032049514
 21
430.4102770872415
 31
0.0
  0
LINE
  5
7FF5
330
18
100
AcDbEntity
  8
DRAW2
100
AcDbLine
 10
2047.465542049514
 20
430.4102470872415
 30
0.0
 11
2051.030002049514
 21
430.5216417631395
 31
0.0
  0
LINE
  5
7FF6
330
18
100
AcDbEntity
  8
DRAW3
100
AcDbLine
 10
2048.530002049514
 20
431.0248170872414
 30
0.0
 11
2051.030002049514
 21
431.1029504189262
 31
0.0
  0
LINE
  5
7FF7
330
18
100
AcDbEntity
  8
DRAW2
100
AcDbLine
 10
2051.030002049514
 20
423.3856570872415
 30
0.0
 11
2055.780002049514
 21
423.3856570872415
 31
0.0
  0
ARC
  5
7FF8
330
18
100
AcDbEntity
  8
DRAW2
100
AcDbCircle
 10
2046.750032049514
 20
440.8610570872415
 30
0.0
 40
0.5
100
AcDbArc
 50
179.9999899999999
 51
270.0
  0
LINE
  5
7FF9
330
18
100
AcDbEntity
  8
DRAW2
100
AcDbLine
 10
2056.030032049514
 20
442.3856570872414
 30
0.0
 11
2056.361242049514
 21
446.1713270872414
 31
0.0
  0
LINE
  5
7FFA
330
18
100
AcDbEntity
  8
DRAW3
100
AcDbLine
 10
2047.465542049514
 20
440.3610570872415
 30
0.0
 11
2048.530002049514
 21
439.7464970872415
 31
0.0
  0
LINE
  5
7FFB
330
18
100
AcDbEntity
  8
DRAW2
100
AcDbLine
 10
2047.465542049514
 20
440.3610570872415
 30
0.0
 11
2046.750032049514
 21
440.3610570872415
 31
0.0
  0
LINE
  5
7FFC
330
18
100
AcDbEntity
  8
DRAW2
100
AcDbLine
 10
2047.465542049514
 20
440.3610270872414
 30
0.0
 11
2051.030002049514
 21
440.2496487958412
 31
0.0
  0
ARC
  5
7FFD
330
18
100
AcDbEntity
  8
DRAW2
100
AcDbCircle
 10
2046.399262049515
 20
447.0429070872414
 30
0.0
 40
10.0
100
AcDbArc
 50
355.0
 51
49.93689999999998
  0
LINE
  5
7FFE
330
18
100
AcDbEntity
  8
DRAW3
100
AcDbLine
 10
2048.530002049514
 20
439.7464970872415
 30
0.0
 11
2051.030002049514
 21
439.6683746229951
 31
0.0
  0
LINE
  5
7FFF
330
18
100
AcDbEntity
  8
DRAW2
100
AcDbLine
 10
2066.030002049514
 20
442.3856570872414
 30
0.0
 11
2066.030002049514
 21
423.3856570872415
 31
0.0
  0
LINE
  5
8000
330
18
100
AcDbEntity
  8
DRAW2
100
AcDbLine
 10
2076.030002049515
 20
442.3856570872414
 30
0.0
 11
2075.698792049514
 21
446.1713270872414
 31
0.0
  0
ARC
  5
8001
330
18
100
AcDbEntity
  8
DRAW2
100
AcDbCircle
 10
2085.660732049515
 20
447.0429070872414
 30
0.0
 40
10.0
100
AcDbArc
 50
130.0630999999999
 51
185.0
  0
LINE
  5
8002
330
18
100
AcDbEntity
  8
DRAW2
100
AcDbLine
 10
2081.030002049514
 20
442.3856570872414
 30
0.0
 11
2081.030002049514
 21
423.3856570872415
 31
0.0
  0
LINE
  5
8003
330
18
100
AcDbEntity
  8
DRAW2
100
AcDbLine
 10
2196.453998769743
 20
258.3856714834829
 30
0.0
 11
2186.407992049514
 21
373.2113370872415
 31
0.0
  0
ARC
  5
8004
330
18
100
AcDbEntity
  8
DRAW2
100
AcDbCircle
 10
2183.329992049514
 20
127.3857270872415
 30
0.0
 40
25.0
100
AcDbArc
 50
62.6982432645294
 51
90.00000865142219
  0
LWPOLYLINE
  5
8005
330
18
100
AcDbEntity
  8
DRAW2
100
AcDbPolyline
 90
        7
 70
     0
 43
0.0
 10
2193.348672049515
 20
210.8864270872415
 42
-0.011507561
 10
2191.286582049514
 20
203.5969270872417
 42
-0.011735116
 10
2188.887742049514
 20
196.4113270872416
 42
-0.011977712
 10
2186.151222049514
 20
189.3473270872416
 42
-0.012250416
 10
2183.075722049514
 20
182.4243270872416
 42
-0.012587545
 10
2179.660312049514
 20
175.6625270872416
 42
-0.012936688
 10
2175.904702049514
 20
169.0838270872415
  0
LWPOLYLINE
  5
8006
330
18
100
AcDbEntity
  8
DRAW2
100
AcDbPolyline
 90
        7
 70
     0
 43
0.0
 10
2192.111802049514
 20
210.8850270872416
 42
-0.011444895
 10
2190.059502049515
 20
203.5993270872415
 42
-0.011671824
 10
2187.672632049514
 20
196.4162270872416
 42
-0.011909552
 10
2184.950022049514
 20
189.3536270872416
 42
-0.012180427
 10
2181.890402049514
 20
182.4303270872416
 42
-0.012515091
 10
2178.492762049514
 20
175.6665270872415
 42
-0.012855612
 10
2174.756812049514
 20
169.0838270872415
  0
LWPOLYLINE
  5
8008
330
18
100
AcDbEntity
  8
DRAW2
100
AcDbPolyline
 90
        7
 70
     0
 43
0.0
 10
2134.864602049514
 20
160.1986270872416
 42
0.030114916
 10
2138.363032049515
 20
161.4399270872415
 42
0.030028798
 10
2141.687092049515
 20
163.0914270872414
 42
0.029487169
 10
2144.791622049514
 20
165.1254270872416
 42
0.028938736
 10
2147.637782049514
 20
167.5087270872415
 42
0.028466297
 10
2150.192142049514
 20
170.2017270872415
 42
0.027708154
 10
2152.430702049514
 20
173.1657270872417
  0
LWPOLYLINE
  5
8009
330
18
100
AcDbEntity
  8
DRAW2
100
AcDbPolyline
 90
        7
 70
     0
 43
0.0
 10
2138.679662049514
 20
153.4469270872416
 42
0.030446335
 10
2142.864972049514
 20
154.9497270872415
 42
0.030197509
 10
2146.837372049514
 20
156.9471270872415
 42
0.029610909
 10
2150.544162049514
 20
159.4040270872417
 42
0.028954026
 10
2153.937452049514
 20
162.2785270872415
 42
0.028308194
 10
2156.980092049514
 20
165.5209270872416
 42
0.027514471
 10
2159.644932049515
 20
169.0838270872415
  0
LWPOLYLINE
  5
800A
330
18
100
AcDbEntity
  8
DRAW2
100
AcDbPolyline
 90
        7
 70
     0
 43
0.0
 10
2136.618442049515
 20
153.4469270872416
 42
0.030209113
 10
2140.828942049514
 20
154.9442270872416
 42
0.030117734
 10
2144.828472049514
 20
156.9365270872415
 42
0.029543719
 10
2148.562492049514
 20
159.3902270872415
 42
0.028966526
 10
2151.984462049514
 20
162.2645270872417
 42
0.028468568
 10
2155.054322049514
 20
165.5114270872415
 42
0.027663469
 10
2157.742472049514
 20
169.0818270872416
  0
LWPOLYLINE
  5
800B
330
18
100
AcDbEntity
  8
DRAW2
100
AcDbPolyline
 90
        4
 70
     0
 43
0.0
 10
2156.789342049515
 20
153.4469270872416
 42
-0.014183862
 10
2143.091682049515
 20
149.4998270872415
 42
-0.014391435
 10
2129.190592049514
 20
146.3413270872415
 42
-0.014536809
 10
2115.131142049514
 20
143.9920270872416
  0
LWPOLYLINE
  5
800C
330
18
100
AcDbEntity
  8
DRAW2
100
AcDbPolyline
 90
        4
 70
     0
 43
0.0
 10
2155.787452049514
 20
153.4469270872416
 42
-0.013614683
 10
2142.636022049514
 20
149.6015270872416
 42
-0.013800489
 10
2129.293302049514
 20
146.4823270872416
 42
-0.013943278
 10
2115.799112049514
 20
144.1082270872415
  0
LWPOLYLINE
  5
800D
330
18
100
AcDbEntity
  8
DRAW2
100
AcDbPolyline
 90
        9
 70
     0
 43
0.0
 10
2115.799112049514
 20
144.1082270872415
 42
-0.0012795172
 10
2115.214752049514
 20
144.0238270872416
 42
-0.00099812388
 10
2114.629482049514
 20
143.9420270872417
 42
-0.0033755232
 10
2114.043752049514
 20
143.8639270872415
 42
-0.000099357442
 10
2113.457802049514
 20
143.7858270872415
 42
-0.0015639922
 10
2112.871582049514
 20
143.7097270872415
 42
-0.0013799932
 10
2112.284902049514
 20
143.6372270872416
 42
-0.0024636571
 10
2111.696762049514
 20
143.5690270872416
 42
-0.014570202
 10
2111.108562049514
 20
143.5161270872415
  0
LINE
  5
800E
330
18
100
AcDbEntity
  8
DRAW2
100
AcDbLine
 10
2113.611450102518
 20
209.0857270872414
 30
0.0
 11
2133.253359948838
 21
209.0857270872414
 31
0.0
  0
LINE
  5
800F
330
18
100
AcDbEntity
  8
DRAW2
100
AcDbLine
 10
2113.265217224048
 20
210.8856270872415
 30
0.0
 11
2133.599846874981
 21
210.8856270872415
 31
0.0
  0
LINE
  5
8010
330
18
100
AcDbEntity
  8
DRAW2
100
AcDbLine
 10
2127.682405565967
 20
191.3856830872414
 30
0.0
 11
2119.182405565967
 21
191.3856830872414
 31
0.0
  0
LINE
  5
8011
330
18
100
AcDbEntity
  8
DRAW2
100
AcDbLine
 10
2118.432405565967
 20
192.1356830872413
 30
0.0
 11
2128.432405565967
 21
192.1356830872414
 31
0.0
  0
LINE
  5
8012
330
18
100
AcDbEntity
  8
DRAW2
100
AcDbLine
 10
2114.927208572797
 20
201.0857270872414
 30
0.0
 11
2131.937646595318
 21
201.0857270872414
 31
0.0
  0
ARC
  5
8013
330
18
100
AcDbEntity
  8
DRAW2
100
AcDbCircle
 10
2123.432442262331
 20
217.3370818955439
 30
0.0
 40
16.25135480830907
100
AcDbArc
 50
252.4125738832839
 51
287.5870421061559
  0
LINE
  5
8014
330
18
100
AcDbEntity
  8
DRAW3
100
AcDbLine
 10
2119.182405565967
 20
191.3856830872414
 30
0.0
 11
2119.182405565968
 21
201.0857420872415
 31
0.0
  0
LINE
  5
8015
330
18
100
AcDbEntity
  8
DRAW2
100
AcDbLine
 10
2118.432405565967
 20
192.1356830872413
 30
0.0
 11
2118.432405565967
 21
201.0857420872415
 31
0.0
  0
LINE
  5
8016
330
18
100
AcDbEntity
  8
DRAW2
100
AcDbLine
 10
2119.182405565967
 20
191.3856830872414
 30
0.0
 11
2118.432405565967
 21
192.1356830872414
 31
0.0
  0
LINE
  5
8017
330
18
100
AcDbEntity
  8
DRAW2
100
AcDbLine
 10
2114.132386874981
 20
210.8856270872415
 30
0.0
 11
2114.132386874981
 21
209.0857270872414
 31
0.0
  0
LINE
  5
8018
330
18
100
AcDbEntity
  8
DRAW2
100
AcDbLine
 10
2123.682386874981
 20
209.0857270872415
 30
0.0
 11
2123.682386874981
 21
210.8856270872415
 31
0.0
  0
LINE
  5
8019
330
18
100
AcDbEntity
  8
DRAW2
100
AcDbLine
 10
2123.182386874981
 20
209.0857270872415
 30
0.0
 11
2123.182386874981
 21
210.8856270872415
 31
0.0
  0
ARC
  5
801A
330
18
100
AcDbEntity
  8
DRAW2
100
AcDbCircle
 10
2116.066689175873
 20
205.4210192795352
 30
0.0
 40
4.337441655125864
100
AcDbArc
 50
244.4757209284554
 51
304.4753369179075
  0
LINE
  5
801B
330
18
100
AcDbEntity
  8
DRAW2
100
AcDbLine
 10
2114.927208572797
 20
201.0857270872414
 30
0.0
 11
2113.611450102518
 21
201.8453805942458
 31
0.0
  0
LINE
  5
801C
330
18
100
AcDbEntity
  8
DRAW2
100
AcDbLine
 10
2118.521921511315
 20
201.8453641386458
 30
0.0
 11
2118.521921511315
 21
209.0857270872414
 31
0.0
  0
LINE
  5
801D
330
18
100
AcDbEntity
  8
DRAW2
100
AcDbLine
 10
2113.611450102518
 20
201.8453805942456
 30
0.0
 11
2113.611450102518
 21
209.0857270872414
 31
0.0
  0
LINE
  5
801E
330
18
100
AcDbEntity
  8
DRAW3
100
AcDbLine
 10
2127.682405565967
 20
191.3856830872414
 30
0.0
 11
2127.682405565966
 21
201.0857420872415
 31
0.0
  0
LINE
  5
801F
330
18
100
AcDbEntity
  8
DRAW2
100
AcDbLine
 10
2128.432405565967
 20
192.1356830872414
 30
0.0
 11
2128.432405565967
 21
201.0857420872415
 31
0.0
  0
LINE
  5
8020
330
18
100
AcDbEntity
  8
DRAW2
100
AcDbLine
 10
2127.682405565967
 20
191.3856830872414
 30
0.0
 11
2128.432405565967
 21
192.1356830872414
 31
0.0
  0
LINE
  5
8021
330
18
100
AcDbEntity
  8
DRAW2
100
AcDbLine
 10
2132.732386874982
 20
209.0857270872415
 30
0.0
 11
2132.732386874982
 21
210.8856270872415
 31
0.0
  0
ARC
  5
8022
330
18
100
AcDbEntity
  8
DRAW2
100
AcDbCircle
 10
2130.798097285398
 20
205.4209718660815
 30
0.0
 40
4.337441655125864
100
AcDbArc
 50
235.5242942659136
 51
295.5239102553666
  0
LINE
  5
8023
330
18
100
AcDbEntity
  8
DRAW2
100
AcDbLine
 10
2131.937547860379
 20
201.0856700834805
 30
0.0
 11
2133.253311422016
 21
201.8453147719274
 31
0.0
  0
LINE
  5
8024
330
18
100
AcDbEntity
  8
DRAW2
100
AcDbLine
 10
2128.342859183893
 20
201.8453312274631
 30
0.0
 11
2128.342864336572
 21
209.0857270872414
 31
0.0
  0
LINE
  5
8025
330
18
100
AcDbEntity
  8
DRAW2
100
AcDbLine
 10
2133.253311422016
 20
201.8453147719274
 30
0.0
 11
2133.253359948838
 21
209.0857270872414
 31
0.0
  0
LWPOLYLINE
  5
8026
330
18
100
AcDbEntity
  8
DRAW2
100
AcDbPolyline
 90
        7
 70
     0
 43
0.0
 10
2187.194162049514
 20
210.8859270872417
 42
-0.011025681
 10
2185.240492049514
 20
204.3124270872417
 42
-0.011224826
 10
2182.996462049514
 20
197.8331270872415
 42
-0.011470332
 10
2180.460952049514
 20
191.4623270872416
 42
-0.011716414
 10
2177.632882049514
 20
185.2159270872416
 42
-0.012024762
 10
2174.511522049514
 20
179.1108270872416
 42
-0.012344896
 10
2171.097142049514
 20
173.1657270872417
  0
LWPOLYLINE
  5
8027
330
18
100
AcDbEntity
  8
DRAW2
100
AcDbPolyline
 90
        7
 70
     0
 43
0.0
 10
2185.985042049514
 20
210.8849270872417
 42
-0.010960625
 10
2184.042062049515
 20
204.3150270872415
 42
-0.011158318
 10
2181.810562049514
 20
197.8382270872416
 42
-0.011398845
 10
2179.289432049514
 20
191.4686270872416
 42
-0.011641772
 10
2176.477612049514
 20
185.2219270872417
 42
-0.011944552
 10
2173.374352049514
 20
179.1148270872415
 42
-0.012260754
 10
2169.979892049514
 20
173.1657270872417
  0
LWPOLYLINE
  5
8028
330
18
100
AcDbEntity
  8
DRAW2
100
AcDbPolyline
 90
        7
 70
     0
 43
0.0
 10
2170.220512049514
 20
210.8859270872417
 42
-0.012068842
 10
2168.042152049515
 20
204.2582270872416
 42
-0.012186581
 10
2165.545012049514
 20
197.7446270872416
 42
-0.01233497
 10
2162.731742049514
 20
191.3612270872415
 42
-0.012464857
 10
2159.605442049514
 20
185.1252270872416
 42
-0.012644087
 10
2156.170062049514
 20
179.0539270872415
 42
-0.012809759
 10
2152.430702049514
 20
173.1657270872417
  0
LWPOLYLINE
  5
8029
330
18
100
AcDbEntity
  8
DRAW2
100
AcDbPolyline
 90
        7
 70
     0
 43
0.0
 10
2178.824962049514
 20
210.8850270872416
 42
-0.012551559
 10
2176.536092049514
 20
203.5381270872417
 42
-0.01269527
 10
2173.879262049514
 20
196.3160270872415
 42
-0.012827112
 10
2170.857652049514
 20
189.2389270872415
 42
-0.012978232
 10
2167.474882049514
 20
182.3271270872416
 42
-0.013173216
 10
2163.735452049514
 20
175.6016270872416
 42
-0.013349049
 10
2159.644932049515
 20
169.0838270872415
  0
LWPOLYLINE
  5
802A
330
18
100
AcDbEntity
  8
DRAW2
100
AcDbPolyline
 90
        7
 70
     0
 43
0.0
 10
2177.022702049514
 20
210.8864270872415
 42
-0.012615495
 10
2174.722322049514
 20
203.5352270872415
 42
-0.012757944
 10
2172.051972049514
 20
196.3102270872415
 42
-0.012898915
 10
2169.014812049514
 20
189.2317270872415
 42
-0.013048826
 10
2165.614462049514
 20
182.3202270872416
 42
-0.013246947
 10
2161.855572049514
 20
175.5971270872416
 42
-0.013423166
 10
2157.743812049514
 20
169.0838270872415
  0
LWPOLYLINE
  5
802B
330
18
100
AcDbEntity
  8
DRAW2
100
AcDbPolyline
 90
        7
 70
     0
 43
0.0
 10
2155.201882049514
 20
160.1986270872416
 42
0.033323924
 10
2158.449502049514
 20
161.4784270872416
 42
0.032281273
 10
2161.501952049515
 20
163.1720270872414
 42
0.030714823
 10
2164.318062049514
 20
165.2354270872415
 42
0.029075518
 10
2166.867402049514
 20
167.6207270872416
 42
0.027652521
 10
2169.130682049514
 20
170.2792270872416
 42
0.026097205
 10
2171.097142049514
 20
173.1657270872417
  0
LWPOLYLINE
  5
802C
330
18
100
AcDbEntity
  8
DRAW2
100
AcDbPolyline
 90
        7
 70
     0
 43
0.0
 10
2154.214632049515
 20
160.1986270872416
 42
0.033589973
 10
2157.441812049515
 20
161.4833270872415
 42
0.032439769
 10
2160.471962049514
 20
163.1816270872415
 42
0.030704864
 10
2163.264752049514
 20
165.2477270872416
 42
0.028996302
 10
2165.791082049514
 20
167.6324270872416
 42
0.027517673
 10
2168.032722049515
 20
170.2868270872415
 42
0.025921001
 10
2169.979892049514
 20
173.1657270872417
  0
LWPOLYLINE
  5
802D
330
18
100
AcDbEntity
  8
DRAW2
100
AcDbPolyline
 90
        7
 70
     0
 43
0.0
 10
2156.789342049515
 20
153.4469270872416
 42
0.033429398
 10
2160.698142049514
 20
154.9908270872415
 42
0.03239074
 10
2164.370802049514
 20
157.0341270872415
 42
0.030746178
 10
2167.757622049514
 20
159.5234270872417
 42
0.029090136
 10
2170.822492049514
 20
162.3999270872416
 42
0.027650252
 10
2173.542332049514
 20
165.6050270872414
 42
0.026055499
 10
2175.904702049514
 20
169.0838270872415
  0
LWPOLYLINE
  5
802E
330
18
100
AcDbEntity
  8
DRAW2
100
AcDbPolyline
 90
        7
 70
     0
 43
0.0
 10
2155.787452049514
 20
153.4469270872416
 42
0.033706738
 10
2159.672952049514
 20
154.9970270872415
 42
0.032476952
 10
2163.320352049514
 20
157.0458270872415
 42
0.030744011
 10
2166.681002049514
 20
159.5379270872415
 42
0.029006334
 10
2169.720082049514
 20
162.4137270872415
 42
0.027514557
 10
2172.415792049514
 20
165.6138270872415
 42
0.025887965
 10
2174.756812049514
 20
169.0838270872415
  0
LINE
  5
802F
330
18
100
AcDbEntity
  8
DRAW2
100
AcDbLine
 10
2153.380342049514
 20
152.3857270872415
 30
0.0
 11
2183.329992049514
 21
152.3857270872415
 31
0.0
  0
LWPOLYLINE
  5
8030
330
18
100
AcDbEntity
  8
DRAW2
100
AcDbPolyline
 90
        4
 70
     0
 43
0.0
 10
2155.201882049514
 20
160.1986270872416
 42
-0.002171694
 10
2153.148422049514
 20
159.5544270872414
 42
-0.0021757477
 10
2151.089432049514
 20
158.9281270872415
 42
-0.0021800223
 10
2149.025072049514
 20
158.3198270872417
  0
LWPOLYLINE
  5
8031
330
18
100
AcDbEntity
  8
DRAW2
100
AcDbPolyline
 90
        4
 70
     0
 43
0.0
 10
2154.214632049515
 20
160.1986270872416
 42
-0.001582458
 10
2152.717902049514
 20
159.7224270872415
 42
-0.0015845646
 10
2151.218192049514
 20
159.2556270872416
 42
-0.0015867565
 10
2149.715542049514
 20
158.7985270872415
  0
LINE
  5
8033
330
18
100
AcDbEntity
  8
DRAW2
100
AcDbLine
 10
2114.432532049514
 20
251.3856570872416
 30
0.0
 11
2114.432532049514
 21
249.3856570872416
 31
0.0
  0
LINE
  5
8034
330
18
100
AcDbEntity
  8
DRAW2
100
AcDbLine
 10
2132.432532049514
 20
251.3856570872416
 30
0.0
 11
2132.432532049514
 21
249.3856570872416
 31
0.0
  0
LINE
  5
8035
330
18
100
AcDbEntity
  8
DRAW2
100
AcDbLine
 10
2238.40495009751
 20
211.1355894578434
 30
0.0
 11
2238.40495009751
 21
223.1355894578434
 31
0.0
  0
LINE
  5
8036
330
18
100
AcDbEntity
  8
DRAW2
100
AcDbLine
 10
2237.52995009751
 20
212.0105894578435
 30
0.0
 11
2237.52995009751
 21
222.2605894578435
 31
0.0
  0
LINE
  5
8037
330
18
100
AcDbEntity
  8
DRAW2
100
AcDbLine
 10
2255.92995009751
 20
228.1402554578432
 30
0.0
 11
2255.92995009751
 21
206.2009394578433
 31
0.0
  0
LINE
  5
8038
330
18
100
AcDbEntity
  8
DRAW2
100
AcDbLine
 10
2258.02995009751
 20
206.3355894578433
 30
0.0
 11
2258.029950861629
 21
227.9355894578432
 31
0.0
  0
ARC
  5
8039
330
18
100
AcDbEntity
  8
DRAW2
100
AcDbCircle
 10
2264.081683497511
 20
217.1705894578433
 30
0.0
 40
18.151737
100
AcDbArc
 50
162.412249999999
 51
197.5876730000069
  0
LINE
  5
803A
330
18
100
AcDbEntity
  8
DRAW2
100
AcDbLine
 10
2245.92995009751
 20
226.6706352578432
 30
0.0
 11
2245.92995009751
 21
207.6706047578434
 31
0.0
  0
LINE
  5
803B
330
18
100
AcDbEntity
  8
DRAW2
100
AcDbLine
 10
2231.597942049514
 20
182.3856270872415
 30
0.0
 11
2229.082372049514
 21
230.3856270872415
 31
0.0
  0
ARC
  5
803D
330
18
100
AcDbEntity
  8
DRAW2
100
AcDbCircle
 10
2211.973109398698
 20
204.5407207426992
 30
0.0
 40
4.3449545
100
AcDbArc
 50
64.38234399999998
 51
124.3836499999999
  0
LINE
  5
803E
330
18
100
AcDbEntity
  8
DRAW2
100
AcDbLine
 10
2195.611912049514
 20
210.8856270872415
 30
0.0
 11
2213.611912049514
 21
210.8856270872415
 31
0.0
  0
LINE
  5
803F
330
18
100
AcDbEntity
  8
DRAW2
100
AcDbLine
 10
2195.611912049514
 20
208.8856270872415
 30
0.0
 11
2213.611912049514
 21
208.8856270872415
 31
0.0
  0
ARC
  5
8040
330
18
100
AcDbEntity
  8
DRAW2
100
AcDbCircle
 10
2204.611912049514
 20
192.6446870872436
 30
0.0
 40
16.24093999999999
100
AcDbArc
 50
72.41220800000002
 51
107.5878499999999
  0
LINE
  5
8041
330
18
100
AcDbEntity
  8
DRAW2
100
AcDbLine
 10
2194.796943829236
 20
208.1264270872416
 30
0.0
 11
2196.111873829236
 21
208.8856270872415
 31
0.0
  0
ARC
  5
8042
330
18
100
AcDbEntity
  8
DRAW2
100
AcDbCircle
 10
2197.250689398698
 20
204.5407207426992
 30
0.0
 40
4.3449049
100
AcDbArc
 50
55.615878
 51
115.6157399999999
  0
LINE
  5
8043
330
18
100
AcDbEntity
  8
DRAW2
100
AcDbLine
 10
2195.611912049514
 20
208.8856270872415
 30
0.0
 11
2195.611912049514
 21
210.8856270872415
 31
0.0
  0
LINE
  5
8044
330
18
100
AcDbEntity
  8
DRAW2
100
AcDbLine
 10
2213.111923829236
 20
208.8856270872415
 30
0.0
 11
2214.426863829236
 21
208.1264270872416
 31
0.0
  0
LINE
  5
8045
330
18
100
AcDbEntity
  8
DRAW2
100
AcDbLine
 10
2213.611912049514
 20
208.8856270872415
 30
0.0
 11
2213.611912049514
 21
210.8856270872415
 31
0.0
  0
ARC
  5
8046
330
18
100
AcDbEntity
  8
DRAW2
100
AcDbCircle
 10
2228.523662049514
 20
212.3856270872415
 30
0.0
 40
1.5
100
AcDbArc
 50
269.99999
 51
3.000010000000017
  0
LWPOLYLINE
  5
8047
330
18
100
AcDbEntity
  8
DRAW2
100
AcDbPolyline
 90
       17
 70
     0
 43
0.0
 10
2237.565502049514
 20
184.8856270872415
 42
0.030009809
 10
2236.970642049514
 20
184.8499270872416
 42
0.031339106
 10
2236.384432049514
 20
184.7420270872416
 42
0.034233695
 10
2235.816732049515
 20
184.5583270872416
 42
0.039157077
 10
2235.281172049514
 20
184.2937270872416
 42
0.046835268
 10
2234.798142049514
 20
183.9415270872416
 42
0.057956752
 10
2234.398702049514
 20
183.4972270872414
 42
0.071705087
 10
2234.126822049514
 20
182.9667270872416
 42
0.082630658
 10
2234.029982049514
 20
182.3806270872416
 42
0.082329577
 10
2234.129572049514
 20
181.7964270872416
 42
0.071238617
 10
2234.402202049514
 20
181.2690270872417
 42
0.057615973
 10
2234.800862049514
 20
180.8273270872416
 42
0.046587807
 10
2235.281962049514
 20
180.4770270872415
 42
0.039081611
 10
2235.816562049514
 20
180.2129270872416
 42
0.034223027
 10
2236.384042049514
 20
180.0293270872416
 42
0.031368389
 10
2236.970782049514
 20
179.9212270872416
 42
0.03000226
 10
2237.565502049514
 20
179.8856270872415
  0
ARC
  5
8048
330
18
100
AcDbEntity
  8
DRAW2
100
AcDbCircle
 10
2255.029972049515
 20
176.8856270872415
 30
0.0
 40
3.0
100
AcDbArc
 50
0.0
 51
89.99998999999997
  0
LWPOLYLINE
  5
8049
330
18
100
AcDbEntity
  8
DRAW2
100
AcDbPolyline
 90
        3
 70
     0
 43
0.0
 10
2258.029972049514
 20
147.0614270872415
 42
-0.000012822426
 10
2247.319912049514
 20
147.0617270872416
 42
0.000012822426
 10
2236.609842049514
 20
147.0621270872415
  0
LWPOLYLINE
  5
804A
330
18
100
AcDbEntity
  8
DRAW2
100
AcDbPolyline
 90
        7
 70
     0
 43
0.0
 10
2236.609842049514
 20
147.0621270872415
 42
0.031948855
 10
2236.095302049514
 20
147.0279270872415
 42
0.033551182
 10
2235.588032049514
 20
146.9282270872415
 42
0.051770413
 10
2235.105002049514
 20
146.7472270872415
 42
0.12606497
 10
2234.709682049514
 20
146.4230270872417
 42
0.18530999
 10
2234.606332049514
 20
145.9287270872416
 42
0.10325474
 10
2234.795072049514
 20
145.4521270872416
  0
LINE
  5
804B
330
18
100
AcDbEntity
  8
DRAW2
100
AcDbLine
 10
2237.565502049514
 20
179.8856270872415
 30
0.0
 11
2255.029972049514
 21
179.8856270872415
 31
0.0
  0
LINE
  5
804C
330
18
100
AcDbEntity
  8
DRAW2
100
AcDbLine
 10
2246.77843009751
 20
211.6857719578435
 30
0.0
 11
2255.92995009751
 21
211.6857719578435
 31
0.0
  0
LINE
  5
804D
330
18
100
AcDbEntity
  8
DRAW2
100
AcDbLine
 10
2246.77846109751
 20
206.2009394578433
 30
0.0
 11
2255.92995009751
 21
206.2009394578433
 31
0.0
  0
ARC
  5
804E
330
18
100
AcDbEntity
  8
DRAW2
100
AcDbCircle
 10
2255.029972049515
 20
187.8856270872415
 30
0.0
 40
3.0
100
AcDbArc
 50
269.99999
 51
0.0
  0
LINE
  5
804F
330
18
100
AcDbEntity
  8
DRAW2
100
AcDbLine
 10
2237.565502049514
 20
184.8856270872415
 30
0.0
 11
2255.029972049514
 21
184.8856270872415
 31
0.0
  0
LINE
  5
8050
330
18
100
AcDbEntity
  8
DRAW2
100
AcDbLine
 10
2238.40495009751
 20
211.1355894578434
 30
0.0
 11
2245.92995009751
 21
211.1355894578434
 31
0.0
  0
LINE
  5
8051
330
18
100
AcDbEntity
  8
DRAW3
100
AcDbLine
 10
2237.52995009751
 20
212.0105894578435
 30
0.0
 11
2245.929950097511
 21
212.0105894578435
 31
0.0
  0
LINE
  5
8052
330
18
100
AcDbEntity
  8
DRAW2
100
AcDbLine
 10
2238.40495009751
 20
211.1355894578434
 30
0.0
 11
2237.52995009751
 21
212.0105894578435
 31
0.0
  0
LINE
  5
8053
330
18
100
AcDbEntity
  8
DRAW2
100
AcDbLine
 10
2245.929955097511
 20
207.6706018578436
 30
0.0
 11
2246.778466097511
 21
206.2009384578434
 31
0.0
  0
ARC
  5
8054
330
18
100
AcDbEntity
  8
DRAW2
100
AcDbCircle
 10
2250.78599909751
 20
208.9433555578437
 30
0.0
 40
4.856048099999999
100
AcDbArc
 50
145.6155800000002
 51
205.6154199999964
  0
LINE
  5
8055
330
18
100
AcDbEntity
  8
DRAW2
100
AcDbLine
 10
2258.02995009751
 20
217.3855894578434
 30
0.0
 11
2255.92995009751
 21
217.3855894578434
 31
0.0
  0
LINE
  5
8056
330
18
100
AcDbEntity
  8
DRAW2
100
AcDbLine
 10
2258.02995009751
 20
216.8855894578434
 30
0.0
 11
2255.92995009751
 21
216.8855894578434
 31
0.0
  0
LINE
  5
8057
330
18
100
AcDbEntity
  8
DRAW2
100
AcDbLine
 10
2258.02995009751
 20
206.3355894578433
 30
0.0
 11
2255.92995009751
 21
206.3355894578433
 31
0.0
  0
LINE
  5
8058
330
18
100
AcDbEntity
  8
DRAW2
100
AcDbLine
 10
2228.529912049514
 20
230.3856270872415
 30
0.0
 11
2250.029972049514
 21
230.3856270872415
 31
0.0
  0
LINE
  5
8059
330
18
100
AcDbEntity
  8
DRAW2
100
AcDbLine
 10
2228.530062049514
 20
230.3856270872415
 30
0.0
 11
2250.029952049514
 21
230.3856270872415
 31
0.0
  0
LINE
  5
805B
330
18
100
AcDbEntity
  8
DRAW2
100
AcDbLine
 10
2209.030002049514
 20
231.3850570861481
 30
0.0
 11
2209.030002049514
 21
230.8856470872415
 31
0.0
  0
LINE
  5
805C
330
18
100
AcDbEntity
  8
DRAW2
100
AcDbLine
 10
2195.611912049514
 20
251.3856570872416
 30
0.0
 11
2195.611912049514
 21
249.3856570872416
 31
0.0
  0
LINE
  5
805D
330
18
100
AcDbEntity
  8
DRAW2
100
AcDbLine
 10
2229.030032049514
 20
232.3856270872414
 30
0.0
 11
2229.030032049514
 21
247.3966114973045
 31
0.0
  0
LINE
  5
805E
330
18
100
AcDbEntity
  8
DRAW2
100
AcDbLine
 10
2228.029912049514
 20
230.8857270872415
 30
0.0
 11
2228.529942049515
 21
230.3857270872415
 31
0.0
  0
LINE
  5
805F
330
18
100
AcDbEntity
  8
DRAW2
100
AcDbLine
 10
2228.030062049514
 20
230.8856270872415
 30
0.0
 11
2228.530062049514
 21
230.3856270872415
 31
0.0
  0
ARC
  5
8060
330
18
100
AcDbEntity
  8
DRAW2
100
AcDbCircle
 10
2228.030032049514
 20
232.3856270872414
 30
0.0
 40
1.0
100
AcDbArc
 50
269.9999899999999
 51
359.9999969999999
  0
LINE
  5
8061
330
18
100
AcDbEntity
  8
DRAW2
100
AcDbLine
 10
2213.611912049514
 20
251.3856570872416
 30
0.0
 11
2213.611912049514
 21
249.3856570872416
 31
0.0
  0
ARC
  5
8062
330
18
100
AcDbEntity
  8
DRAW2
100
AcDbCircle
 10
2227.030062049514
 20
247.3856570872416
 30
0.0
 40
1.999999999999973
100
AcDbArc
 50
0.3138223007437225
 51
89.99999700000067
  0
LINE
  5
8063
330
18
100
AcDbEntity
  8
DRAW2
100
AcDbLine
 10
2246.778445097511
 20
222.6554222578436
 30
0.0
 11
2255.92995009751
 21
222.6554222578436
 31
0.0
  0
LINE
  5
8064
330
18
100
AcDbEntity
  8
DRAW2
100
AcDbLine
 10
2246.778445097511
 20
228.1402554578432
 30
0.0
 11
2255.92995009751
 21
228.1402554578432
 31
0.0
  0
ARC
  5
8065
330
18
100
AcDbEntity
  8
DRAW2
100
AcDbCircle
 10
2250.029972049515
 20
238.3856270872415
 30
0.0
 40
8.0
100
AcDbArc
 50
269.99999
 51
0.0
  0
ARC
  5
8066
330
18
100
AcDbEntity
  8
DRAW2
100
AcDbCircle
 10
2250.029952049514
 20
238.3855970872414
 30
0.0
 40
8.0
100
AcDbArc
 50
269.99999
 51
0.0
  0
LINE
  5
8067
330
18
100
AcDbEntity
  8
DRAW2
100
AcDbLine
 10
2238.40495009751
 20
223.1355894578434
 30
0.0
 11
2245.92995009751
 21
223.1355894578434
 31
0.0
  0
LINE
  5
8068
330
18
100
AcDbEntity
  8
DRAW3
100
AcDbLine
 10
2237.52995009751
 20
222.2605894578435
 30
0.0
 11
2245.929950097511
 21
222.2605894578435
 31
0.0
  0
LINE
  5
8069
330
18
100
AcDbEntity
  8
DRAW2
100
AcDbLine
 10
2238.40495009751
 20
223.1355894578434
 30
0.0
 11
2237.52995009751
 21
222.2605894578435
 31
0.0
  0
LINE
  5
806A
330
18
100
AcDbEntity
  8
DRAW2
100
AcDbLine
 10
2246.778448097511
 20
228.1402684578436
 30
0.0
 11
2245.92995709751
 21
226.6706380578436
 31
0.0
  0
ARC
  5
806B
330
18
100
AcDbEntity
  8
DRAW2
100
AcDbCircle
 10
2250.786075097511
 20
225.3978385578436
 30
0.0
 40
4.856120099999999
100
AcDbArc
 50
154.3823000000045
 51
214.3837949999996
  0
LINE
  5
806C
330
18
100
AcDbEntity
  8
DRAW2
100
AcDbLine
 10
2258.02995009751
 20
227.9355894578432
 30
0.0
 11
2255.92995009751
 21
227.9355894578432
 31
0.0
  0
LINE
  5
806D
330
18
100
AcDbEntity
  8
DRAW2
100
AcDbLine
 10
2261.029972049514
 20
247.7251270872416
 30
0.0
 11
2272.029972049514
 21
247.7251270872416
 31
0.0
  0
LINE
  5
806E
330
18
100
AcDbEntity
  8
DRAW2
100
AcDbLine
 10
2261.029952049514
 20
247.7250970872414
 30
0.0
 11
2272.030002049514
 21
247.7250970872414
 31
0.0
  0
ARC
  5
806F
330
18
100
AcDbEntity
  8
DRAW2
100
AcDbCircle
 10
2261.029972049514
 20
244.7251270872416
 30
0.0
 40
3.0
100
AcDbArc
 50
89.99998999999997
 51
180.000003
  0
ARC
  5
8070
330
18
100
AcDbEntity
  8
DRAW2
100
AcDbCircle
 10
2261.029952049514
 20
244.7250970872414
 30
0.0
 40
3.0
100
AcDbArc
 50
90.0
 51
180.000003
  0
LINE
  5
8071
330
18
100
AcDbEntity
  8
DRAW2
100
AcDbLine
 10
2273.030002049514
 20
264.3855970872414
 30
0.0
 11
2272.030002049514
 21
263.3855970872414
 31
0.0
  0
LINE
  5
8072
330
18
100
AcDbEntity
  8
DRAW3
100
AcDbLine
 10
2192.730012049514
 20
380.7954470872414
 30
0.0
 11
2189.030002049514
 21
380.9110675676484
 31
0.0
  0
LINE
  5
8073
330
18
100
AcDbEntity
  8
DRAW2
100
AcDbLine
 10
2194.298252049514
 20
379.8900170872414
 30
0.0
 11
2189.030002049514
 21
380.0546531205611
 31
0.0
  0
LINE
  5
8074
330
18
100
AcDbEntity
  8
DRAW2
100
AcDbLine
 10
2194.298252049514
 20
396.8812570872414
 30
0.0
 11
2189.030002049514
 21
396.7166357776688
 31
0.0
  0
LINE
  5
8075
330
18
100
AcDbEntity
  8
DRAW3
100
AcDbLine
 10
2192.730012049514
 20
395.9758670872414
 30
0.0
 11
2189.030002049514
 21
395.8602425800927
 31
0.0
  0
LINE
  5
8077
330
18
100
AcDbEntity
  8
DRAW2
100
AcDbLine
 10
2189.030002049514
 20
418.3856570872414
 30
0.0
 11
2189.030002049514
 21
375.3856570872414
 31
0.0
  0
ARC
  5
8078
330
18
100
AcDbEntity
  8
DRAW2
100
AcDbCircle
 10
2188.400392049514
 20
373.3856570872414
 30
0.0
 40
2.0
100
AcDbArc
 50
90.00000300000001
 51
185.0
  0
LINE
  5
8079
330
18
100
AcDbEntity
  8
DRAW2
100
AcDbLine
 10
2189.030002049514
 20
418.3856570872414
 30
0.0
 11
2184.029972049514
 21
423.3856870872415
 31
0.0
  0
LINE
  5
807C
330
18
100
AcDbEntity
  8
DRAW2
100
AcDbLine
 10
2197.439182049515
 20
378.5706770872415
 30
0.0
 11
2223.920812049514
 21
378.5706770872415
 31
0.0
  0
LINE
  5
807D
330
18
100
AcDbEntity
  8
DRAW2
100
AcDbLine
 10
2197.439174549468
 20
383.4781797991295
 30
0.0
 11
2223.920834549575
 21
383.4781797991296
 31
0.0
  0
LINE
  5
807E
330
18
100
AcDbEntity
  8
DRAW2
100
AcDbLine
 10
2197.439182049515
 20
398.2005970872414
 30
0.0
 11
2223.920812049514
 21
398.2005970872414
 31
0.0
  0
LINE
  5
807F
330
18
100
AcDbEntity
  8
DRAW2
100
AcDbLine
 10
2197.439159549454
 20
393.2931343753533
 30
0.0
 11
2223.920834549575
 21
393.2931343753533
 31
0.0
  0
LINE
  5
8080
330
18
100
AcDbEntity
  8
DRAW2
100
AcDbLine
 10
2196.679992049515
 20
396.8856570872415
 30
0.0
 11
2197.439182049515
 21
398.2006270872415
 31
0.0
  0
ARC
  5
8081
330
18
100
AcDbEntity
  8
DRAW2
100
AcDbCircle
 10
2201.024996967727
 20
395.7468562114724
 30
0.0
 40
4.344994918212484
100
AcDbArc
 50
145.6165853661706
 51
214.3831104110136
  0
LINE
  5
8082
330
18
100
AcDbEntity
  8
DRAW2
100
AcDbLine
 10
2194.298252049514
 20
379.8900170872414
 30
0.0
 11
2196.679992049515
 21
379.8900170872414
 31
0.0
  0
LINE
  5
8083
330
18
100
AcDbEntity
  8
DRAW3
100
AcDbLine
 10
2194.298252049514
 20
379.8900170872414
 30
0.0
 11
2192.730012049514
 21
380.7954470872414
 31
0.0
  0
LINE
  5
8084
330
18
100
AcDbEntity
  8
DRAW2
100
AcDbLine
 10
2196.680022049514
 20
379.8856270872415
 30
0.0
 11
2197.439212049514
 21
378.5706770872415
 31
0.0
  0
ARC
  5
8085
330
18
100
AcDbEntity
  8
DRAW2
100
AcDbCircle
 10
2201.024996967727
 20
381.0244579630104
 30
0.0
 40
4.344994918212484
100
AcDbArc
 50
145.6168895889863
 51
214.3834146338293
  0
LINE
  5
8086
330
18
100
AcDbEntity
  8
DRAW2
100
AcDbLine
 10
2194.298252049514
 20
396.8812870872413
 30
0.0
 11
2196.679992049515
 21
396.8812870872413
 31
0.0
  0
LINE
  5
8087
330
18
100
AcDbEntity
  8
DRAW3
100
AcDbLine
 10
2194.298252049514
 20
396.8812870872413
 30
0.0
 11
2192.730012049514
 21
395.9758670872414
 31
0.0
  0
LINE
  5
8088
330
18
100
AcDbEntity
  8
DRAW2
100
AcDbLine
 10
2196.679992049515
 20
396.8856570872415
 30
0.0
 11
2196.679992049515
 21
396.8812870872413
 31
0.0
  0
LINE
  5
8089
330
18
100
AcDbEntity
  8
DRAW2
100
AcDbLine
 10
2192.730012049514
 20
379.9390270872414
 30
0.0
 11
2192.730012049514
 21
396.8322530114053
 31
0.0
  0
LINE
  5
808A
330
18
100
AcDbEntity
  8
DRAW2
100
AcDbLine
 10
2196.679992049515
 20
396.8812870872413
 30
0.0
 11
2196.679992049515
 21
379.8900170872414
 31
0.0
  0
ARC
  5
808B
330
18
100
AcDbEntity
  8
DRAW2
100
AcDbCircle
 10
2212.921462777374
 20
388.3856570872414
 30
0.0
 40
16.24146072785977
100
AcDbArc
 50
162.4127732068781
 51
197.5872267931217
  0
LINE
  5
808C
330
18
100
AcDbEntity
  8
DRAW2
100
AcDbLine
 10
2223.920842049514
 20
398.2005670872415
 30
0.0
 11
2224.680022049514
 21
396.8856270872415
 31
0.0
  0
ARC
  5
808D
330
18
100
AcDbEntity
  8
DRAW2
100
AcDbCircle
 10
2220.334997131302
 20
395.7468562114724
 30
0.0
 40
4.344994918212484
100
AcDbArc
 50
325.6168895889862
 51
34.38341463382931
  0
LINE
  5
808E
330
18
100
AcDbEntity
  8
DRAW2
100
AcDbLine
 10
2223.920842049514
 20
378.5706770872415
 30
0.0
 11
2224.680022049514
 21
379.8856270872415
 31
0.0
  0
ARC
  5
808F
330
18
100
AcDbEntity
  8
DRAW2
100
AcDbCircle
 10
2220.334997131302
 20
381.0244579630104
 30
0.0
 40
4.344994918212484
100
AcDbArc
 50
325.6165853661706
 51
34.38311041101371
  0
ARC
  5
8090
330
18
100
AcDbEntity
  8
DRAW2
100
AcDbCircle
 10
2208.438531321655
 20
388.3856570872414
 30
0.0
 40
16.24146072785977
100
AcDbArc
 50
342.4127732068782
 51
17.58722679312186
  0
LINE
  5
8091
330
18
100
AcDbEntity
  8
DRAW2
100
AcDbLine
 10
2224.679992049515
 20
396.8856570872415
 30
0.0
 11
2224.679992049515
 21
379.8856570872414
 31
0.0
  0
ELLIPSE
  5
8094
330
18
100
AcDbEntity
  8
DRAW2
370
    15
100
AcDbEllipse
 10
1870.141113160626
 20
781.3177363682529
 30
0.0
 11
-44.44444444444434
 21
0.0000000000000027
 31
0.0
210
0.0
220
0.0
230
1.0
 40
0.6750000000000015
 41
4.146816645217241
 42
4.273427094774941
  0
ELLIPSE
  5
8095
330
18
100
AcDbEntity
  8
DRAW2
370
    15
100
AcDbEllipse
 10
1870.141113160626
 20
781.3177363682529
 30
0.0
 11
-44.44444444444434
 21
0.0000000000000027
 31
0.0
210
0.0
220
0.0
230
1.0
 40
0.6750000000000015
 41
2.009758212404657
 42
2.136368661962358
  0
ARC
  5
8096
330
18
100
AcDbEntity
  8
DRAW2
100
AcDbCircle
 10
1927.448072172821
 20
838.7202512230162
 30
0.0
 40
9.0
100
AcDbArc
 50
100.8118733546256
 51
139.188114832397
  0
ARC
  5
8097
330
18
100
AcDbEntity
  8
DRAW2
100
AcDbCircle
 10
1927.448072172821
 20
838.7202512230162
 30
0.0
 40
9.0
100
AcDbArc
 50
220.8116936954073
 51
259.1882999565267
  0
ARC
  5
8098
330
18
100
AcDbEntity
  8
DRAW2
100
AcDbCircle
 10
1927.448072172822
 20
723.9152215134891
 30
0.0
 40
9.0
100
AcDbArc
 50
220.8116936954073
 51
259.1882999565267
  0
ARC
  5
8099
330
18
100
AcDbEntity
  8
DRAW2
100
AcDbCircle
 10
1927.448072172822
 20
723.9152215134891
 30
0.0
 40
9.0
100
AcDbArc
 50
100.8118733546232
 51
139.188114832397
  0
LINE
  5
809A
330
18
100
AcDbEntity
  8
DRAW2
100
AcDbLine
 10
1918.948082672821
 20
719.007748413489
 30
0.0
 11
1927.448097367627
 21
714.1002620134891
 31
0.0
  0
CIRCLE
  5
809B
330
18
100
AcDbEntity
  8
DRAW2
100
AcDbCircle
 10
2066.030002049514
 20
781.3177363682529
 30
0.0
 40
163.0
  0
CIRCLE
  5
809C
330
18
100
AcDbEntity
  8
DRAW2
100
AcDbCircle
 10
1927.448072172822
 20
723.9152215134891
 30
0.0
 40
8.500000999999999
  0
LINE
  5
809F
330
18
100
AcDbEntity
  8
DRAW2
100
AcDbLine
 10
1918.948077872821
 20
728.822703613489
 30
0.0
 11
1927.448080090219
 21
733.730181013489
 31
0.0
  0
CIRCLE
  5
80A1
330
18
100
AcDbEntity
  8
DRAW2
100
AcDbCircle
 10
1927.448072172821
 20
838.7202512230162
 30
0.0
 40
8.500000999999999
  0
LINE
  5
80A2
330
18
100
AcDbEntity
  8
DRAW2
100
AcDbLine
 10
1918.948082672821
 20
833.8127781230161
 30
0.0
 11
1927.448097367627
 21
828.9052917230161
 31
0.0
  0
LINE
  5
80A3
330
18
100
AcDbEntity
  8
DRAW2
100
AcDbLine
 10
1918.948077872821
 20
843.6277333230162
 30
0.0
 11
1927.448080090219
 21
848.5352107230163
 31
0.0
  0
LINE
  5
80A6
330
18
100
AcDbEntity
  8
DRAW2
100
AcDbLine
 10
1879.030002049514
 20
709.3131007684809
 30
0.0
 11
1879.030002049514
 21
853.3223719680247
 31
0.0
  0
LINE
  5
80A7
330
18
100
AcDbEntity
  8
DRAW2
100
AcDbLine
 10
1843.029971531936
 20
819.3177363682529
 30
0.0
 11
1843.029971531936
 21
743.317736368253
 31
0.0
  0
LINE
  5
80A8
330
18
100
AcDbEntity
  8
DRAW2
100
AcDbLine
 10
1865.030002049515
 20
706.3131007684811
 30
0.0
 11
1865.030002049515
 21
856.3223719680248
 31
0.0
  0
LINE
  5
80A9
330
18
100
AcDbEntity
  8
DRAW2
100
AcDbLine
 10
1865.030002049515
 20
862.3177363682529
 30
0.0
 11
1865.030002049515
 21
700.317736368253
 31
0.0
  0
LINE
  5
80AA
330
18
100
AcDbEntity
  8
DRAW2
100
AcDbLine
 10
1847.029971531936
 20
862.3177363682529
 30
0.0
 11
1847.029971531936
 21
700.317736368253
 31
0.0
  0
LINE
  5
80AB
330
18
100
AcDbEntity
  8
DRAW2
100
AcDbLine
 10
1836.530041531936
 20
730.6289708052331
 30
0.0
 11
1844.530041531936
 21
730.6289708052331
 31
0.0
  0
LINE
  5
80AC
330
18
100
AcDbEntity
  8
DRAW2
100
AcDbLine
 10
1837.378551531936
 20
721.1289708052332
 30
0.0
 11
1844.530041531936
 21
721.1289708052332
 31
0.0
  0
LINE
  5
80AD
330
18
100
AcDbEntity
  8
DRAW2
100
AcDbLine
 10
1836.530041531936
 20
711.6289708052331
 30
0.0
 11
1844.530041531936
 21
711.6289708052331
 31
0.0
  0
LINE
  5
80AF
330
18
100
AcDbEntity
  8
DRAW2
100
AcDbLine
 10
1836.530041531936
 20
711.6289708052331
 30
0.0
 11
1836.530041531936
 21
730.6289708052331
 31
0.0
  0
ARC
  5
80B0
330
18
100
AcDbEntity
  8
DRAW2
100
AcDbCircle
 10
1850.249641531936
 20
716.3789708052331
 30
0.0
 40
13.719608
100
AcDbArc
 50
159.7437170000034
 51
200.2562999999994
  0
ARC
  5
80B1
330
18
100
AcDbEntity
  8
DRAW2
100
AcDbCircle
 10
1850.249641531936
 20
725.8789708052331
 30
0.0
 40
13.719608
100
AcDbArc
 50
159.7437240000012
 51
200.2562999999994
  0
ARC
  5
80B2
330
18
100
AcDbEntity
  8
DRAW2
370
    15
100
AcDbCircle
 10
1889.750001194753
 20
742.2520191491978
 30
0.0
 40
10.74967149395826
100
AcDbArc
 50
124.1959331679389
 51
175.7418991281702
  0
ARC
  5
80B3
330
18
100
AcDbEntity
  8
DRAW2
100
AcDbCircle
 10
1884.030002049514
 20
726.317736368253
 30
0.0
 40
5.0
100
AcDbArc
 50
90.0
 51
125.4509416946922
  0
LINE
  5
80B4
330
18
100
AcDbEntity
  8
DRAW2
100
AcDbLine
 10
1891.130002049514
 20
712.628880805233
 30
0.0
 11
1881.129872049514
 21
712.628880805233
 31
0.0
  0
LINE
  5
80B5
330
18
100
AcDbEntity
  8
DRAW2
100
AcDbLine
 10
1891.130002049514
 20
729.6290008052331
 30
0.0
 11
1881.129872049514
 21
729.6290008052331
 31
0.0
  0
LINE
  5
80B6
330
18
100
AcDbEntity
  8
DRAW2
100
AcDbLine
 10
1890.370842049514
 20
721.128940805233
 30
0.0
 11
1881.129872049514
 21
721.128940805233
 31
0.0
  0
LINE
  5
80B7
330
18
100
AcDbEntity
  8
DRAW2
100
AcDbLine
 10
1881.130002049514
 20
710.328950805233
 30
0.0
 11
1881.129971506284
 21
731.9289177384507
 31
0.0
  0
LINE
  5
80B8
330
18
100
AcDbEntity
  8
DRAW2
100
AcDbLine
 10
1844.530041531936
 20
710.6289708052331
 30
0.0
 11
1844.530041531936
 21
731.6289708052331
 31
0.0
  0
LINE
  5
80B9
330
18
100
AcDbEntity
  8
DRAW2
100
AcDbLine
 10
1864.030002049514
 20
699.317736368253
 30
0.0
 11
1848.029971531936
 21
699.317736368253
 31
0.0
  0
LINE
  5
80BA
330
18
100
AcDbEntity
  8
DRAW2
100
AcDbLine
 10
1844.530041531936
 20
710.6289708052331
 30
0.0
 11
1847.030041531936
 21
710.6289708052331
 31
0.0
  0
LINE
  5
80BB
330
18
100
AcDbEntity
  8
DRAW2
100
AcDbLine
 10
1847.029971531936
 20
700.317736368253
 30
0.0
 11
1848.029971531936
 21
699.317736368253
 31
0.0
  0
LINE
  5
80BC
330
18
100
AcDbEntity
  8
DRAW2
100
AcDbLine
 10
1865.030002049515
 20
706.3131007684811
 30
0.0
 11
1876.030002049514
 21
706.3131007684811
 31
0.0
  0
LINE
  5
80BD
330
18
100
AcDbEntity
  8
DRAW2
100
AcDbLine
 10
1865.030002049515
 20
700.317736368253
 30
0.0
 11
1864.030002049514
 21
699.317736368253
 31
0.0
  0
LINE
  5
80BE
330
18
100
AcDbEntity
  8
DRAW2
100
AcDbLine
 10
1881.130002049514
 20
710.328950805233
 30
0.0
 11
1879.030002049514
 21
710.328950805233
 31
0.0
  0
ARC
  5
80BF
330
18
100
AcDbEntity
  8
DRAW2
100
AcDbCircle
 10
1876.030002049514
 20
709.3131007684809
 30
0.0
 40
3.0
100
AcDbArc
 50
270.0
 51
0.0
  0
LINE
  5
80C0
330
18
100
AcDbEntity
  8
DRAW2
100
AcDbLine
 10
1879.029872049514
 20
721.3789408052329
 30
0.0
 11
1881.129872049514
 21
721.3789408052329
 31
0.0
  0
LINE
  5
80C1
330
18
100
AcDbEntity
  8
DRAW2
100
AcDbLine
 10
1879.029872049514
 20
720.878940805233
 30
0.0
 11
1881.129872049514
 21
720.878940805233
 31
0.0
  0
ARC
  5
80C2
330
18
100
AcDbEntity
  8
DRAW2
100
AcDbCircle
 10
1845.029971531936
 20
743.317736368253
 30
0.0
 40
2.0
100
AcDbArc
 50
180.0
 51
270.0
  0
ARC
  5
80C3
330
18
100
AcDbEntity
  8
DRAW2
100
AcDbCircle
 10
1845.029971531936
 20
739.3177363682529
 30
0.0
 40
2.0
100
AcDbArc
 50
0.0
 51
90.0
  0
LINE
  5
80C4
330
18
100
AcDbEntity
  8
DRAW2
100
AcDbLine
 10
1844.530041531936
 20
731.6289708052331
 30
0.0
 11
1847.030041531936
 21
731.6289708052331
 31
0.0
  0
LINE
  5
80C5
330
18
100
AcDbEntity
  8
DRAW2
100
AcDbLine
 10
1881.129971506284
 20
731.9289177384507
 30
0.0
 11
1879.029971506293
 21
731.9289117994803
 31
0.0
  0
ARC
  5
80C6
330
18
100
AcDbEntity
  8
DRAW2
100
AcDbCircle
 10
1905.166706049463
 20
723.3177363682529
 30
0.0
 40
8.0
100
AcDbArc
 50
19.82700148094341
 51
90.0
  0
LINE
  5
80C7
330
18
100
AcDbEntity
  8
DRAW3
100
AcDbLine
 10
1899.530002049514
 20
716.0759308052329
 30
0.0
 11
1891.130002049514
 21
716.0759308052329
 31
0.0
  0
LINE
  5
80C8
330
18
100
AcDbEntity
  8
DRAW2
100
AcDbLine
 10
1898.530002049514
 20
715.128910805233
 30
0.0
 11
1891.130002049514
 21
715.128910805233
 31
0.0
  0
LINE
  5
80C9
330
18
100
AcDbEntity
  8
DRAW2
100
AcDbLine
 10
1898.530002049514
 20
727.1290308052329
 30
0.0
 11
1891.130002049514
 21
727.1290308052329
 31
0.0
  0
LINE
  5
80CA
330
18
100
AcDbEntity
  8
DRAW3
100
AcDbLine
 10
1899.530002049514
 20
726.181890805233
 30
0.0
 11
1891.130002049514
 21
726.181890805233
 31
0.0
  0
LINE
  5
80CB
330
18
100
AcDbEntity
  8
DRAW2
100
AcDbLine
 10
1891.130002049514
 20
712.628940805233
 30
0.0
 11
1891.130002049514
 21
729.6290008052331
 31
0.0
  0
ARC
  5
80CC
330
18
100
AcDbEntity
  8
DRAW2
100
AcDbCircle
 10
1878.854482049515
 20
716.878940805233
 30
0.0
 40
12.275561
100
AcDbArc
 50
339.7439100000002
 51
20.25606999999685
  0
ARC
  5
80CD
330
18
100
AcDbEntity
  8
DRAW2
100
AcDbCircle
 10
1878.854482049515
 20
725.3789408052329
 30
0.0
 40
12.275561
100
AcDbArc
 50
339.7439300000031
 51
20.25635999999999
  0
LINE
  5
80CE
330
18
100
AcDbEntity
  8
DRAW2
100
AcDbLine
 10
1898.530002049514
 20
727.1290408052331
 30
0.0
 11
1898.530002049514
 21
715.128910805233
 31
0.0
  0
LINE
  5
80CF
330
18
100
AcDbEntity
  8
DRAW2
100
AcDbLine
 10
1899.530002049514
 20
716.128910805233
 30
0.0
 11
1899.530002049514
 21
726.1289108052331
 31
0.0
  0
LINE
  5
80D0
330
18
100
AcDbEntity
  8
DRAW2
100
AcDbLine
 10
1899.530062049514
 20
716.128910805233
 30
0.0
 11
1898.530062049514
 21
715.1289708052331
 31
0.0
  0
LINE
  5
80D1
330
18
100
AcDbEntity
  8
DRAW2
100
AcDbLine
 10
1899.530045401861
 20
726.1290191896282
 30
0.0
 11
1898.530042072571
 21
727.1289558601282
 31
0.0
  0
ARC
  5
80D2
330
18
100
AcDbEntity
  8
DRAW2
100
AcDbCircle
 10
1927.448072172822
 20
723.9152215134891
 30
0.0
 40
9.0
100
AcDbArc
 50
160.8114199894652
 51
199.1885800105347
  0
LINE
  5
80D3
330
18
100
AcDbEntity
  8
DRAW2
100
AcDbLine
 10
1918.948095072821
 20
719.007751813489
 30
0.0
 11
1918.948095072821
 21
728.8227160134891
 31
0.0
  0
LINE
  5
80D4
330
18
100
AcDbEntity
  8
DRAW2
100
AcDbLine
 10
1884.030002049514
 20
731.3177363682529
 30
0.0
 11
1905.166706049463
 21
731.3177363682529
 31
0.0
  0
ARC
  5
80D5
330
18
100
AcDbEntity
  8
DRAW2
370
    15
100
AcDbCircle
 10
1905.767714860267
 20
729.8902734388355
 30
0.0
 40
28.64624173145474
100
AcDbArc
 50
92.27014695412094
 51
114.3450475503477
  0
LINE
  5
80D6
330
18
100
AcDbEntity
  8
DRAW2
370
    15
100
AcDbLine
 10
1893.958851651755
 20
733.5823855639168
 30
0.0
 11
1893.958851651755
 21
754.4892756239692
 31
0.0
  0
ARC
  5
80D7
330
18
100
AcDbEntity
  8
DRAW2
370
    15
100
AcDbCircle
 10
1893.771357036905
 20
739.6033348114997
 30
0.0
 40
15.3112152448065
100
AcDbArc
 50
108.0390725911863
 51
131.0886914468646
  0
LINE
  5
80D8
330
18
100
AcDbEntity
  8
DRAW2
100
AcDbLine
 10
1836.530041531936
 20
771.817736368253
 30
0.0
 11
1843.029971531936
 21
771.817736368253
 31
0.0
  0
LINE
  5
80D9
330
18
100
AcDbEntity
  8
DRAW2
100
AcDbLine
 10
1837.378551531936
 20
781.3177363682529
 30
0.0
 11
1844.530041531936
 21
781.3177363682529
 31
0.0
  0
LINE
  5
80DA
330
18
100
AcDbEntity
  8
DRAW2
100
AcDbLine
 10
1836.530041531936
 20
790.817736368253
 30
0.0
 11
1843.029971531936
 21
790.817736368253
 31
0.0
  0
LINE
  5
80DB
330
18
100
AcDbEntity
  8
DRAW2
100
AcDbLine
 10
1836.530041531936
 20
832.0065019312732
 30
0.0
 11
1844.530041531936
 21
832.0065019312732
 31
0.0
  0
LINE
  5
80DC
330
18
100
AcDbEntity
  8
DRAW2
100
AcDbLine
 10
1837.378551531936
 20
841.5065019312732
 30
0.0
 11
1844.530041531936
 21
841.5065019312732
 31
0.0
  0
LINE
  5
80DD
330
18
100
AcDbEntity
  8
DRAW2
100
AcDbLine
 10
1836.530041531936
 20
851.0065019312733
 30
0.0
 11
1844.530041531936
 21
851.0065019312733
 31
0.0
  0
ARC
  5
80E0
330
18
100
AcDbEntity
  8
DRAW2
100
AcDbCircle
 10
1850.249641531936
 20
846.2565019312732
 30
0.0
 40
13.719608
100
AcDbArc
 50
159.7437240000012
 51
200.2562999999994
  0
LINE
  5
80E1
330
18
100
AcDbEntity
  8
DRAW2
100
AcDbLine
 10
1836.530041531936
 20
832.0065019312732
 30
0.0
 11
1836.530041531936
 21
851.0065019312733
 31
0.0
  0
ARC
  5
80E2
330
18
100
AcDbEntity
  8
DRAW2
100
AcDbCircle
 10
1850.249641531936
 20
786.067736368253
 30
0.0
 40
13.719608
100
AcDbArc
 50
159.7437240000012
 51
200.2562999999994
  0
LINE
  5
80E3
330
18
100
AcDbEntity
  8
DRAW2
100
AcDbLine
 10
1836.530041531936
 20
771.817736368253
 30
0.0
 11
1836.530041531936
 21
790.817736368253
 31
0.0
  0
ARC
  5
80E4
330
18
100
AcDbEntity
  8
DRAW2
100
AcDbCircle
 10
1850.249641531936
 20
776.567736368253
 30
0.0
 40
13.719608
100
AcDbArc
 50
159.7437170000034
 51
200.2562999999994
  0
ARC
  5
80E5
330
18
100
AcDbEntity
  8
DRAW2
100
AcDbCircle
 10
1850.249641531936
 20
836.7565019312733
 30
0.0
 40
13.719608
100
AcDbArc
 50
159.7437170000034
 51
200.2562999999994
  0
ARC
  5
80E6
330
18
100
AcDbEntity
  8
DRAW2
100
AcDbCircle
 10
1878.854482049515
 20
845.7564719312731
 30
0.0
 40
12.275561
100
AcDbArc
 50
339.7439300000031
 51
20.25635999999999
  0
LINE
  5
80E7
330
18
100
AcDbEntity
  8
DRAW2
100
AcDbLine
 10
1891.130002049514
 20
833.0064719312732
 30
0.0
 11
1891.130002049514
 21
850.0065319312732
 31
0.0
  0
LINE
  5
80E8
330
18
100
AcDbEntity
  8
DRAW2
100
AcDbLine
 10
1881.130002049514
 20
830.7064819312731
 30
0.0
 11
1881.129971506284
 21
852.306448864491
 31
0.0
  0
LINE
  5
80E9
330
18
100
AcDbEntity
  8
DRAW2
100
AcDbLine
 10
1844.530041531936
 20
831.0065019312732
 30
0.0
 11
1844.530041531936
 21
852.0065019312733
 31
0.0
  0
ARC
  5
80EA
330
18
100
AcDbEntity
  8
DRAW2
100
AcDbCircle
 10
1884.030002049514
 20
836.3177363682529
 30
0.0
 40
5.0
100
AcDbArc
 50
234.5494267646769
 51
270.0
  0
LINE
  5
80EB
330
18
100
AcDbEntity
  8
DRAW2
100
AcDbLine
 10
1891.130002049514
 20
833.0064119312734
 30
0.0
 11
1881.129872049514
 21
833.0064119312734
 31
0.0
  0
LINE
  5
80EC
330
18
100
AcDbEntity
  8
DRAW2
100
AcDbLine
 10
1890.370842049514
 20
841.5064719312731
 30
0.0
 11
1881.129872049514
 21
841.5064719312731
 31
0.0
  0
ARC
  5
80ED
330
18
100
AcDbEntity
  8
DRAW2
370
    15
100
AcDbCircle
 10
1889.750001194753
 20
820.3834535873077
 30
0.0
 40
10.74967149395738
100
AcDbArc
 50
184.2581008718297
 51
235.804066832061
  0
ARC
  5
80EE
330
18
100
AcDbEntity
  8
DRAW2
100
AcDbCircle
 10
1845.029971531936
 20
819.3177363682529
 30
0.0
 40
2.0
100
AcDbArc
 50
90.0
 51
180.0
  0
ARC
  5
80EF
330
18
100
AcDbEntity
  8
DRAW2
100
AcDbCircle
 10
1845.029971531936
 20
823.317736368253
 30
0.0
 40
2.0
100
AcDbArc
 50
270.0
 51
0.0
  0
LINE
  5
80F0
330
18
100
AcDbEntity
  8
DRAW2
100
AcDbLine
 10
1844.530041531936
 20
831.0065019312732
 30
0.0
 11
1847.030041531936
 21
831.0065019312732
 31
0.0
  0
LINE
  5
80F1
330
18
100
AcDbEntity
  8
DRAW2
100
AcDbLine
 10
1879.029872049514
 20
841.2564719312731
 30
0.0
 11
1881.129872049514
 21
841.2564719312731
 31
0.0
  0
LINE
  5
80F2
330
18
100
AcDbEntity
  8
DRAW2
100
AcDbLine
 10
1879.029872049514
 20
841.7564719312732
 30
0.0
 11
1881.129872049514
 21
841.7564719312732
 31
0.0
  0
LINE
  5
80F3
330
18
100
AcDbEntity
  8
DRAW2
100
AcDbLine
 10
1881.130002049514
 20
830.7064819312731
 30
0.0
 11
1879.030002049514
 21
830.7064819312731
 31
0.0
  0
ARC
  5
80F4
330
18
100
AcDbEntity
  8
DRAW2
370
    15
100
AcDbCircle
 10
1893.771357036901
 20
823.0321379250002
 30
0.0
 40
15.31121524479932
100
AcDbArc
 50
228.9113085531353
 51
251.9609274088182
  0
LINE
  5
80F5
330
18
100
AcDbEntity
  8
DRAW2
370
    15
100
AcDbLine
 10
1893.958851651755
 20
808.1461971125367
 30
0.0
 11
1893.958851651755
 21
829.0530871725891
 31
0.0
  0
ARC
  5
80F6
330
18
100
AcDbEntity
  8
DRAW2
370
    15
100
AcDbCircle
 10
1905.807643577603
 20
832.9140096741509
 30
0.0
 40
28.81652038109598
100
AcDbArc
 50
245.7209849818919
 51
267.663820513639
  0
LINE
  5
80F7
330
18
100
AcDbEntity
  8
DRAW2
100
AcDbLine
 10
1884.030002049514
 20
831.317736368253
 30
0.0
 11
1905.166706049463
 21
831.317736368253
 31
0.0
  0
LINE
  5
80F8
330
18
100
AcDbEntity
  8
DRAW3
100
AcDbLine
 10
1899.530002049514
 20
846.559421931273
 30
0.0
 11
1891.130002049514
 21
846.559421931273
 31
0.0
  0
LINE
  5
80F9
330
18
100
AcDbEntity
  8
DRAW2
100
AcDbLine
 10
1898.530002049514
 20
847.5065619312733
 30
0.0
 11
1891.130002049514
 21
847.5065619312733
 31
0.0
  0
LINE
  5
80FA
330
18
100
AcDbEntity
  8
DRAW2
100
AcDbLine
 10
1898.530002049514
 20
835.5064419312732
 30
0.0
 11
1891.130002049514
 21
835.5064419312732
 31
0.0
  0
LINE
  5
80FB
330
18
100
AcDbEntity
  8
DRAW3
100
AcDbLine
 10
1899.530002049514
 20
836.4534619312733
 30
0.0
 11
1891.130002049514
 21
836.4534619312733
 31
0.0
  0
ARC
  5
80FC
330
18
100
AcDbEntity
  8
DRAW2
100
AcDbCircle
 10
1878.854482049515
 20
837.256471931273
 30
0.0
 40
12.275561
100
AcDbArc
 50
339.7439100000002
 51
20.25606999999685
  0
LINE
  5
80FD
330
18
100
AcDbEntity
  8
DRAW2
100
AcDbLine
 10
1899.530045401861
 20
846.5065503156687
 30
0.0
 11
1898.530042072571
 21
847.5064869861682
 31
0.0
  0
LINE
  5
80FE
330
18
100
AcDbEntity
  8
DRAW2
100
AcDbLine
 10
1899.530062049514
 20
836.5064419312732
 30
0.0
 11
1898.530062049514
 21
835.506501931273
 31
0.0
  0
LINE
  5
80FF
330
18
100
AcDbEntity
  8
DRAW2
100
AcDbLine
 10
1899.530002049514
 20
836.5064419312732
 30
0.0
 11
1899.530002049514
 21
846.5064419312732
 31
0.0
  0
LINE
  5
8100
330
18
100
AcDbEntity
  8
DRAW2
100
AcDbLine
 10
1898.530002049514
 20
847.5065719312731
 30
0.0
 11
1898.530002049514
 21
835.5064419312732
 31
0.0
  0
ARC
  5
8101
330
18
100
AcDbEntity
  8
DRAW2
100
AcDbCircle
 10
1905.166706049463
 20
839.317736368253
 30
0.0
 40
8.0
100
AcDbArc
 50
270.0
 51
340.1729985190566
  0
ARC
  5
8102
330
18
100
AcDbEntity
  8
DRAW2
100
AcDbCircle
 10
1927.448072172821
 20
838.7202512230162
 30
0.0
 40
9.0
100
AcDbArc
 50
157.5000000000011
 51
199.1885800105347
  0
LINE
  5
8103
330
18
100
AcDbEntity
  8
DRAW2
100
AcDbLine
 10
1918.948095072821
 20
833.8127815230162
 30
0.0
 11
1918.948095072821
 21
843.6277457230161
 31
0.0
  0
LINE
  5
8104
330
18
100
AcDbEntity
  8
DRAW2
100
AcDbLine
 10
1891.130002049514
 20
850.0065319312732
 30
0.0
 11
1881.129872049514
 21
850.0065319312732
 31
0.0
  0
LINE
  5
8105
330
18
100
AcDbEntity
  8
DRAW2
100
AcDbLine
 10
1864.030002049514
 20
863.3177363682531
 30
0.0
 11
1848.029971531936
 21
863.3177363682531
 31
0.0
  0
LINE
  5
8106
330
18
100
AcDbEntity
  8
DRAW2
100
AcDbLine
 10
1848.029971531936
 20
863.3177363682531
 30
0.0
 11
1847.029971531936
 21
862.3177363682529
 31
0.0
  0
LINE
  5
8107
330
18
100
AcDbEntity
  8
DRAW2
100
AcDbLine
 10
1844.530041531936
 20
852.0065019312733
 30
0.0
 11
1847.030041531936
 21
852.0065019312733
 31
0.0
  0
LINE
  5
8108
330
18
100
AcDbEntity
  8
DRAW2
100
AcDbLine
 10
1865.030002049515
 20
856.3223719680248
 30
0.0
 11
1876.030002049514
 21
856.3223719680248
 31
0.0
  0
LINE
  5
8109
330
18
100
AcDbEntity
  8
DRAW2
100
AcDbLine
 10
1864.030002049514
 20
863.3177363682531
 30
0.0
 11
1865.030002049515
 21
862.3177363682529
 31
0.0
  0
ARC
  5
810A
330
18
100
AcDbEntity
  8
DRAW2
100
AcDbCircle
 10
1876.030002049514
 20
853.3223719680247
 30
0.0
 40
3.0
100
AcDbArc
 50
0.0
 51
90.0
  0
LINE
  5
810B
330
18
100
AcDbEntity
  8
DRAW2
100
AcDbLine
 10
1881.129971506284
 20
852.306448864491
 30
0.0
 11
1879.029971506293
 21
852.3064429255205
 31
0.0
  0
LINE
  5
810C
330
18
100
AcDbEntity
  8
DRAW2
100
AcDbLine
 10
2258.030002049514
 20
709.313100768481
 30
0.0
 11
2258.030002049514
 21
853.3223719680247
 31
0.0
  0
LINE
  5
810D
330
18
100
AcDbEntity
  8
DRAW2
100
AcDbLine
 10
2081.030002049515
 20
772.6574823304085
 30
0.0
 11
2066.030002049515
 21
763.9972282925641
 31
0.0
  0
LINE
  5
810E
330
18
100
AcDbEntity
  8
DRAW2
100
AcDbLine
 10
2066.030002049515
 20
763.9972282925641
 30
0.0
 11
2051.030002049514
 21
772.6574823304085
 31
0.0
  0
CIRCLE
  5
8110
330
18
100
AcDbEntity
  8
DRAW2
100
AcDbCircle
 10
2066.030002049514
 20
781.3177363682529
 30
0.0
 40
123.0
  0
CIRCLE
  5
8111
330
18
100
AcDbEntity
  8
DRAW2
100
AcDbCircle
 10
2066.030002049514
 20
781.3177363682529
 30
0.0
 40
118.0
  0
LINE
  5
8112
330
18
100
AcDbEntity
  8
DRAW2
100
AcDbLine
 10
2272.030002049514
 20
706.313100768481
 30
0.0
 11
2272.030002049514
 21
856.3223719680248
 31
0.0
  0
LINE
  5
8113
330
18
100
AcDbEntity
  8
DRAW2
100
AcDbLine
 10
2272.030002049514
 20
700.317736368253
 30
0.0
 11
2272.030002049514
 21
862.3177363682529
 31
0.0
  0
ARC
  5
8115
330
18
100
AcDbEntity
  8
DRAW2
100
AcDbCircle
 10
2066.030002049514
 20
470.3856570872415
 30
0.0
 40
12.5
100
AcDbArc
 50
0.0
 51
248.2843699999999
  0
ARC
  5
8116
330
18
100
AcDbEntity
  8
DRAW2
100
AcDbCircle
 10
2066.030002049514
 20
470.3856570872415
 30
0.0
 40
12.5
100
AcDbArc
 50
291.7156099999999
 51
0.0
  0
LINE
  5
8117
330
18
100
AcDbEntity
  8
DRAW2
100
AcDbLine
 10
2061.405002049514
 20
458.7727670872415
 30
0.0
 11
2070.655002049514
 21
458.7727670872415
 31
0.0
  0
CIRCLE
  5
8119
330
18
100
AcDbEntity
  8
DRAW2
100
AcDbCircle
 10
2008.627487194751
 20
642.7358064915599
 30
0.0
 40
8.500000999999999
  0
LINE
  5
811A
330
18
100
AcDbEntity
  8
DRAW2
100
AcDbLine
 10
2008.627496058337
 20
652.55076319156
 30
0.0
 11
2017.127484294751
 21
647.64329289156
 31
0.0
  0
LINE
  5
811B
330
18
100
AcDbEntity
  8
DRAW2
100
AcDbLine
 10
2008.627500057363
 20
632.9208421915599
 30
0.0
 11
2017.127502494751
 21
637.8283200915599
 31
0.0
  0
ARC
  5
811C
330
18
100
AcDbEntity
  8
DRAW2
100
AcDbCircle
 10
2008.627487194751
 20
642.7358064915599
 30
0.0
 40
9.0
100
AcDbArc
 50
280.8121538808906
 51
319.1878380774259
  0
ARC
  5
811D
330
18
100
AcDbEntity
  8
DRAW2
100
AcDbCircle
 10
2008.627487194751
 20
642.7358064915599
 30
0.0
 40
9.0
100
AcDbArc
 50
40.811987653761
 51
79.1880143320699
  0
LINE
  5
811E
330
18
100
AcDbEntity
  8
DRAW2
100
AcDbLine
 10
2000.127492894751
 20
647.64328859156
 30
0.0
 11
2008.627495112149
 21
652.5507659915599
 31
0.0
  0
LINE
  5
811F
330
18
100
AcDbEntity
  8
DRAW2
100
AcDbLine
 10
2000.127497694751
 20
637.82833339156
 30
0.0
 11
2008.627512389557
 21
632.92084699156
 31
0.0
  0
ARC
  5
8120
330
18
100
AcDbEntity
  8
DRAW2
100
AcDbCircle
 10
2008.627487194751
 20
642.7358064915599
 30
0.0
 40
9.0
100
AcDbArc
 50
220.8116936954073
 51
259.1882999565267
  0
ARC
  5
8121
330
18
100
AcDbEntity
  8
DRAW2
100
AcDbCircle
 10
2008.627487194751
 20
642.7358064915599
 30
0.0
 40
9.0
100
AcDbArc
 50
100.8118733546232
 51
139.188114832397
  0
LINE
  5
8122
330
18
100
AcDbEntity
  8
DRAW2
100
AcDbLine
 10
2000.127510094751
 20
637.8283367915599
 30
0.0
 11
2000.127510094751
 21
647.64330099156
 31
0.0
  0
ARC
  5
8123
330
18
100
AcDbEntity
  8
DRAW2
100
AcDbCircle
 10
2008.627487194751
 20
642.7358064915599
 30
0.0
 40
9.0
100
AcDbArc
 50
160.8114199894652
 51
199.1885800105347
  0
ARC
  5
8126
330
18
100
AcDbEntity
  8
DRAW2
100
AcDbCircle
 10
1927.448072172822
 20
723.9152215134891
 30
0.0
 40
9.0
100
AcDbArc
 50
40.811987653761
 51
79.1880143320667
  0
LINE
  5
8127
330
18
100
AcDbEntity
  8
DRAW2
100
AcDbLine
 10
1927.448081036407
 20
733.7301782134891
 30
0.0
 11
1935.948069272821
 21
728.822707913489
 31
0.0
  0
LINE
  5
8128
330
18
100
AcDbEntity
  8
DRAW2
100
AcDbLine
 10
1927.448085035434
 20
714.100257213489
 30
0.0
 11
1935.948087472822
 21
719.0077351134891
 31
0.0
  0
ARC
  5
8129
330
18
100
AcDbEntity
  8
DRAW2
100
AcDbCircle
 10
1927.448072172822
 20
723.9152215134891
 30
0.0
 40
9.0
100
AcDbArc
 50
280.8121538808906
 51
319.1878380774259
  0
LINE
  5
812B
330
18
100
AcDbEntity
  8
DRAW2
100
AcDbLine
 10
1935.948077872821
 20
719.007734613489
 30
0.0
 11
1935.948077872821
 21
728.8226989134891
 31
0.0
  0
ARC
  5
812C
330
18
100
AcDbEntity
  8
DRAW2
100
AcDbCircle
 10
1927.448072172822
 20
723.9152215134891
 30
0.0
 40
9.0
100
AcDbArc
 50
340.8119739527817
 51
22.49999999999881
  0
LINE
  5
812D
330
18
100
AcDbEntity
  8
DRAW2
100
AcDbLine
 10
2017.127492894751
 20
637.8283195915599
 30
0.0
 11
2017.127492894751
 21
647.6432838915599
 31
0.0
  0
ARC
  5
812E
330
18
100
AcDbEntity
  8
DRAW2
100
AcDbCircle
 10
2008.627487194751
 20
642.7358064915599
 30
0.0
 40
9.0
100
AcDbArc
 50
340.8119739527817
 51
19.18802604721823
  0
CIRCLE
  5
8131
330
18
100
AcDbEntity
  8
DRAW2
100
AcDbCircle
 10
2123.432516904278
 20
642.7358064915599
 30
0.0
 40
8.500000999999999
  0
LINE
  5
8132
330
18
100
AcDbEntity
  8
DRAW2
100
AcDbLine
 10
2123.432525767864
 20
652.55076319156
 30
0.0
 11
2131.932514004278
 21
647.64329289156
 31
0.0
  0
LINE
  5
8133
330
18
100
AcDbEntity
  8
DRAW2
100
AcDbLine
 10
2123.43252976689
 20
632.9208421915599
 30
0.0
 11
2131.932532204278
 21
637.8283200915599
 31
0.0
  0
LINE
  5
8135
330
18
100
AcDbEntity
  8
DRAW2
100
AcDbLine
 10
2114.932522604278
 20
647.64328859156
 30
0.0
 11
2123.432524821676
 21
652.5507659915599
 31
0.0
  0
ARC
  5
8136
330
18
100
AcDbEntity
  8
DRAW2
100
AcDbCircle
 10
2123.432516904278
 20
642.7358064915599
 30
0.0
 40
9.0
100
AcDbArc
 50
220.8116936954073
 51
259.188299956526
  0
LINE
  5
8137
330
18
100
AcDbEntity
  8
DRAW2
100
AcDbLine
 10
2114.932539804278
 20
637.8283367915599
 30
0.0
 11
2114.932539804278
 21
647.64330099156
 31
0.0
  0
ARC
  5
8138
330
18
100
AcDbEntity
  8
DRAW2
100
AcDbCircle
 10
2123.432516904278
 20
642.7358064915599
 30
0.0
 40
9.0
100
AcDbArc
 50
160.8114199894652
 51
199.1885800105347
  0
LINE
  5
8139
330
18
100
AcDbEntity
  8
DRAW2
100
AcDbLine
 10
2114.932527404278
 20
637.82833339156
 30
0.0
 11
2123.432542099084
 21
632.92084699156
 31
0.0
  0
ARC
  5
813A
330
18
100
AcDbEntity
  8
DRAW2
100
AcDbCircle
 10
2123.432516904278
 20
642.7358064915599
 30
0.0
 40
9.0
100
AcDbArc
 50
100.8118733546232
 51
139.188114832397
  0
ARC
  5
813B
330
18
100
AcDbEntity
  8
DRAW2
100
AcDbCircle
 10
2123.432516904278
 20
642.7358064915599
 30
0.0
 40
9.0
100
AcDbArc
 50
280.8121538808898
 51
319.1878380774259
  0
LINE
  5
813C
330
18
100
AcDbEntity
  8
DRAW2
100
AcDbLine
 10
2131.932522604278
 20
637.8283195915599
 30
0.0
 11
2131.932522604278
 21
647.6432838915599
 31
0.0
  0
ARC
  5
813D
330
18
100
AcDbEntity
  8
DRAW2
100
AcDbCircle
 10
2123.432516904278
 20
642.7358064915599
 30
0.0
 40
9.0
100
AcDbArc
 50
340.8119739527817
 51
19.18802604721823
  0
ARC
  5
813E
330
18
100
AcDbEntity
  8
DRAW2
100
AcDbCircle
 10
2123.432516904278
 20
642.7358064915599
 30
0.0
 40
9.0
100
AcDbArc
 50
40.811987653761
 51
79.1880143320667
  0
LINE
  5
813F
330
18
100
AcDbEntity
  8
DRAW2
100
AcDbLine
 10
2231.330002049514
 20
733.3177363682523
 30
0.0
 11
2248.030002049514
 21
733.3177363682523
 31
0.0
  0
ARC
  5
8140
330
18
100
AcDbEntity
  8
DRAW2
100
AcDbCircle
 10
2204.611931926207
 20
723.9152215134893
 30
0.0
 40
9.0
100
AcDbArc
 50
100.8118733546232
 51
139.188114832397
  0
LINE
  5
8141
330
18
100
AcDbEntity
  8
DRAW2
100
AcDbLine
 10
2196.111937626207
 20
728.8227036134895
 30
0.0
 11
2204.611939843605
 21
733.7301810134893
 31
0.0
  0
ARC
  5
8142
330
18
100
AcDbEntity
  8
DRAW2
100
AcDbCircle
 10
2204.611931926207
 20
723.9152215134893
 30
0.0
 40
9.0
100
AcDbArc
 50
40.811987653761
 51
79.1880143320667
  0
CIRCLE
  5
8144
330
18
100
AcDbEntity
  8
DRAW2
100
AcDbCircle
 10
2204.611931926207
 20
723.9152215134893
 30
0.0
 40
8.500000999999999
  0
LINE
  5
8145
330
18
100
AcDbEntity
  8
DRAW2
100
AcDbLine
 10
2204.611940789793
 20
733.7301782134893
 30
0.0
 11
2213.111929026208
 21
728.8227079134895
 31
0.0
  0
LINE
  5
8146
330
18
100
AcDbEntity
  8
DRAW2
100
AcDbLine
 10
2204.611944788819
 20
714.1002572134892
 30
0.0
 11
2213.111947226207
 21
719.0077351134891
 31
0.0
  0
LINE
  5
8148
330
18
100
AcDbEntity
  8
DRAW2
100
AcDbLine
 10
2196.111942426207
 20
719.0077484134895
 30
0.0
 11
2204.611957121013
 21
714.1002620134893
 31
0.0
  0
ARC
  5
8149
330
18
100
AcDbEntity
  8
DRAW2
100
AcDbCircle
 10
2204.611931926207
 20
723.9152215134893
 30
0.0
 40
9.0
100
AcDbArc
 50
220.8116936953992
 51
259.1882999565267
  0
LINE
  5
814A
330
18
100
AcDbEntity
  8
DRAW2
100
AcDbLine
 10
2196.111954826207
 20
719.0077518134894
 30
0.0
 11
2196.111954826207
 21
728.8227160134892
 31
0.0
  0
ARC
  5
814B
330
18
100
AcDbEntity
  8
DRAW2
100
AcDbCircle
 10
2204.611931926207
 20
723.9152215134893
 30
0.0
 40
9.0
100
AcDbArc
 50
157.5000000000011
 51
199.1885800105347
  0
ARC
  5
814C
330
18
100
AcDbEntity
  8
DRAW2
100
AcDbCircle
 10
2204.611931926207
 20
723.9152215134893
 30
0.0
 40
9.0
100
AcDbArc
 50
280.8121538808906
 51
319.1878380774259
  0
LINE
  5
814E
330
18
100
AcDbEntity
  8
DRAW2
100
AcDbLine
 10
2213.111937626207
 20
719.0077346134894
 30
0.0
 11
2213.111937626207
 21
728.8226989134891
 31
0.0
  0
ARC
  5
814F
330
18
100
AcDbEntity
  8
DRAW2
100
AcDbCircle
 10
2204.611931926207
 20
723.9152215134893
 30
0.0
 40
9.0
100
AcDbArc
 50
337.5000000000011
 51
19.18802604721823
  0
ARC
  5
8150
330
18
100
AcDbEntity
  8
DRAW2
370
    15
100
AcDbCircle
 10
2231.330002049514
 20
781.3177363682525
 30
0.0
 40
48.00000000000009
100
AcDbArc
 50
258.8852914298957
 51
270.0
  0
LINE
  5
8151
330
18
100
AcDbEntity
  8
DRAW2
100
AcDbLine
 10
2255.929872049514
 20
710.328950805233
 30
0.0
 11
2255.929902592745
 21
731.9289177384507
 31
0.0
  0
ARC
  5
8152
330
18
100
AcDbEntity
  8
DRAW2
100
AcDbCircle
 10
2248.030002049514
 20
723.3177363682525
 30
0.0
 40
10.0
100
AcDbArc
 50
39.13327849017095
 51
90.0
  0
LINE
  5
8153
330
18
100
AcDbEntity
  8
DRAW2
100
AcDbLine
 10
2234.030002049514
 20
733.3177363682525
 30
0.0
 11
2240.218707612534
 21
727.1290308052329
 31
0.0
  0
LINE
  5
8154
330
18
100
AcDbEntity
  8
DRAW2
100
AcDbLine
 10
2245.929872049514
 20
712.628880805233
 30
0.0
 11
2255.930002049514
 21
712.628880805233
 31
0.0
  0
LINE
  5
8155
330
18
100
AcDbEntity
  8
DRAW2
100
AcDbLine
 10
2245.929872049514
 20
729.6290008052331
 30
0.0
 11
2255.930002049514
 21
729.6290008052331
 31
0.0
  0
LINE
  5
8156
330
18
100
AcDbEntity
  8
DRAW2
100
AcDbLine
 10
2246.689032049514
 20
721.128940805233
 30
0.0
 11
2255.930002049514
 21
721.128940805233
 31
0.0
  0
LINE
  5
8157
330
18
100
AcDbEntity
  8
DRAW2
100
AcDbLine
 10
2254.718857612534
 20
712.628880805233
 30
0.0
 11
2255.929873589283
 21
711.4178648284845
 31
0.0
  0
LINE
  5
8158
330
18
100
AcDbEntity
  8
DRAW2
100
AcDbLine
 10
2238.529872049514
 20
715.128910805233
 30
0.0
 11
2245.929872049514
 21
715.128910805233
 31
0.0
  0
LINE
  5
8159
330
18
100
AcDbEntity
  8
DRAW3
100
AcDbLine
 10
2237.529872049515
 20
716.0759308052329
 30
0.0
 11
2245.929872049514
 21
716.0759308052329
 31
0.0
  0
LINE
  5
815A
330
18
100
AcDbEntity
  8
DRAW3
100
AcDbLine
 10
2237.529872049515
 20
726.181890805233
 30
0.0
 11
2245.929872049514
 21
726.181890805233
 31
0.0
  0
LINE
  5
815B
330
18
100
AcDbEntity
  8
DRAW2
100
AcDbLine
 10
2238.529872049514
 20
727.1290308052329
 30
0.0
 11
2245.929872049514
 21
727.1290308052329
 31
0.0
  0
LINE
  5
815C
330
18
100
AcDbEntity
  8
DRAW2
100
AcDbLine
 10
2237.529812049514
 20
716.128910805233
 30
0.0
 11
2238.529812049514
 21
715.1289708052331
 31
0.0
  0
LINE
  5
815D
330
18
100
AcDbEntity
  8
DRAW2
100
AcDbLine
 10
2238.529872049514
 20
727.1290408052331
 30
0.0
 11
2238.529872049514
 21
715.128910805233
 31
0.0
  0
LINE
  5
815E
330
18
100
AcDbEntity
  8
DRAW2
100
AcDbLine
 10
2237.529872049515
 20
716.128910805233
 30
0.0
 11
2237.529872049515
 21
726.1289108052331
 31
0.0
  0
LINE
  5
815F
330
18
100
AcDbEntity
  8
DRAW2
100
AcDbLine
 10
2237.529828697168
 20
726.1290191896282
 30
0.0
 11
2238.529832026457
 21
727.1289558601282
 31
0.0
  0
ARC
  5
8160
330
18
100
AcDbEntity
  8
DRAW2
100
AcDbCircle
 10
2258.205392049514
 20
716.878940805233
 30
0.0
 40
12.275561
100
AcDbArc
 50
159.7439300000031
 51
200.2560899999997
  0
LINE
  5
8161
330
18
100
AcDbEntity
  8
DRAW2
100
AcDbLine
 10
2245.929872049514
 20
712.628940805233
 30
0.0
 11
2245.929872049514
 21
729.6290008052331
 31
0.0
  0
ARC
  5
8162
330
18
100
AcDbEntity
  8
DRAW2
100
AcDbCircle
 10
2258.205392049514
 20
725.3789408052329
 30
0.0
 40
12.275561
100
AcDbArc
 50
159.74364
 51
200.2560699999968
  0
LINE
  5
8163
330
18
100
AcDbEntity
  8
DRAW2
100
AcDbLine
 10
2261.030002049514
 20
706.313100768481
 30
0.0
 11
2272.030002049514
 21
706.313100768481
 31
0.0
  0
LINE
  5
8164
330
18
100
AcDbEntity
  8
DRAW2
100
AcDbLine
 10
2257.018787612534
 20
710.328950805233
 30
0.0
 11
2258.030002049514
 21
709.3177363682531
 31
0.0
  0
LINE
  5
8165
330
18
100
AcDbEntity
  8
DRAW2
100
AcDbLine
 10
2255.929872049514
 20
710.328950805233
 30
0.0
 11
2258.029872049514
 21
710.328950805233
 31
0.0
  0
ARC
  5
8166
330
18
100
AcDbEntity
  8
DRAW2
100
AcDbCircle
 10
2261.030002049514
 20
709.3131007684809
 30
0.0
 40
3.0
100
AcDbArc
 50
179.9999999999934
 51
270.0
  0
LINE
  5
8167
330
18
100
AcDbEntity
  8
DRAW2
100
AcDbLine
 10
2273.030002049514
 20
699.317736368253
 30
0.0
 11
2272.030002049514
 21
700.317736368253
 31
0.0
  0
LINE
  5
8168
330
18
100
AcDbEntity
  8
DRAW2
100
AcDbLine
 10
2258.030002049514
 20
720.878940805233
 30
0.0
 11
2255.930002049514
 21
720.878940805233
 31
0.0
  0
LINE
  5
8169
330
18
100
AcDbEntity
  8
DRAW2
100
AcDbLine
 10
2258.030002049514
 20
721.3789408052329
 30
0.0
 11
2255.930002049514
 21
721.3789408052329
 31
0.0
  0
LINE
  5
816A
330
18
100
AcDbEntity
  8
DRAW2
100
AcDbLine
 10
2255.929902592745
 20
731.9289177384507
 30
0.0
 11
2258.029902592736
 21
731.9289117994803
 31
0.0
  0
LINE
  5
816B
330
18
100
AcDbEntity
  8
DRAW2
100
AcDbLine
 10
2000.127492894751
 20
924.8071483449459
 30
0.0
 11
2008.627495112149
 21
929.714625744946
 31
0.0
  0
ARC
  5
816C
330
18
100
AcDbEntity
  8
DRAW2
100
AcDbCircle
 10
2008.627487194751
 20
919.8996662449459
 30
0.0
 40
9.0
100
AcDbArc
 50
100.81187335462
 51
139.1881148324057
  0
ARC
  5
816D
330
18
100
AcDbEntity
  8
DRAW2
100
AcDbCircle
 10
2008.627487194751
 20
919.8996662449459
 30
0.0
 40
9.0
100
AcDbArc
 50
40.811987653761
 51
79.18801433207071
  0
LINE
  5
816E
330
18
100
AcDbEntity
  8
DRAW2
100
AcDbLine
 10
2008.627496058337
 20
929.7146229449461
 30
0.0
 11
2017.127484294751
 21
924.8071526449459
 31
0.0
  0
CIRCLE
  5
8170
330
18
100
AcDbEntity
  8
DRAW2
100
AcDbCircle
 10
2008.627487194751
 20
919.8996662449459
 30
0.0
 40
8.500000999999999
  0
LINE
  5
8171
330
18
100
AcDbEntity
  8
DRAW2
100
AcDbLine
 10
2008.627500057363
 20
910.084701944946
 30
0.0
 11
2017.127502494751
 21
914.9921798449462
 31
0.0
  0
ARC
  5
8172
330
18
100
AcDbEntity
  8
DRAW2
100
AcDbCircle
 10
2008.627487194751
 20
919.8996662449459
 30
0.0
 40
9.0
100
AcDbArc
 50
280.8121538808866
 51
319.1878380774345
  0
ARC
  5
8174
330
18
100
AcDbEntity
  8
DRAW2
100
AcDbCircle
 10
1927.448072172821
 20
838.7202512230162
 30
0.0
 40
9.0
100
AcDbArc
 50
280.8121538808866
 51
319.1878380774345
  0
LINE
  5
8175
330
18
100
AcDbEntity
  8
DRAW2
100
AcDbLine
 10
1927.448085035433
 20
828.9052869230163
 30
0.0
 11
1935.948087472821
 21
833.8127648230162
 31
0.0
  0
ARC
  5
8177
330
18
100
AcDbEntity
  8
DRAW2
100
AcDbCircle
 10
1927.448072172821
 20
838.7202512230162
 30
0.0
 40
9.0
100
AcDbArc
 50
40.811987653761
 51
79.18801433207071
  0
LINE
  5
8178
330
18
100
AcDbEntity
  8
DRAW2
100
AcDbLine
 10
1927.448081036407
 20
848.5352079230162
 30
0.0
 11
1935.948069272821
 21
843.6277376230162
 31
0.0
  0
LINE
  5
8179
330
18
100
AcDbEntity
  8
DRAW2
100
AcDbLine
 10
1935.948077872821
 20
833.8127643230162
 30
0.0
 11
1935.948077872821
 21
843.6277286230163
 31
0.0
  0
ARC
  5
817A
330
18
100
AcDbEntity
  8
DRAW2
100
AcDbCircle
 10
1927.448072172821
 20
838.7202512230162
 30
0.0
 40
9.0
100
AcDbArc
 50
337.5000000000011
 51
19.18802604721823
  0
LINE
  5
817B
330
18
100
AcDbEntity
  8
DRAW2
100
AcDbLine
 10
2000.127497694751
 20
914.992193144946
 30
0.0
 11
2008.627512389557
 21
910.0847067449461
 31
0.0
  0
ARC
  5
817C
330
18
100
AcDbEntity
  8
DRAW2
100
AcDbCircle
 10
2008.627487194751
 20
919.8996662449459
 30
0.0
 40
9.0
100
AcDbArc
 50
220.8116936954073
 51
259.1882999565267
  0
ARC
  5
817D
330
18
100
AcDbEntity
  8
DRAW2
100
AcDbCircle
 10
2008.627487194751
 20
919.8996662449459
 30
0.0
 40
9.0
100
AcDbArc
 50
160.8114199894652
 51
199.1885800105347
  0
LINE
  5
817E
330
18
100
AcDbEntity
  8
DRAW2
100
AcDbLine
 10
2000.127510094751
 20
914.9921965449459
 30
0.0
 11
2000.127510094751
 21
924.807160744946
 31
0.0
  0
ARC
  5
8180
330
18
100
AcDbEntity
  8
DRAW2
100
AcDbCircle
 10
2066.030002049514
 20
781.3177363682529
 30
0.0
 40
10.0
100
AcDbArc
 50
23.57817847820053
 51
156.4218215217994
  0
LINE
  5
8181
330
18
100
AcDbEntity
  8
DRAW2
100
AcDbLine
 10
2049.530002049514
 20
777.3177363682529
 30
0.0
 11
2082.530002049514
 21
777.3177363682529
 31
0.0
  0
LINE
  5
8182
330
18
100
AcDbEntity
  8
DRAW2
100
AcDbLine
 10
2049.530002049514
 20
785.3177363682529
 30
0.0
 11
2082.530002049514
 21
785.3177363682529
 31
0.0
  0
ARC
  5
8183
330
18
100
AcDbEntity
  8
DRAW2
100
AcDbCircle
 10
2066.030002049514
 20
781.3177363682529
 30
0.0
 40
10.0
100
AcDbArc
 50
203.5781784782005
 51
336.4218215217994
  0
LINE
  5
8184
330
18
100
AcDbEntity
  8
DRAW2
100
AcDbLine
 10
2051.029979209542
 20
789.9779508459846
 30
0.0
 11
2066.029979209508
 21
798.6382840039945
 31
0.0
  0
LINE
  5
8186
330
18
100
AcDbEntity
  8
DRAW2
100
AcDbLine
 10
2031.499980740404
 20
775.817736368253
 30
0.0
 11
2048.499980740403
 21
775.817736368253
 31
0.0
  0
LINE
  5
8187
330
18
100
AcDbEntity
  8
DRAW2
100
AcDbLine
 10
2031.499980740404
 20
786.817736368253
 30
0.0
 11
2048.499980740403
 21
786.817736368253
 31
0.0
  0
LINE
  5
8188
330
18
100
AcDbEntity
  8
DRAW2
100
AcDbLine
 10
2031.499980740404
 20
775.817736368253
 30
0.0
 11
2031.499980740404
 21
786.817736368253
 31
0.0
  0
LINE
  5
8189
330
18
100
AcDbEntity
  8
DRAW3
100
AcDbLine
 10
2043.499980740403
 20
785.8177363682529
 30
0.0
 11
2048.499980740403
 21
785.8177363682529
 31
0.0
  0
LINE
  5
818A
330
18
100
AcDbEntity
  8
DRAW3
100
AcDbLine
 10
2043.499980740403
 20
786.567736368253
 30
0.0
 11
2048.499980740403
 21
786.567736368253
 31
0.0
  0
LINE
  5
818B
330
18
100
AcDbEntity
  8
DRAW3
100
AcDbLine
 10
2043.499980740403
 20
778.317736368253
 30
0.0
 11
2046.88425073845
 21
778.317736368253
 31
0.0
  0
LINE
  5
818C
330
18
100
AcDbEntity
  8
DRAW3
100
AcDbLine
 10
2043.499980740403
 20
784.317736368253
 30
0.0
 11
2046.88425073845
 21
784.317736368253
 31
0.0
  0
LINE
  5
818D
330
18
100
AcDbEntity
  8
DRAW3
100
AcDbLine
 10
2043.499980740403
 20
781.3177363682529
 30
0.0
 11
2048.499980740403
 21
781.3177363682529
 31
0.0
  0
LINE
  5
818E
330
18
100
AcDbEntity
  8
DRAW3
100
AcDbLine
 10
2043.499980740403
 20
777.567736368253
 30
0.0
 11
2048.138060958807
 21
777.567736368253
 31
0.0
  0
LINE
  5
818F
330
18
100
AcDbEntity
  8
DRAW3
100
AcDbLine
 10
2043.499980740403
 20
776.8177363682529
 30
0.0
 11
2048.499980740403
 21
776.8177363682529
 31
0.0
  0
LINE
  5
8190
330
18
100
AcDbEntity
  8
DRAW3
100
AcDbLine
 10
2043.499980740403
 20
776.067736368253
 30
0.0
 11
2048.499980740403
 21
776.067736368253
 31
0.0
  0
LINE
  5
8191
330
18
100
AcDbEntity
  8
DRAW3
100
AcDbLine
 10
2043.499980740403
 20
785.067736368253
 30
0.0
 11
2048.138060958807
 21
785.067736368253
 31
0.0
  0
ARC
  5
8192
330
18
100
AcDbEntity
  8
DRAW2
100
AcDbCircle
 10
2049.530002049514
 20
781.3177363682529
 30
0.0
 40
4.0
100
AcDbArc
 50
180.0
 51
270.0
  0
ARC
  5
8193
330
18
100
AcDbEntity
  8
DRAW2
100
AcDbCircle
 10
2049.530002049514
 20
781.3177363682529
 30
0.0
 40
4.0
100
AcDbArc
 50
90.0
 51
180.0
  0
LINE
  5
8194
330
18
100
AcDbEntity
  8
DRAW3
100
AcDbLine
 10
2043.499980740403
 20
780.567736368253
 30
0.0
 11
2045.600943638139
 21
780.567736368253
 31
0.0
  0
LINE
  5
8195
330
18
100
AcDbEntity
  8
DRAW3
100
AcDbLine
 10
2043.499980740403
 20
779.817736368253
 30
0.0
 11
2045.821902805966
 21
779.817736368253
 31
0.0
  0
LINE
  5
8196
330
18
100
AcDbEntity
  8
DRAW3
100
AcDbLine
 10
2043.499980740403
 20
779.0677363682529
 30
0.0
 11
2046.222812910684
 21
779.0677363682529
 31
0.0
  0
LINE
  5
8197
330
18
100
AcDbEntity
  8
DRAW3
100
AcDbLine
 10
2043.499980740403
 20
782.067736368253
 30
0.0
 11
2045.600943638139
 21
782.067736368253
 31
0.0
  0
LINE
  5
8198
330
18
100
AcDbEntity
  8
DRAW3
100
AcDbLine
 10
2043.499980740403
 20
782.817736368253
 30
0.0
 11
2045.821902805966
 21
782.817736368253
 31
0.0
  0
LINE
  5
8199
330
18
100
AcDbEntity
  8
DRAW3
100
AcDbLine
 10
2043.499980740403
 20
783.5677363682529
 30
0.0
 11
2046.222812910684
 21
783.5677363682529
 31
0.0
  0
LINE
  5
819A
330
18
100
AcDbEntity
  8
DRAW2
100
AcDbLine
 10
2045.530002049515
 20
781.3177363682529
 30
0.0
 11
2045.530002049515
 21
781.3177363682529
 31
0.0
  0
LINE
  5
819B
330
18
100
AcDbEntity
  8
DRAW2
100
AcDbLine
 10
2043.499980740403
 20
775.817736368253
 30
0.0
 11
2043.499980740403
 21
786.817736368253
 31
0.0
  0
LINE
  5
819C
330
18
100
AcDbEntity
  8
DRAW2
100
AcDbLine
 10
2050.063374679797
 20
786.2119428076469
 30
0.0
 11
2051.029984215494
 21
786.1817362596566
 31
0.0
  0
LINE
  5
819D
330
18
100
AcDbEntity
  8
DRAW3
100
AcDbLine
 10
2048.499980740403
 20
785.6961818763286
 30
0.0
 11
2048.529980740403
 21
785.6788613682529
 31
0.0
  0
LINE
  5
819E
330
18
100
AcDbEntity
  8
DRAW3
100
AcDbLine
 10
2049.499980740403
 20
785.6485488682531
 30
0.0
 11
2051.029984981641
 21
785.6007362357143
 31
0.0
  0
LINE
  5
819F
330
18
100
AcDbEntity
  8
DRAW2
100
AcDbLine
 10
2049.499980740403
 20
785.6485488682531
 30
0.0
 11
2050.063374679797
 21
786.2119428076469
 31
0.0
  0
ARC
  5
81A0
330
18
100
AcDbEntity
  8
DRAW2
100
AcDbCircle
 10
2066.030002049514
 20
781.3177363682529
 30
0.0
 40
17.32050807568884
100
AcDbArc
 50
149.9998488916119
 51
150.0001511083835
  0
LINE
  5
81A1
330
18
100
AcDbEntity
  8
DRAW2
100
AcDbLine
 10
2050.063374679797
 20
776.4235299288591
 30
0.0
 11
2051.02999704351
 21
776.4537368777251
 31
0.0
  0
LINE
  5
81A2
330
18
100
AcDbEntity
  8
DRAW2
100
AcDbLine
 10
2050.063374679797
 20
776.4235299288591
 30
0.0
 11
2050.063374679797
 21
777.3177363682529
 31
0.0
  0
LINE
  5
81A3
330
18
100
AcDbEntity
  8
DRAW2
100
AcDbLine
 10
2048.499980740403
 20
775.817736368253
 30
0.0
 11
2048.499980740403
 21
777.4526288532183
 31
0.0
  0
LINE
  5
81A4
330
18
100
AcDbEntity
  8
DRAW2
100
AcDbLine
 10
2049.499980740403
 20
777.3177363682529
 30
0.0
 11
2048.499980740403
 21
777.3177363682529
 31
0.0
  0
LINE
  5
81A5
330
18
100
AcDbEntity
  8
DRAW2
100
AcDbLine
 10
2049.499980740403
 20
785.3177363682529
 30
0.0
 11
2048.499980740403
 21
785.3177363682529
 31
0.0
  0
LINE
  5
81A6
330
18
100
AcDbEntity
  8
DRAW2
100
AcDbLine
 10
2049.499980740403
 20
776.9869238682529
 30
0.0
 11
2049.499980740403
 21
777.3178490297145
 31
0.0
  0
LINE
  5
81A7
330
18
100
AcDbEntity
  8
DRAW3
100
AcDbLine
 10
2049.499980740403
 20
776.9869238682529
 30
0.0
 11
2051.029996277363
 21
777.0347368537832
 31
0.0
  0
LINE
  5
81A8
330
18
100
AcDbEntity
  8
DRAW2
100
AcDbLine
 10
2049.499980740403
 20
776.9869238682529
 30
0.0
 11
2050.063374679797
 21
776.4235299288591
 31
0.0
  0
LINE
  5
81A9
330
18
100
AcDbEntity
  8
DRAW2
100
AcDbLine
 10
2051.030002049514
 20
772.6574823304085
 30
0.0
 11
2051.02999590418
 21
777.3177363682529
 31
0.0
  0
LINE
  5
81AA
330
18
100
AcDbEntity
  8
DRAW2
100
AcDbLine
 10
2051.029985354825
 20
785.3177363682529
 30
0.0
 11
2051.029979209542
 21
789.9779508459846
 31
0.0
  0
LINE
  5
81AB
330
18
100
AcDbEntity
  8
DRAW2
100
AcDbLine
 10
2050.063374679797
 20
785.3177363682529
 30
0.0
 11
2050.063374679797
 21
786.2119428076469
 31
0.0
  0
LINE
  5
81AC
330
18
100
AcDbEntity
  8
DRAW2
100
AcDbLine
 10
2048.499980740403
 20
785.1828438832876
 30
0.0
 11
2048.499980740403
 21
786.817736368253
 31
0.0
  0
LINE
  5
81AD
330
18
100
AcDbEntity
  8
DRAW2
100
AcDbLine
 10
2049.499980740403
 20
785.3176237067914
 30
0.0
 11
2049.499980740403
 21
785.6485488682531
 31
0.0
  0
LINE
  5
81AE
330
18
100
AcDbEntity
  8
DRAW2
100
AcDbLine
 10
2066.029979209508
 20
798.6382840039945
 30
0.0
 11
2081.029979209438
 21
789.9780299661501
 31
0.0
  0
ARC
  5
81B0
330
18
100
AcDbEntity
  8
DRAW2
100
AcDbCircle
 10
2066.030002049514
 20
781.3177363682529
 30
0.0
 40
17.32050807568884
100
AcDbArc
 50
89.99984889138257
 51
90.00030221585069
  0
LINE
  5
81B1
330
18
100
AcDbEntity
  8
DRAW2
100
AcDbLine
 10
2086.530002049514
 20
781.3177363682529
 30
0.0
 11
2086.530002049514
 21
781.3177363682529
 31
0.0
  0
ARC
  5
81B2
330
18
100
AcDbEntity
  8
DRAW2
100
AcDbCircle
 10
2082.530002049514
 20
781.3177363682529
 30
0.0
 40
4.0
100
AcDbArc
 50
270.0
 51
0.0
  0
LINE
  5
81B3
330
18
100
AcDbEntity
  8
DRAW2
100
AcDbLine
 10
2081.02999590418
 20
777.3177363682529
 30
0.0
 11
2081.030002049515
 21
772.6574823304088
 31
0.0
  0
LINE
  5
81B4
330
18
100
AcDbEntity
  8
DRAW2
100
AcDbLine
 10
2081.029979209438
 20
789.9780299661501
 30
0.0
 11
2081.029985354825
 21
785.3177363682529
 31
0.0
  0
ARC
  5
81B5
330
18
100
AcDbEntity
  8
DRAW2
100
AcDbCircle
 10
2082.530002049514
 20
781.3177363682529
 30
0.0
 40
4.0
100
AcDbArc
 50
0.0
 51
90.0
  0
LINE
  5
81B6
330
18
100
AcDbEntity
  8
DRAW2
100
AcDbLine
 10
2017.127492894751
 20
914.9921793449459
 30
0.0
 11
2017.127492894751
 21
924.807143644946
 31
0.0
  0
ARC
  5
81B7
330
18
100
AcDbEntity
  8
DRAW2
100
AcDbCircle
 10
2008.627487194751
 20
919.8996662449459
 30
0.0
 40
9.0
100
AcDbArc
 50
340.8119739527817
 51
19.18802604721823
  0
ARC
  5
81B8
330
18
100
AcDbEntity
  8
DRAW2
100
AcDbCircle
 10
2123.432516904278
 20
919.8996662449459
 30
0.0
 40
9.0
100
AcDbArc
 50
40.811987653761
 51
79.1880143320699
  0
ARC
  5
81B9
330
18
100
AcDbEntity
  8
DRAW2
100
AcDbCircle
 10
2123.432516904278
 20
919.8996662449459
 30
0.0
 40
9.0
100
AcDbArc
 50
100.8118733546232
 51
139.1881148324057
  0
LINE
  5
81BA
330
18
100
AcDbEntity
  8
DRAW2
100
AcDbLine
 10
2114.932522604278
 20
924.8071483449459
 30
0.0
 11
2123.432524821676
 21
929.714625744946
 31
0.0
  0
LINE
  5
81BB
330
18
100
AcDbEntity
  8
DRAW2
100
AcDbLine
 10
2123.432525767864
 20
929.7146229449461
 30
0.0
 11
2131.932514004278
 21
924.8071526449459
 31
0.0
  0
CIRCLE
  5
81BD
330
18
100
AcDbEntity
  8
DRAW2
100
AcDbCircle
 10
2123.432516904278
 20
919.8996662449459
 30
0.0
 40
8.500000999999999
  0
LINE
  5
81BE
330
18
100
AcDbEntity
  8
DRAW3
100
AcDbLine
 10
2192.730012049514
 20
773.7275390063794
 30
0.0
 11
2188.764212281414
 21
773.8514650699267
 31
0.0
  0
LINE
  5
81BF
330
18
100
AcDbEntity
  8
DRAW2
100
AcDbLine
 10
2194.298252049514
 20
772.8221090063794
 30
0.0
 11
2188.699799091156
 21
772.9970640840219
 31
0.0
  0
LINE
  5
81C0
330
18
100
AcDbEntity
  8
DRAW3
100
AcDbLine
 10
2192.730012049514
 20
788.9079590063793
 30
0.0
 11
2188.764210790523
 21
788.7840285802399
 31
0.0
  0
LINE
  5
81C1
330
18
100
AcDbEntity
  8
DRAW2
100
AcDbLine
 10
2194.298252049514
 20
789.8133490063794
 30
0.0
 11
2188.699799017976
 21
789.6384095730509
 31
0.0
  0
LINE
  5
81C3
330
18
100
AcDbEntity
  8
DRAW2
100
AcDbLine
 10
2123.43252976689
 20
910.084701944946
 30
0.0
 11
2131.932532204278
 21
914.9921798449462
 31
0.0
  0
ARC
  5
81C5
330
18
100
AcDbEntity
  8
DRAW2
100
AcDbCircle
 10
2123.432516904278
 20
919.8996662449459
 30
0.0
 40
9.0
100
AcDbArc
 50
220.8116936954073
 51
259.188299956526
  0
LINE
  5
81C6
330
18
100
AcDbEntity
  8
DRAW2
100
AcDbLine
 10
2114.932527404278
 20
914.992193144946
 30
0.0
 11
2123.432542099084
 21
910.0847067449461
 31
0.0
  0
ARC
  5
81C7
330
18
100
AcDbEntity
  8
DRAW2
100
AcDbCircle
 10
2123.432516904278
 20
919.8996662449459
 30
0.0
 40
9.0
100
AcDbArc
 50
160.8114199894652
 51
199.1885800105347
  0
LINE
  5
81C8
330
18
100
AcDbEntity
  8
DRAW2
100
AcDbLine
 10
2114.932539804278
 20
914.9921965449459
 30
0.0
 11
2114.932539804278
 21
924.807160744946
 31
0.0
  0
ARC
  5
81C9
330
18
100
AcDbEntity
  8
DRAW2
100
AcDbCircle
 10
2123.432516904278
 20
919.8996662449459
 30
0.0
 40
9.0
100
AcDbArc
 50
280.8121538808866
 51
319.1878380774345
  0
LINE
  5
81CA
330
18
100
AcDbEntity
  8
DRAW2
100
AcDbLine
 10
2131.932522604278
 20
914.9921793449459
 30
0.0
 11
2131.932522604278
 21
924.807143644946
 31
0.0
  0
ARC
  5
81CB
330
18
100
AcDbEntity
  8
DRAW2
100
AcDbCircle
 10
2123.432516904278
 20
919.8996662449459
 30
0.0
 40
9.0
100
AcDbArc
 50
340.8119739527817
 51
19.18802604721823
  0
ARC
  5
81CC
330
18
100
AcDbEntity
  8
DRAW2
100
AcDbCircle
 10
2258.205491506293
 20
845.7564719312731
 30
0.0
 40
12.275561
100
AcDbArc
 50
159.74364
 51
200.2560699999968
  0
LINE
  5
81CD
330
18
100
AcDbEntity
  8
DRAW2
100
AcDbLine
 10
2255.929971506293
 20
830.7064819312731
 30
0.0
 11
2255.930002049522
 21
852.306448864491
 31
0.0
  0
LINE
  5
81CE
330
18
100
AcDbEntity
  8
DRAW2
100
AcDbLine
 10
2245.929971506293
 20
833.0064719312732
 30
0.0
 11
2245.929971506293
 21
850.0065319312732
 31
0.0
  0
LINE
  5
81D0
330
18
100
AcDbEntity
  8
DRAW2
100
AcDbLine
 10
2231.330002049514
 20
829.3177363682525
 30
0.0
 11
2248.030002049514
 21
829.3177363682525
 31
0.0
  0
LINE
  5
81D1
330
18
100
AcDbEntity
  8
DRAW2
100
AcDbLine
 10
2197.43912235139
 20
781.3177490063794
 30
0.0
 11
2223.920834549569
 21
781.3177490063794
 31
0.0
  0
LINE
  5
81D2
330
18
100
AcDbEntity
  8
DRAW2
100
AcDbLine
 10
2196.679992049515
 20
772.8177490063797
 30
0.0
 11
2224.679992049515
 21
772.8177490063797
 31
0.0
  0
LINE
  5
81D3
330
18
100
AcDbEntity
  8
DRAW2
100
AcDbLine
 10
2196.679992049515
 20
789.8177490063792
 30
0.0
 11
2224.679992049515
 21
789.8177490063792
 31
0.0
  0
LINE
  5
81D4
330
18
100
AcDbEntity
  8
DRAW2
100
AcDbLine
 10
2194.298252049514
 20
789.8133790063793
 30
0.0
 11
2196.679992049515
 21
789.8133790063793
 31
0.0
  0
LINE
  5
81D5
330
18
100
AcDbEntity
  8
DRAW3
100
AcDbLine
 10
2194.298252049514
 20
789.8133790063793
 30
0.0
 11
2192.730012049514
 21
788.9079590063793
 31
0.0
  0
LINE
  5
81D6
330
18
100
AcDbEntity
  8
DRAW2
100
AcDbLine
 10
2194.298252049514
 20
772.8221090063794
 30
0.0
 11
2196.679992049515
 21
772.8221090063794
 31
0.0
  0
ARC
  5
81D7
330
18
100
AcDbEntity
  8
DRAW2
100
AcDbCircle
 10
2208.956394907617
 20
777.0677490063794
 30
0.0
 40
12.2764028581025
100
AcDbArc
 50
159.7453856151084
 51
200.2546143848916
  0
LINE
  5
81D8
330
18
100
AcDbEntity
  8
DRAW3
100
AcDbLine
 10
2194.298252049514
 20
772.8221090063794
 30
0.0
 11
2192.730012049514
 21
773.7275390063794
 31
0.0
  0
ARC
  5
81D9
330
18
100
AcDbEntity
  8
DRAW2
100
AcDbCircle
 10
2208.956394907617
 20
785.5677490063794
 30
0.0
 40
12.27640285810306
100
AcDbArc
 50
159.7453856151084
 51
200.2546143848916
  0
LINE
  5
81DA
330
18
100
AcDbEntity
  8
DRAW2
100
AcDbLine
 10
2196.679992049515
 20
789.8177490063792
 30
0.0
 11
2196.679992049515
 21
772.8177490063797
 31
0.0
  0
LINE
  5
81DB
330
18
100
AcDbEntity
  8
DRAW2
100
AcDbLine
 10
2192.730012049514
 20
772.8711190063793
 30
0.0
 11
2192.730012049514
 21
789.7643449305433
 31
0.0
  0
ARC
  5
81DC
330
18
100
AcDbEntity
  8
DRAW2
100
AcDbCircle
 10
2212.404001816222
 20
777.0677490063797
 30
0.0
 40
12.27599023329306
100
AcDbArc
 50
339.7446749553648
 51
20.25532504463508
  0
ARC
  5
81DD
330
18
100
AcDbEntity
  8
DRAW2
100
AcDbCircle
 10
2212.404001816222
 20
785.5677490063794
 30
0.0
 40
12.27599023329243
100
AcDbArc
 50
339.7446749553648
 51
20.25532504463508
  0
LINE
  5
81DE
330
18
100
AcDbEntity
  8
DRAW2
100
AcDbLine
 10
2224.679992049515
 20
789.8177490063792
 30
0.0
 11
2224.679992049515
 21
772.8177490063797
 31
0.0
  0
LINE
  5
81DF
330
18
100
AcDbEntity
  8
DRAW2
100
AcDbLine
 10
2204.611944788819
 20
828.9052869230161
 30
0.0
 11
2213.111947226208
 21
833.8127648230161
 31
0.0
  0
CIRCLE
  5
81E1
330
18
100
AcDbEntity
  8
DRAW2
100
AcDbCircle
 10
2204.611931926208
 20
838.720251223016
 30
0.0
 40
8.500000999999999
  0
LINE
  5
81E2
330
18
100
AcDbEntity
  8
DRAW2
100
AcDbLine
 10
2204.611940789793
 20
848.535207923016
 30
0.0
 11
2213.111929026208
 21
843.627737623016
 31
0.0
  0
ARC
  5
81E3
330
18
100
AcDbEntity
  8
DRAW2
100
AcDbCircle
 10
2204.611931926208
 20
838.7202512230162
 30
0.0
 40
9.0
100
AcDbArc
 50
280.8121538808898
 51
319.1878380774259
  0
ARC
  5
81E4
330
18
100
AcDbEntity
  8
DRAW2
100
AcDbCircle
 10
2204.611931926208
 20
838.7202512230162
 30
0.0
 40
9.0
100
AcDbArc
 50
220.8116936954073
 51
259.188299956526
  0
LINE
  5
81E5
330
18
100
AcDbEntity
  8
DRAW2
100
AcDbLine
 10
2196.111942426207
 20
833.8127781230159
 30
0.0
 11
2204.611957121013
 21
828.905291723016
 31
0.0
  0
LINE
  5
81E6
330
18
100
AcDbEntity
  8
DRAW2
100
AcDbLine
 10
2196.111937626207
 20
843.627733323016
 30
0.0
 11
2204.611939843605
 21
848.5352107230159
 31
0.0
  0
ARC
  5
81E7
330
18
100
AcDbEntity
  8
DRAW2
100
AcDbCircle
 10
2204.611931926208
 20
838.7202512230162
 30
0.0
 40
9.0
100
AcDbArc
 50
100.81187335462
 51
139.1881148324057
  0
ARC
  5
81E8
330
18
100
AcDbEntity
  8
DRAW2
100
AcDbCircle
 10
2204.611931926208
 20
838.7202512230162
 30
0.0
 40
9.0
100
AcDbArc
 50
160.8114199894652
 51
202.4999999999987
  0
LINE
  5
81E9
330
18
100
AcDbEntity
  8
DRAW2
100
AcDbLine
 10
2196.111954826207
 20
833.8127815230159
 30
0.0
 11
2196.111954826207
 21
843.6277457230159
 31
0.0
  0
ARC
  5
81EB
330
18
100
AcDbEntity
  8
DRAW2
100
AcDbCircle
 10
2204.611931926208
 20
838.7202512230162
 30
0.0
 40
9.0
100
AcDbArc
 50
40.81198765375234
 51
79.1880143320723
  0
ARC
  5
81EC
330
18
100
AcDbEntity
  8
DRAW2
370
    15
100
AcDbCircle
 10
2231.330002049514
 20
781.3177363682525
 30
0.0
 40
48.0
100
AcDbArc
 50
90.0
 51
101.1147085701042
  0
LINE
  5
81ED
330
18
100
AcDbEntity
  8
DRAW2
100
AcDbLine
 10
2213.111937626207
 20
833.8127643230158
 30
0.0
 11
2213.111937626207
 21
843.6277286230161
 31
0.0
  0
ARC
  5
81EE
330
18
100
AcDbEntity
  8
DRAW2
100
AcDbCircle
 10
2204.611931926208
 20
838.7202512230162
 30
0.0
 40
9.0
100
AcDbArc
 50
340.8119739527817
 51
22.49999999999881
  0
LINE
  5
81EF
330
18
100
AcDbEntity
  8
DRAW2
100
AcDbLine
 10
2246.689131506293
 20
841.5064719312731
 30
0.0
 11
2255.930101506292
 21
841.5064719312731
 31
0.0
  0
ARC
  5
81F0
330
18
100
AcDbEntity
  8
DRAW2
100
AcDbCircle
 10
2248.030002049514
 20
839.3177363682532
 30
0.0
 40
10.0
100
AcDbArc
 50
270.0
 51
320.8662783170531
  0
LINE
  5
81F1
330
18
100
AcDbEntity
  8
DRAW2
100
AcDbLine
 10
2245.929971506293
 20
833.0064119312734
 30
0.0
 11
2255.930101506292
 21
833.0064119312734
 31
0.0
  0
LINE
  5
81F2
330
18
100
AcDbEntity
  8
DRAW2
100
AcDbLine
 10
2234.030002049514
 20
829.3177363682536
 30
0.0
 11
2240.218707612534
 21
835.5064419312732
 31
0.0
  0
LINE
  5
81F3
330
18
100
AcDbEntity
  8
DRAW2
100
AcDbLine
 10
2238.529971506292
 20
847.5065619312733
 30
0.0
 11
2245.929971506293
 21
847.5065619312733
 31
0.0
  0
LINE
  5
81F4
330
18
100
AcDbEntity
  8
DRAW3
100
AcDbLine
 10
2237.529971506293
 20
846.559421931273
 30
0.0
 11
2245.929971506293
 21
846.559421931273
 31
0.0
  0
LINE
  5
81F5
330
18
100
AcDbEntity
  8
DRAW3
100
AcDbLine
 10
2237.529971506293
 20
836.4534619312733
 30
0.0
 11
2245.929971506293
 21
836.4534619312733
 31
0.0
  0
LINE
  5
81F6
330
18
100
AcDbEntity
  8
DRAW2
100
AcDbLine
 10
2238.529971506292
 20
835.5064419312732
 30
0.0
 11
2245.929971506293
 21
835.5064419312732
 31
0.0
  0
LINE
  5
81F7
330
18
100
AcDbEntity
  8
DRAW2
100
AcDbLine
 10
2237.529928153946
 20
846.5065503156687
 30
0.0
 11
2238.529931483236
 21
847.5064869861682
 31
0.0
  0
LINE
  5
81F8
330
18
100
AcDbEntity
  8
DRAW2
100
AcDbLine
 10
2237.529911506292
 20
836.5064419312732
 30
0.0
 11
2238.529911506293
 21
835.506501931273
 31
0.0
  0
LINE
  5
81F9
330
18
100
AcDbEntity
  8
DRAW2
100
AcDbLine
 10
2238.529971506292
 20
847.5065719312731
 30
0.0
 11
2238.529971506292
 21
835.5064419312732
 31
0.0
  0
LINE
  5
81FA
330
18
100
AcDbEntity
  8
DRAW2
100
AcDbLine
 10
2237.529971506293
 20
836.5064419312732
 30
0.0
 11
2237.529971506293
 21
846.5064419312732
 31
0.0
  0
ARC
  5
81FB
330
18
100
AcDbEntity
  8
DRAW2
100
AcDbCircle
 10
2258.205491506293
 20
837.256471931273
 30
0.0
 40
12.275561
100
AcDbArc
 50
159.7439300000031
 51
200.2560899999997
  0
LINE
  5
81FC
330
18
100
AcDbEntity
  8
DRAW2
100
AcDbLine
 10
2258.030101506293
 20
841.7564719312732
 30
0.0
 11
2255.930101506292
 21
841.7564719312732
 31
0.0
  0
LINE
  5
81FD
330
18
100
AcDbEntity
  8
DRAW2
100
AcDbLine
 10
2258.030101506293
 20
841.2564719312731
 30
0.0
 11
2255.930101506292
 21
841.2564719312731
 31
0.0
  0
LINE
  5
81FE
330
18
100
AcDbEntity
  8
DRAW2
100
AcDbLine
 10
2255.929971506293
 20
830.7064819312731
 30
0.0
 11
2258.029971506292
 21
830.7064819312731
 31
0.0
  0
LINE
  5
81FF
330
18
100
AcDbEntity
  8
DRAW2
100
AcDbLine
 10
2245.929971506293
 20
850.0065319312732
 30
0.0
 11
2255.930101506292
 21
850.0065319312732
 31
0.0
  0
LINE
  5
8200
330
18
100
AcDbEntity
  8
DRAW2
100
AcDbLine
 10
2254.718797612534
 20
850.0065319312732
 30
0.0
 11
2255.930000510037
 21
851.2177348287757
 31
0.0
  0
LINE
  5
8201
330
18
100
AcDbEntity
  8
DRAW2
100
AcDbLine
 10
2261.030002049514
 20
856.3223719680248
 30
0.0
 11
2272.030002049514
 21
856.3223719680248
 31
0.0
  0
ARC
  5
8202
330
18
100
AcDbEntity
  8
DRAW2
100
AcDbCircle
 10
2261.030002049514
 20
853.3223719680247
 30
0.0
 40
3.0
100
AcDbArc
 50
90.0
 51
180.0
  0
LINE
  5
8203
330
18
100
AcDbEntity
  8
DRAW2
100
AcDbLine
 10
2257.018711466794
 20
852.3064457855323
 30
0.0
 11
2258.030002049514
 21
853.3177363682533
 31
0.0
  0
LINE
  5
8204
330
18
100
AcDbEntity
  8
DRAW2
100
AcDbLine
 10
2255.930002049522
 20
852.306448864491
 30
0.0
 11
2258.030002049514
 21
852.3064429255205
 31
0.0
  0
LINE
  5
8205
330
18
100
AcDbEntity
  8
DRAW2
100
AcDbLine
 10
2272.030002049515
 20
862.3177363682529
 30
0.0
 11
2273.030002049515
 21
863.3177363682531
 31
0.0
  0
LINE
  5
8207
330
18
100
AcDbEntity
  8
DRAW2
100
AcDbLine
 10
2647.567589345485
 20
457.859922829989
 30
0.0
 11
2648.921412174363
 21
442.3856570872414
 31
0.0
  0
LINE
  5
8208
330
18
100
AcDbEntity
  8
DRAW2
100
AcDbLine
 10
2630.275295003241
 20
457.859922829989
 30
0.0
 11
2628.921472174363
 21
442.3856570872414
 31
0.0
  0
LINE
  5
820C
330
18
100
AcDbEntity
  8
DRAW2
100
AcDbLine
 10
2656.613951508863
 20
442.3856570872414
 30
0.0
 11
2621.228932839864
 21
442.3856570872414
 31
0.0
  0
CIRCLE
  5
820E
330
18
100
AcDbEntity
  8
DRAW3
100
AcDbCircle
 10
2638.921442174364
 20
182.3856470872414
 30
0.0
 40
29.8125
  0
CIRCLE
  5
820F
330
18
100
AcDbEntity
  8
DRAW2
100
AcDbCircle
 10
2638.921442174364
 20
182.3856470872414
 30
0.0
 40
28.33
  0
LINE
  5
8212
330
18
100
AcDbEntity
  8
DRAW2
100
AcDbLine
 10
2756.921442174363
 20
423.3856570872415
 30
0.0
 11
2520.921412174363
 21
423.3856570872415
 31
0.0
  0
LINE
  5
8213
330
18
100
AcDbEntity
  8
DRAW2
100
AcDbLine
 10
2761.921502174363
 20
375.3856570872414
 30
0.0
 11
2515.921442174363
 21
375.3856570872414
 31
0.0
  0
LINE
  5
8214
330
18
100
AcDbEntity
  8
DRAW2
100
AcDbLine
 10
2761.921442174363
 20
418.3856570872414
 30
0.0
 11
2515.921412174364
 21
418.3856570872414
 31
0.0
  0
CIRCLE
  5
8215
330
18
100
AcDbEntity
  8
DRAW2
  6
Continuous
100
AcDbCircle
 10
2638.921442174364
 20
112.8856470872414
 30
0.0
 40
9.31095
  0
LINE
  5
8216
330
18
100
AcDbEntity
  8
DRAW2
  6
Continuous
100
AcDbLine
 10
2638.921451282369
 20
123.6370560714914
 30
0.0
 11
2629.610489635013
 21
118.2613702012664
 31
0.0
  0
LINE
  5
8217
330
18
100
AcDbEntity
  8
DRAW2
  6
Continuous
100
AcDbLine
 10
2638.921499474617
 20
102.1342736538914
 30
0.0
 11
2629.610538729113
 21
107.5099611323714
 31
0.0
  0
CIRCLE
  5
8218
330
18
100
AcDbEntity
  8
DRAW2
100
AcDbCircle
 10
2638.921442174364
 20
182.3856470872414
 30
0.0
 40
40.0
  0
CIRCLE
  5
821A
330
18
100
AcDbEntity
  8
DRAW2
100
AcDbCircle
 10
2638.921442174364
 20
182.3856470872415
 30
0.0
 40
81.0
  0
CIRCLE
  5
821B
330
18
100
AcDbEntity
  8
DRAW2
100
AcDbCircle
 10
2638.921442174364
 20
182.3856470872415
 30
0.0
 40
82.0
  0
ARC
  5
821D
330
18
100
AcDbEntity
  8
DRAW2
100
AcDbCircle
 10
2292.030032567093
 20
140.3855970872414
 30
0.0
 40
2.0
100
AcDbArc
 50
90.0
 51
180.0
  0
LINE
  5
821E
330
18
100
AcDbEntity
  8
DRAW2
100
AcDbLine
 10
2290.030032567093
 20
263.3855970872414
 30
0.0
 11
2290.030032567093
 21
101.3855970872414
 31
0.0
  0
LINE
  5
821F
330
18
100
AcDbEntity
  8
DRAW2
100
AcDbLine
 10
2290.030032567093
 20
101.3855970872414
 30
0.0
 11
2289.030032567092
 21
100.3855970872414
 31
0.0
  0
LINE
  5
8220
330
18
100
AcDbEntity
  8
DRAW2
100
AcDbLine
 10
2300.530033520766
 20
122.8855885041723
 30
0.0
 11
2299.681523255416
 21
124.3552521241674
 31
0.0
  0
ARC
  5
8221
330
18
100
AcDbEntity
  8
DRAW2
100
AcDbCircle
 10
2295.673919133259
 20
121.6128787374918
 30
0.0
 40
4.856120109558088
100
AcDbArc
 50
325.6162036664685
 51
25.61770114753172
  0
LINE
  5
8222
330
18
100
AcDbEntity
  8
DRAW2
100
AcDbLine
 10
2299.681536606857
 20
102.4159248841776
 30
0.0
 11
2300.530028275558
 21
103.8855560792453
 31
0.0
  0
ARC
  5
8223
330
18
100
AcDbEntity
  8
DRAW2
100
AcDbCircle
 10
2295.673980168416
 20
105.1584109640536
 30
0.0
 40
4.856048107147178
100
AcDbArc
 50
334.3845819568937
 51
34.38442311708294
  0
ARC
  5
8224
330
18
100
AcDbEntity
  8
DRAW2
100
AcDbCircle
 10
2282.378295353963
 20
113.3855838156158
 30
0.0
 40
18.1517372131348
100
AcDbArc
 50
342.4123286846352
 51
17.58775509887716
  0
LINE
  5
8225
330
18
100
AcDbEntity
  8
DRAW2
100
AcDbLine
 10
2292.530032567093
 20
102.4159315598974
 30
0.0
 11
2292.530032567092
 21
124.3552473557954
 31
0.0
  0
LINE
  5
8226
330
18
100
AcDbEntity
  8
DRAW2
100
AcDbLine
 10
2299.681552342482
 20
118.8704145921244
 30
0.0
 11
2292.530032567092
 21
118.8704145921235
 31
0.0
  0
LINE
  5
8227
330
18
100
AcDbEntity
  8
DRAW2
100
AcDbLine
 10
2299.681537083694
 20
107.9007643235693
 30
0.0
 11
2292.530032567093
 21
107.9007643235693
 31
0.0
  0
LINE
  5
8228
330
18
100
AcDbEntity
  8
DRAW2
100
AcDbLine
 10
2292.530032567092
 20
102.8855970872416
 30
0.0
 11
2290.030032567093
 21
102.8855970872416
 31
0.0
  0
LINE
  5
8229
330
18
100
AcDbEntity
  8
DRAW2
100
AcDbLine
 10
2299.681537083694
 20
102.4159315598974
 30
0.0
 11
2292.530032567093
 21
102.4159315598974
 31
0.0
  0
LINE
  5
822A
330
18
100
AcDbEntity
  8
DRAW2
100
AcDbLine
 10
2292.530032567092
 20
123.8855970872416
 30
0.0
 11
2290.030032567093
 21
123.8855970872416
 31
0.0
  0
LINE
  5
822B
330
18
100
AcDbEntity
  8
DRAW2
100
AcDbLine
 10
2299.681521824905
 20
124.3552473557965
 30
0.0
 11
2292.530032567092
 21
124.3552473557954
 31
0.0
  0
LINE
  5
822C
330
18
100
AcDbEntity
  8
DRAW2
100
AcDbLine
 10
2300.530032567093
 20
103.8855513108744
 30
0.0
 11
2300.530032567092
 21
122.8855818284525
 31
0.0
  0
LINE
  5
822D
330
18
100
AcDbEntity
  8
DRAW2
  6
Continuous
100
AcDbLine
 10
2590.018927319587
 20
81.0856570947439
 30
0.0
 11
2573.018927319588
 21
81.08565709474396
 31
0.0
  0
ARC
  5
822E
330
18
100
AcDbEntity
  8
DRAW2
  6
Continuous
100
AcDbCircle
 10
2585.768927319588
 20
93.36121556474386
 30
0.0
 40
12.275561
100
AcDbArc
 50
249.7439289999974
 51
290.2560899999991
  0
LINE
  5
822F
330
18
100
AcDbEntity
  8
DRAW2
  6
Continuous
100
AcDbLine
 10
2581.518927319588
 20
81.84484035964045
 30
0.0
 11
2581.518927319588
 21
123.8283991298172
 31
0.0
  0
LINE
  5
8230
330
18
100
AcDbEntity
  8
DRAW2
  6
Continuous
100
AcDbLine
 10
2573.018927319588
 20
81.08565709474396
 30
0.0
 11
2573.018927319588
 21
133.5916050757818
 31
0.0
  0
ARC
  5
8231
330
18
100
AcDbEntity
  8
DRAW2
  6
Continuous
100
AcDbCircle
 10
2577.268927319588
 20
93.36121556474386
 30
0.0
 40
12.275561
100
AcDbArc
 50
249.7439289999974
 51
290.2560899999991
  0
LINE
  5
8232
330
18
100
AcDbEntity
  8
DRAW2
  6
Continuous
100
AcDbLine
 10
2590.018957819587
 20
81.08565709474396
 30
0.0
 11
2590.018957819588
 21
116.5635609464108
 31
0.0
  0
LINE
  5
8233
330
18
100
AcDbEntity
  8
DRAW2
  6
Continuous
100
AcDbLine
 10
2629.610388907464
 20
118.2613588588363
 30
0.0
 11
2629.610388907464
 21
107.5100127658213
 31
0.0
  0
ARC
  5
8236
330
18
100
AcDbEntity
  8
DRAW2
100
AcDbCircle
 10
2282.378295353963
 20
217.1355838156127
 30
0.0
 40
18.1517372131348
100
AcDbArc
 50
342.4123286846352
 51
17.58775509887716
  0
LINE
  5
8237
330
18
100
AcDbEntity
  8
DRAW2
100
AcDbLine
 10
2300.530032567093
 20
207.6355513108715
 30
0.0
 11
2300.530032567092
 21
226.6355818284496
 31
0.0
  0
LINE
  5
8238
330
18
100
AcDbEntity
  8
DRAW2
100
AcDbLine
 10
2292.530032567093
 20
206.1659315598944
 30
0.0
 11
2292.530032567092
 21
228.1052473557924
 31
0.0
  0
LINE
  5
8239
330
18
100
AcDbEntity
  8
DRAW2
100
AcDbLine
 10
2294.030032567092
 20
206.1659315598944
 30
0.0
 11
2294.030032567092
 21
144.3855970872414
 31
0.0
  0
ARC
  5
823A
330
18
100
AcDbEntity
  8
DRAW2
100
AcDbCircle
 10
2292.030032567093
 20
144.3855970872414
 30
0.0
 40
2.0
100
AcDbArc
 50
270.0
 51
0.0
  0
LINE
  5
823B
330
18
100
AcDbEntity
  8
DRAW2
100
AcDbLine
 10
2299.681536606857
 20
206.1659248841747
 30
0.0
 11
2300.530028275558
 21
207.6355560792424
 31
0.0
  0
ARC
  5
823C
330
18
100
AcDbEntity
  8
DRAW2
100
AcDbCircle
 10
2295.673980168416
 20
208.9084109640507
 30
0.0
 40
4.856048107147178
100
AcDbArc
 50
334.3845819568937
 51
34.38442311708294
  0
LINE
  5
823D
330
18
100
AcDbEntity
  8
DRAW2
100
AcDbLine
 10
2292.530032567092
 20
206.6355818284482
 30
0.0
 11
2290.030032567093
 21
206.6355818284482
 31
0.0
  0
LINE
  5
823E
330
18
100
AcDbEntity
  8
DRAW2
100
AcDbLine
 10
2299.681537083694
 20
211.6507643235663
 30
0.0
 11
2292.530032567093
 21
211.6507643235663
 31
0.0
  0
LINE
  5
823F
330
18
100
AcDbEntity
  8
DRAW2
100
AcDbLine
 10
2299.681537083694
 20
206.1659315598944
 30
0.0
 11
2292.530032567093
 21
206.1659315598944
 31
0.0
  0
LINE
  5
8241
330
18
100
AcDbEntity
  8
DRAW2
100
AcDbLine
 10
2300.530033520766
 20
226.6355885041694
 30
0.0
 11
2299.681523255416
 21
228.1052521241645
 31
0.0
  0
ARC
  5
8242
330
18
100
AcDbEntity
  8
DRAW2
100
AcDbCircle
 10
2295.673919133259
 20
225.3628787374889
 30
0.0
 40
4.856120109558088
100
AcDbArc
 50
325.6162036664685
 51
25.61770114753172
  0
LINE
  5
8243
330
18
100
AcDbEntity
  8
DRAW2
100
AcDbLine
 10
2292.530032567092
 20
227.6355970872387
 30
0.0
 11
2290.030032567093
 21
227.6355970872387
 31
0.0
  0
LINE
  5
8244
330
18
100
AcDbEntity
  8
DRAW2
100
AcDbLine
 10
2299.681521824905
 20
228.1052473557936
 30
0.0
 11
2292.530032567092
 21
228.1052473557924
 31
0.0
  0
LINE
  5
8245
330
18
100
AcDbEntity
  8
DRAW2
100
AcDbLine
 10
2299.681552342482
 20
222.6204145921215
 30
0.0
 11
2292.530032567092
 21
222.6204145921205
 31
0.0
  0
LINE
  5
8246
330
18
100
AcDbEntity
  8
DRAW2
100
AcDbLine
 10
2289.030032567092
 20
264.3855970872414
 30
0.0
 11
2290.030032567093
 21
263.3855970872414
 31
0.0
  0
LINE
  5
8247
330
18
100
AcDbEntity
  8
DRAW2
100
AcDbLine
 10
2508.497442856033
 20
258.3856417872415
 30
0.0
 11
2518.543452174363
 21
373.2113370872414
 31
0.0
  0
LWPOLYLINE
  5
8248
330
18
100
AcDbEntity
  8
DRAW2
100
AcDbPolyline
 90
        7
 70
     0
 43
0.0
 10
2545.422972174363
 20
153.5916510872414
 42
-0.027342992
 10
2540.849112174363
 20
155.0679610872414
 42
-0.027807311
 10
2536.465082174363
 20
157.0380410872414
 42
-0.027967895
 10
2532.326732174364
 20
159.4837910872415
 42
-0.02822905
 10
2528.489602174363
 20
162.3790710872415
 42
-0.028573988
 10
2525.005442174363
 20
165.6896810872415
 42
-0.02860407
 10
2521.922062174363
 20
169.3745510872415
  0
LWPOLYLINE
  5
8249
330
18
100
AcDbEntity
  8
DRAW2
100
AcDbPolyline
 90
        7
 70
     0
 43
0.0
 10
2546.039002174364
 20
153.5916510872414
 42
-0.027122908
 10
2541.436732174363
 20
155.0627110872414
 42
-0.027674056
 10
2537.022502174363
 20
157.0275710872415
 42
-0.027916589
 10
2532.852682174363
 20
159.4699810872414
 42
-0.02825485
 10
2528.983792174363
 20
162.3652810872415
 42
-0.028666219
 10
2525.468852174363
 20
165.6803210872415
 42
-0.028754235
 10
2522.357242174363
 20
169.3745510872415
  0
LWPOLYLINE
  5
824A
330
18
100
AcDbEntity
  8
DRAW2
100
AcDbPolyline
 90
        7
 70
     0
 43
0.0
 10
2547.958982174363
 20
160.3459510872414
 42
-0.027040586
 10
2544.115952174363
 20
161.5716310872414
 42
-0.027584034
 10
2540.429882174363
 20
163.2080410872415
 42
-0.027849679
 10
2536.946032174363
 20
165.2425910872414
 42
-0.028204821
 10
2533.713102174363
 20
167.6542210872414
 42
-0.028653526
 10
2530.774722174363
 20
170.4162710872415
 42
-0.02879492
 10
2528.170222174363
 20
173.4983710872415
  0
LINE
  5
824B
330
18
100
AcDbEntity
  8
DRAW2
100
AcDbLine
 10
2572.802231652761
 20
230.8856470872415
 30
0.0
 11
2476.842815463564
 21
230.8856470872415
 31
0.0
  0
LINE
  5
824C
330
18
100
AcDbEntity
  8
DRAW2
100
AcDbLine
 10
2562.03353675355
 20
210.8856470872415
 30
0.0
 11
2476.375332174363
 21
210.8856470872415
 31
0.0
  0
LINE
  5
824D
330
18
100
AcDbEntity
  8
DRAW2
100
AcDbLine
 10
2573.171419299487
 20
231.3849786332242
 30
0.0
 11
2476.921405437179
 21
231.385627087288
 31
0.0
  0
LINE
  5
824E
330
18
100
AcDbEntity
  8
DRAW2
100
AcDbLine
 10
2477.921382174363
 20
249.3856570872415
 30
0.0
 11
2591.645669732235
 21
249.3856570872415
 31
0.0
  0
LINE
  5
8250
330
18
100
AcDbEntity
  8
DRAW2
100
AcDbLine
 10
2475.790479304591
 20
229.8870175631116
 30
0.0
 11
2474.877382174363
 21
212.4641540872414
 31
0.0
  0
ARC
  5
8251
330
18
100
AcDbEntity
  8
DRAW2
100
AcDbCircle
 10
2496.089532174364
 20
213.3612315872415
 30
0.0
 40
12.275561
100
AcDbArc
 50
249.7439100000002
 51
290.2560643631631
  0
LINE
  5
8252
330
18
100
AcDbEntity
  8
DRAW2
100
AcDbLine
 10
2496.089532174364
 20
191.3856730872416
 30
0.0
 11
2504.589532174362
 21
191.3856730872416
 31
0.0
  0
LINE
  5
8253
330
18
100
AcDbEntity
  8
DRAW2
100
AcDbLine
 10
2495.339532174364
 20
192.1356730872416
 30
0.0
 11
2505.339532174363
 21
192.1356730872416
 31
0.0
  0
LINE
  5
8254
330
18
100
AcDbEntity
  8
DRAW2
100
AcDbLine
 10
2491.039532174363
 20
209.0856730872415
 30
0.0
 11
2509.639532174363
 21
209.0856730872415
 31
0.0
  0
LINE
  5
8255
330
18
100
AcDbEntity
  8
DRAW2
100
AcDbLine
 10
2491.839532174363
 20
201.0856730872415
 30
0.0
 11
2508.839532174363
 21
201.0856730872415
 31
0.0
  0
ARC
  5
8256
330
18
100
AcDbEntity
  8
DRAW2
100
AcDbCircle
 10
2476.375332174363
 20
212.3856550872415
 30
0.0
 40
1.5
100
AcDbArc
 50
177.000000000001
 51
270.0000029999977
  0
LINE
  5
8257
330
18
100
AcDbEntity
  8
DRAW2
100
AcDbLine
 10
2495.339532174363
 20
201.0856730872415
 30
0.0
 11
2495.339532174364
 21
192.1356730872416
 31
0.0
  0
LINE
  5
8258
330
18
100
AcDbEntity
  8
DRAW3
100
AcDbLine
 10
2496.089532174364
 20
201.0856730872415
 30
0.0
 11
2496.089532174364
 21
191.3856730872416
 31
0.0
  0
LINE
  5
8259
330
18
100
AcDbEntity
  8
DRAW2
100
AcDbLine
 10
2495.339532174364
 20
192.1356730872416
 30
0.0
 11
2496.089532174364
 21
191.3856730872416
 31
0.0
  0
LINE
  5
825A
330
18
100
AcDbEntity
  8
DRAW2
100
AcDbLine
 10
2491.039532174363
 20
209.0856730872415
 30
0.0
 11
2491.039532174363
 21
210.8856730872417
 31
0.0
  0
LINE
  5
825B
330
18
100
AcDbEntity
  8
DRAW2
100
AcDbLine
 10
2491.839532174363
 20
201.0856730872415
 30
0.0
 11
2491.839532174363
 21
209.0856730872415
 31
0.0
  0
LWPOLYLINE
  5
825C
330
18
100
AcDbEntity
  8
DRAW2
100
AcDbPolyline
 90
        6
 70
     0
 43
0.0
 10
2528.170222174363
 20
173.4983710872415
 42
-0.014376586
 10
2523.655202174363
 20
179.8899210872416
 42
-0.014360032
 10
2519.514112174363
 20
186.5307410872414
 42
-0.014369579
 10
2515.761992174363
 20
193.3978490872416
 42
-0.014343516
 10
2512.409482174363
 20
200.4697800872416
 42
-0.014349699
 10
2509.468912174364
 20
207.7212610872416
  0
LWPOLYLINE
  5
825D
330
18
100
AcDbEntity
  8
DRAW2
100
AcDbPolyline
 90
        4
 70
     0
 43
0.0
 10
2522.357242174363
 20
169.3745510872415
 42
-0.015879871
 10
2517.140782174363
 20
176.8304310872415
 42
-0.015876532
 10
2512.407602174363
 20
184.6022210872415
 42
-0.015857715
 10
2508.177792174363
 20
192.6577190872414
  0
LWPOLYLINE
  5
825E
330
18
100
AcDbEntity
  8
DRAW2
100
AcDbPolyline
 90
        4
 70
     0
 43
0.0
 10
2521.922062174363
 20
169.3745510872415
 42
-0.018612344
 10
2515.855842174363
 20
178.2017510872415
 42
-0.018636137
 10
2510.462972174363
 20
187.4553310872415
 42
-0.01857951
 10
2505.773562174363
 20
197.0831270872415
  0
LINE
  5
825F
330
18
100
AcDbEntity
  8
DRAW3
100
AcDbLine
 10
2504.589532174364
 20
201.0856730872415
 30
0.0
 11
2504.589532174363
 21
191.3856730872416
 31
0.0
  0
LINE
  5
8260
330
18
100
AcDbEntity
  8
DRAW2
100
AcDbLine
 10
2505.339532174363
 20
201.0856730872415
 30
0.0
 11
2505.339532174363
 21
192.1356730872416
 31
0.0
  0
LWPOLYLINE
  5
8262
330
18
100
AcDbEntity
  8
DRAW2
100
AcDbPolyline
 90
        2
 70
     0
 43
0.0
 10
2505.339532174363
 20
198.9714205443331
 42
0.0043141384576176
 10
2505.994522174363
 20
197.5150130872414
  0
LINE
  5
8263
330
18
100
AcDbEntity
  8
DRAW2
100
AcDbLine
 10
2505.339532174363
 20
192.1356730872416
 30
0.0
 11
2504.589532174362
 21
191.3856730872416
 31
0.0
  0
LWPOLYLINE
  5
8264
330
18
100
AcDbEntity
  8
DRAW2
100
AcDbPolyline
 90
        7
 70
     0
 43
0.0
 10
2505.994522174363
 20
197.5150130872414
 42
0.0023835861
 10
2506.338922174363
 20
196.6967410872414
 42
0.0023829183
 10
2506.691122174363
 20
195.8817650872413
 42
0.0023924704
 10
2507.050722174363
 20
195.0710180872413
 42
0.0024201701
 10
2507.418572174363
 20
194.2627250872412
 42
0.0024585968
 10
2507.794442174363
 20
193.4577240872413
 42
0.0025079142
 10
2508.178092174363
 20
192.6569170872412
  0
LINE
  5
8265
330
18
100
AcDbEntity
  8
DRAW2
100
AcDbLine
 10
2505.339532174363
 20
198.0873431533794
 30
0.0
 11
2505.773562174363
 21
197.0831110872416
 31
0.0
  0
ARC
  5
8266
330
18
100
AcDbEntity
  8
DRAW2
100
AcDbCircle
 10
2504.589532174364
 20
213.3612315872415
 30
0.0
 40
12.275561
100
AcDbArc
 50
249.7439356368368
 51
290.2560709999958
  0
LINE
  5
8267
330
18
100
AcDbEntity
  8
DRAW2
100
AcDbLine
 10
2500.339532174363
 20
201.8448563821381
 30
0.0
 11
2500.339532174363
 21
209.0856730872415
 31
0.0
  0
LINE
  5
8268
330
18
100
AcDbEntity
  8
DRAW2
100
AcDbLine
 10
2500.089532174364
 20
210.8856470872415
 30
0.0
 11
2500.089532174364
 21
209.0856730872415
 31
0.0
  0
LINE
  5
8269
330
18
100
AcDbEntity
  8
DRAW2
100
AcDbLine
 10
2500.589532174363
 20
210.8856470872415
 30
0.0
 11
2500.589532174363
 21
209.0856730872415
 31
0.0
  0
LINE
  5
826A
330
18
100
AcDbEntity
  8
DRAW2
100
AcDbLine
 10
2509.639532174363
 20
209.0856730872415
 30
0.0
 11
2509.639532174363
 21
210.8856730872419
 31
0.0
  0
LINE
  5
826B
330
18
100
AcDbEntity
  8
DRAW2
100
AcDbLine
 10
2508.839532174363
 20
201.0856730872415
 30
0.0
 11
2508.839532174363
 21
209.0856730872415
 31
0.0
  0
LINE
  5
826C
330
18
100
AcDbEntity
  8
DRAW2
100
AcDbLine
 10
2508.974783819294
 20
209.0856730872416
 30
0.0
 11
2509.469302174363
 21
207.7204100872415
 31
0.0
  0
LINE
  5
826D
330
18
100
AcDbEntity
  8
DRAW2
100
AcDbLine
 10
2491.839501674363
 20
258.3855156385565
 30
0.0
 11
2508.839563674363
 21
258.3854994385565
 31
0.0
  0
LINE
  5
826E
330
18
100
AcDbEntity
  8
DRAW2
100
AcDbLine
 10
2490.524575474363
 20
251.3855156385565
 30
0.0
 11
2510.154488874364
 21
251.3856570872416
 31
0.0
  0
ARC
  5
826F
330
18
100
AcDbEntity
  8
DRAW2
100
AcDbCircle
 10
2500.339532174363
 20
242.1445793385565
 30
0.0
 40
16.24093999999999
100
AcDbArc
 50
72.41215600000227
 51
107.5877899999985
  0
ARC
  5
8270
330
18
100
AcDbEntity
  8
DRAW2
100
AcDbCircle
 10
2476.921412174364
 20
232.3856270872653
 30
0.0
 40
1.0
100
AcDbArc
 50
180.0
 51
269.9996139877848
  0
ARC
  5
8271
330
18
100
AcDbEntity
  8
DRAW2
100
AcDbCircle
 10
2477.921382174363
 20
247.3856570872415
 30
0.0
 40
2.0
100
AcDbArc
 50
90.00000299999769
 51
180.0000100000009
  0
LINE
  5
8272
330
18
100
AcDbEntity
  8
DRAW2
100
AcDbLine
 10
2475.921412174364
 20
232.3856270872653
 30
0.0
 11
2475.921412174363
 21
247.3856270872415
 31
0.0
  0
LINE
  5
8273
330
18
100
AcDbEntity
  8
DRAW2
100
AcDbLine
 10
2476.842815463564
 20
230.8856470872415
 30
0.0
 11
2475.790479304591
 21
229.8870175631116
 31
0.0
  0
LINE
  5
8274
330
18
100
AcDbEntity
  8
DRAW2
100
AcDbLine
 10
2495.921445542955
 20
231.3854990805198
 30
0.0
 11
2495.921444981662
 21
230.8856470872415
 31
0.0
  0
LINE
  5
8275
330
18
100
AcDbEntity
  8
DRAW2
100
AcDbLine
 10
2490.524575474363
 20
257.6263451385565
 30
0.0
 11
2490.524575474363
 21
251.3855156385565
 31
0.0
  0
LINE
  5
8276
330
18
100
AcDbEntity
  8
DRAW2
100
AcDbLine
 10
2495.432061474363
 20
257.6263451385565
 30
0.0
 11
2495.432061474363
 21
251.3855156385565
 31
0.0
  0
ARC
  5
8277
330
18
100
AcDbEntity
  8
DRAW2
100
AcDbCircle
 10
2492.978326074363
 20
254.0405602385565
 30
0.0
 40
4.3449545
100
AcDbArc
 50
55.61635200000545
 51
115.617659999998
  0
LINE
  5
8278
330
18
100
AcDbEntity
  8
DRAW2
100
AcDbLine
 10
2490.524571674363
 20
257.6263255385564
 30
0.0
 11
2491.839500674363
 21
258.3854994385565
 31
0.0
  0
LINE
  5
8279
330
18
100
AcDbEntity
  8
DRAW2
100
AcDbLine
 10
2491.339532174363
 20
251.3855156385565
 30
0.0
 11
2491.339532174363
 21
249.3855156385565
 31
0.0
  0
ARC
  5
827A
330
18
100
AcDbEntity
  8
DRAW2
100
AcDbCircle
 10
2507.700753474363
 20
254.0406059385564
 30
0.0
 40
4.3449049
100
AcDbArc
 50
64.38377751781577
 51
124.3841199999986
  0
LINE
  5
827B
330
18
100
AcDbEntity
  8
DRAW2
100
AcDbLine
 10
2505.247018174363
 20
257.6263298385564
 30
0.0
 11
2505.247018174363
 21
251.3855156385565
 31
0.0
  0
LINE
  5
827C
330
18
100
AcDbEntity
  8
DRAW2
100
AcDbLine
 10
2510.154492674363
 20
257.6263255385564
 30
0.0
 11
2508.839563674363
 21
258.3854994385565
 31
0.0
  0
LINE
  5
827D
330
18
100
AcDbEntity
  8
DRAW2
100
AcDbLine
 10
2510.154488874364
 20
257.6264865872416
 30
0.0
 11
2510.154488874364
 21
251.3856570872416
 31
0.0
  0
LINE
  5
827E
330
18
100
AcDbEntity
  8
DRAW2
100
AcDbLine
 10
2509.339532174363
 20
251.3855156385565
 30
0.0
 11
2509.339532174363
 21
249.3855156385565
 31
0.0
  0
LINE
  5
827F
330
18
100
AcDbEntity
  8
DRAW2
  6
Continuous
100
AcDbLine
 10
2588.043523344444
 20
222.5113330421086
 30
0.0
 11
2588.043523344444
 21
211.7599611323687
 31
0.0
  0
LINE
  5
8280
330
18
100
AcDbEntity
  8
DRAW2
  6
Continuous
100
AcDbLine
 10
2569.421623344443
 20
222.5113588588336
 30
0.0
 11
2569.421623344443
 21
211.7600127658186
 31
0.0
  0
CIRCLE
  5
8281
330
18
100
AcDbEntity
  8
DRAW2
  6
Continuous
100
AcDbCircle
 10
2578.732676611343
 20
217.1356470872385
 30
0.0
 40
9.31095
  0
LINE
  5
8282
330
18
100
AcDbEntity
  8
DRAW2
  6
Continuous
100
AcDbLine
 10
2588.043632536493
 20
211.7600208917386
 30
0.0
 11
2578.732671075874
 21
206.3843354447386
 31
0.0
  0
LWPOLYLINE
  5
8283
330
18
100
AcDbEntity
  8
DRAW2
100
AcDbPolyline
 90
        3
 70
     0
 43
0.0
 10
2545.422972174363
 20
153.5916510872414
 42
0.0094737495
 10
2558.628042174364
 20
150.3801610872415
 42
0.0037739875014376
 10
2563.91856220074
 20
149.240994491956
 42
0.0037739875014376
  0
LWPOLYLINE
  5
8284
330
18
100
AcDbEntity
  8
DRAW2
100
AcDbPolyline
 90
        3
 70
     0
 43
0.0
 10
2546.039002174364
 20
153.5916510872414
 42
0.0092916367
 10
2558.988242174363
 20
150.4698610872415
 42
0.0034582955251368
 10
2563.834695016694
 20
149.431430342184
 42
0.0034582955251368
  0
LWPOLYLINE
  5
8285
330
18
100
AcDbEntity
  8
DRAW2
100
AcDbPolyline
 90
        3
 70
     0
 43
0.0
 10
2547.958982174363
 20
160.3459510872414
 42
0.0061734117
 10
2556.380982174363
 20
158.2641310872415
 42
0.0032739858313377
 10
2560.870873291149
 20
157.2438751328496
 42
0.0032739858313377
  0
LWPOLYLINE
  5
8286
330
18
100
AcDbEntity
  8
DRAW2
100
AcDbPolyline
 90
        7
 70
     0
 43
0.0
 10
2558.148539055228
 20
196.5185208822888
 42
0.0296104137755913
 10
2556.454962174363
 20
202.0223570872415
 42
0.011754075
 10
2555.656622174363
 20
204.0128290872414
 42
0.013710055
 10
2554.757982174363
 20
205.9600800872415
 42
0.020193786
 10
2553.740292174364
 20
207.8474840872416
 42
0.038659061
 10
2552.511192174363
 20
209.6026170872414
 42
0.13979024
 10
2550.829852174363
 20
210.8853450872416
  0
LINE
  5
8287
330
18
100
AcDbEntity
  8
DRAW2
  6
Continuous
100
AcDbLine
 10
2578.732733911598
 20
206.3842736538886
 30
0.0
 11
2569.421773166093
 21
211.7599611323687
 31
0.0
  0
ARC
  5
8288
330
18
100
AcDbEntity
  8
DRAW2
100
AcDbCircle
 10
2581.518927319588
 20
242.1445793385565
 30
0.0
 40
16.24093999999999
100
AcDbArc
 50
72.41215600000227
 51
107.5877899999985
  0
LINE
  5
8289
330
18
100
AcDbEntity
  8
DRAW2
100
AcDbLine
 10
2571.703970619588
 20
251.3855156385565
 30
0.0
 11
2591.333884019588
 21
251.3856570872416
 31
0.0
  0
LINE
  5
828A
330
18
100
AcDbEntity
  8
DRAW2
100
AcDbLine
 10
2573.018896819588
 20
258.3855156385565
 30
0.0
 11
2590.018958819588
 21
258.3854994385565
 31
0.0
  0
LINE
  5
828B
330
18
100
AcDbEntity
  8
DRAW2
  6
Continuous
100
AcDbLine
 10
2588.043684169944
 20
222.5113068021587
 30
0.0
 11
2578.732723324666
 21
227.8869942806386
 31
0.0
  0
LINE
  5
828C
330
18
100
AcDbEntity
  8
DRAW2
  6
Continuous
100
AcDbLine
 10
2578.732685719348
 20
227.8870560714886
 30
0.0
 11
2569.421724071993
 21
222.5113702012637
 31
0.0
  0
ARC
  5
828D
330
18
100
AcDbEntity
  8
DRAW2
100
AcDbCircle
 10
2574.157721219588
 20
254.0405602385565
 30
0.0
 40
4.3449545
100
AcDbArc
 50
55.61635200000545
 51
115.617659999998
  0
LINE
  5
828E
330
18
100
AcDbEntity
  8
DRAW2
100
AcDbLine
 10
2571.703966819587
 20
257.6263255385564
 30
0.0
 11
2573.018895819588
 21
258.3854994385565
 31
0.0
  0
LINE
  5
828F
330
18
100
AcDbEntity
  8
DRAW2
100
AcDbLine
 10
2571.703970619588
 20
257.6263451385565
 30
0.0
 11
2571.703970619588
 21
251.3855156385565
 31
0.0
  0
LINE
  5
8290
330
18
100
AcDbEntity
  8
DRAW2
100
AcDbLine
 10
2572.518927319588
 20
251.3855156385565
 30
0.0
 11
2572.518927319588
 21
249.3855156385565
 31
0.0
  0
LINE
  5
8291
330
18
100
AcDbEntity
  8
DRAW2
100
AcDbLine
 10
2576.611456619588
 20
257.6263451385565
 30
0.0
 11
2576.611456619588
 21
251.3855156385565
 31
0.0
  0
LINE
  5
8292
330
18
100
AcDbEntity
  8
DRAW2
100
AcDbLine
 10
2586.426413319588
 20
257.6263298385564
 30
0.0
 11
2586.426413319588
 21
251.3855156385565
 31
0.0
  0
LINE
  5
8293
330
18
100
AcDbEntity
  8
DRAW2
100
AcDbLine
 10
2591.333884019588
 20
257.6264865872416
 30
0.0
 11
2591.333884019588
 21
251.3856570872416
 31
0.0
  0
LINE
  5
8294
330
18
100
AcDbEntity
  8
DRAW2
100
AcDbLine
 10
2591.333887819588
 20
257.6263255385564
 30
0.0
 11
2590.018958819588
 21
258.3854994385565
 31
0.0
  0
ARC
  5
8295
330
18
100
AcDbEntity
  8
DRAW2
100
AcDbCircle
 10
2588.880148619588
 20
254.0406059385564
 30
0.0
 40
4.3449049
100
AcDbArc
 50
64.38377751781577
 51
124.3841199999986
  0
LINE
  5
8296
330
18
100
AcDbEntity
  8
DRAW2
100
AcDbLine
 10
2590.518927319588
 20
251.3855156385565
 30
0.0
 11
2590.518927319588
 21
249.3855156385565
 31
0.0
  0
LINE
  5
8297
330
18
100
AcDbEntity
  8
DRAW2
100
AcDbLine
 10
2515.921442174363
 20
418.3856570872414
 30
0.0
 11
2515.921442174363
 21
375.3856570872414
 31
0.0
  0
ARC
  5
8298
330
18
100
AcDbEntity
  8
DRAW2
100
AcDbCircle
 10
2516.551022174363
 20
373.3856570872414
 30
0.0
 40
2.0
100
AcDbArc
 50
354.9999999999999
 51
90.00000299999769
  0
LINE
  5
8299
330
18
100
AcDbEntity
  8
DRAW2
100
AcDbLine
 10
2515.921442174363
 20
418.3856870872414
 30
0.0
 11
2520.921442174364
 21
423.3856870872414
 31
0.0
  0
LINE
  5
829A
330
18
100
AcDbEntity
  8
DRAW2
100
AcDbLine
 10
2621.228932839864
 20
442.3856661964868
 30
0.0
 11
2621.228932839864
 21
423.3856661964868
 31
0.0
  0
LINE
  5
829C
330
18
100
AcDbEntity
  8
DRAW2
  6
Continuous
100
AcDbLine
 10
2638.921329799305
 20
123.6370707638252
 30
0.0
 11
2648.23229144666
 21
118.2613848936002
 31
0.0
  0
LINE
  5
829D
330
18
100
AcDbEntity
  8
DRAW2
  6
Continuous
100
AcDbLine
 10
2638.921281607056
 20
102.1342883462252
 30
0.0
 11
2648.23224235256
 21
107.5099758247052
 31
0.0
  0
LINE
  5
829E
330
18
100
AcDbEntity
  8
DRAW2
  6
Continuous
100
AcDbLine
 10
2648.23239217421
 20
118.2613735511702
 30
0.0
 11
2648.23239217421
 21
107.5100274581552
 31
0.0
  0
LINE
  5
829F
330
18
100
AcDbEntity
  8
DRAW2
  6
Continuous
100
AcDbLine
 10
2704.823957029139
 20
81.08565709474396
 30
0.0
 11
2704.823957029139
 21
133.591605075782
 31
0.0
  0
LINE
  5
82A0
330
18
100
AcDbEntity
  8
DRAW2
  6
Continuous
100
AcDbLine
 10
2687.823926529139
 20
81.08565709474396
 30
0.0
 11
2687.823926529139
 21
116.5635609464108
 31
0.0
  0
LINE
  5
82A1
330
18
100
AcDbEntity
  8
DRAW2
  6
Continuous
100
AcDbLine
 10
2696.323957029139
 20
81.8448403596405
 30
0.0
 11
2696.323957029139
 21
123.8283991298172
 31
0.0
  0
ARC
  5
82A2
330
18
100
AcDbEntity
  8
DRAW2
  6
Continuous
100
AcDbCircle
 10
2692.073957029139
 20
93.36121556474394
 30
0.0
 40
12.275561
100
AcDbArc
 50
249.7439100000008
 51
290.2560710000025
  0
LINE
  5
82A3
330
18
100
AcDbEntity
  8
DRAW2
  6
Continuous
100
AcDbLine
 10
2687.823957029139
 20
81.08565709474396
 30
0.0
 11
2704.823957029139
 21
81.08565709474396
 31
0.0
  0
ARC
  5
82A4
330
18
100
AcDbEntity
  8
DRAW2
  6
Continuous
100
AcDbCircle
 10
2700.573957029139
 20
93.36121556474394
 30
0.0
 40
12.275561
100
AcDbArc
 50
249.7439100000008
 51
290.2560710000025
  0
LINE
  5
82A5
330
18
100
AcDbEntity
  8
DRAW2
100
AcDbLine
 10
2769.345441492693
 20
258.3856417872415
 30
0.0
 11
2759.299432174363
 21
373.2113370872414
 31
0.0
  0
LWPOLYLINE
  5
82A6
330
18
100
AcDbEntity
  8
DRAW2
100
AcDbPolyline
 90
        3
 70
     0
 43
0.0
 10
2729.883902174364
 20
160.3459510872414
 42
-0.0061734117
 10
2721.461902174363
 20
158.2641310872415
 42
-0.0032739858313378
 10
2716.972011057578
 20
157.2438751328496
 42
-0.0032739858313378
  0
LWPOLYLINE
  5
82A7
330
18
100
AcDbEntity
  8
DRAW2
100
AcDbPolyline
 90
        3
 70
     0
 43
0.0
 10
2731.803882174363
 20
153.5916510872414
 42
-0.0092916367
 10
2718.854642174363
 20
150.4698610872415
 42
-0.0034582955251372
 10
2714.008189332032
 20
149.4314303421839
 42
-0.0034582955251372
  0
LWPOLYLINE
  5
82A8
330
18
100
AcDbEntity
  8
DRAW2
100
AcDbPolyline
 90
        3
 70
     0
 43
0.0
 10
2732.419912174363
 20
153.5916510872414
 42
-0.0094737495
 10
2719.214842174364
 20
150.3801610872415
 42
-0.0037739875014378
 10
2713.924322147987
 20
149.240994491956
 42
-0.0037739875014378
  0
LINE
  5
82A9
330
18
100
AcDbEntity
  8
DRAW2
100
AcDbLine
 10
2715.809347595177
 20
210.8856470872415
 30
0.0
 11
2801.467552174364
 21
210.8856470872415
 31
0.0
  0
LINE
  5
82AA
330
18
100
AcDbEntity
  8
DRAW2
100
AcDbLine
 10
2705.040652695966
 20
230.8856470872415
 30
0.0
 11
2801.000068885162
 21
230.8856470872415
 31
0.0
  0
LINE
  5
82AB
330
18
100
AcDbEntity
  8
DRAW2
100
AcDbLine
 10
2704.67146504924
 20
231.3849786332241
 30
0.0
 11
2800.921478911547
 21
231.385627087288
 31
0.0
  0
LINE
  5
82AC
330
18
100
AcDbEntity
  8
DRAW2
100
AcDbLine
 10
2799.921502174364
 20
249.3856570872415
 30
0.0
 11
2686.04919978227
 21
249.3856570872415
 31
0.0
  0
CIRCLE
  5
82AD
330
18
100
AcDbEntity
  8
DRAW2
  6
Continuous
100
AcDbCircle
 10
2699.110207737383
 20
217.1356470872386
 30
0.0
 40
9.31095
  0
LINE
  5
82AE
330
18
100
AcDbEntity
  8
DRAW2
  6
Continuous
100
AcDbLine
 10
2708.421261004283
 20
222.5113588588336
 30
0.0
 11
2708.421261004283
 21
211.7600127658186
 31
0.0
  0
LINE
  5
82AF
330
18
100
AcDbEntity
  8
DRAW2
  6
Continuous
100
AcDbLine
 10
2689.799361004283
 20
222.5113330421086
 30
0.0
 11
2689.799361004283
 21
211.7599611323687
 31
0.0
  0
LINE
  5
82B1
330
18
100
AcDbEntity
  8
DRAW2
  6
Continuous
100
AcDbLine
 10
2689.799251812234
 20
211.7600208917386
 30
0.0
 11
2699.110213272852
 21
206.3843354447386
 31
0.0
  0
LINE
  5
82B2
330
18
100
AcDbEntity
  8
DRAW2
  6
Continuous
100
AcDbLine
 10
2699.110150437129
 20
206.3842736538886
 30
0.0
 11
2708.421111182633
 21
211.7599611323687
 31
0.0
  0
ARC
  5
82B3
330
18
100
AcDbEntity
  8
DRAW2
100
AcDbCircle
 10
2696.323957029139
 20
242.1445793385565
 30
0.0
 40
16.24093999999999
100
AcDbArc
 50
72.41215600000227
 51
107.5877899999985
  0
LINE
  5
82B4
330
18
100
AcDbEntity
  8
DRAW2
100
AcDbLine
 10
2686.509000329139
 20
251.3855156385565
 30
0.0
 11
2706.13891372914
 21
251.3856570872416
 31
0.0
  0
LINE
  5
82B5
330
18
100
AcDbEntity
  8
DRAW2
100
AcDbLine
 10
2687.823926529139
 20
258.3855156385565
 30
0.0
 11
2704.823988529139
 21
258.3854994385565
 31
0.0
  0
LINE
  5
82B6
330
18
100
AcDbEntity
  8
DRAW2
  6
Continuous
100
AcDbLine
 10
2689.799200178784
 20
222.5113068021587
 30
0.0
 11
2699.110161024061
 21
227.8869942806386
 31
0.0
  0
LINE
  5
82B7
330
18
100
AcDbEntity
  8
DRAW2
100
AcDbLine
 10
2686.508996529139
 20
257.6263255385564
 30
0.0
 11
2687.823925529139
 21
258.3854994385565
 31
0.0
  0
ARC
  5
82B8
330
18
100
AcDbEntity
  8
DRAW2
100
AcDbCircle
 10
2688.962750929139
 20
254.0405602385565
 30
0.0
 40
4.3449545
100
AcDbArc
 50
55.61635200000545
 51
115.617659999998
  0
LINE
  5
82B9
330
18
100
AcDbEntity
  8
DRAW2
100
AcDbLine
 10
2691.416486329139
 20
257.6263451385565
 30
0.0
 11
2691.416486329139
 21
251.3855156385565
 31
0.0
  0
LINE
  5
82BA
330
18
100
AcDbEntity
  8
DRAW2
100
AcDbLine
 10
2686.509000329139
 20
257.6263451385565
 30
0.0
 11
2686.509000329139
 21
251.3855156385565
 31
0.0
  0
LINE
  5
82BB
330
18
100
AcDbEntity
  8
DRAW2
100
AcDbLine
 10
2687.323957029139
 20
251.3855156385565
 30
0.0
 11
2687.323957029139
 21
249.3855156385565
 31
0.0
  0
LINE
  5
82BC
330
18
100
AcDbEntity
  8
DRAW2
  6
Continuous
100
AcDbLine
 10
2699.110198629378
 20
227.8870560714886
 30
0.0
 11
2708.421160276733
 21
222.5113702012637
 31
0.0
  0
LINE
  5
82BD
330
18
100
AcDbEntity
  8
DRAW2
100
AcDbLine
 10
2701.231443029139
 20
257.6263298385564
 30
0.0
 11
2701.231443029139
 21
251.3855156385565
 31
0.0
  0
LINE
  5
82BE
330
18
100
AcDbEntity
  8
DRAW2
100
AcDbLine
 10
2706.13891372914
 20
257.6264865872416
 30
0.0
 11
2706.13891372914
 21
251.3856570872416
 31
0.0
  0
LINE
  5
82BF
330
18
100
AcDbEntity
  8
DRAW2
100
AcDbLine
 10
2706.138917529139
 20
257.6263255385564
 30
0.0
 11
2704.823988529139
 21
258.3854994385565
 31
0.0
  0
ARC
  5
82C0
330
18
100
AcDbEntity
  8
DRAW2
100
AcDbCircle
 10
2703.68517832914
 20
254.0406059385564
 30
0.0
 40
4.3449049
100
AcDbArc
 50
64.38377751781577
 51
124.3841199999986
  0
LINE
  5
82C1
330
18
100
AcDbEntity
  8
DRAW2
100
AcDbLine
 10
2705.323957029139
 20
251.3855156385565
 30
0.0
 11
2705.323957029139
 21
249.3855156385565
 31
0.0
  0
LINE
  5
82C3
330
18
100
AcDbEntity
  8
DRAW2
100
AcDbLine
 10
2802.052405044136
 20
229.8870175631116
 30
0.0
 11
2802.965502174364
 21
212.4641540872414
 31
0.0
  0
LWPOLYLINE
  5
82C4
330
18
100
AcDbEntity
  8
DRAW2
100
AcDbPolyline
 90
        6
 70
     0
 43
0.0
 10
2749.672662174363
 20
173.4983710872415
 42
0.014376586
 10
2754.187682174364
 20
179.8899210872416
 42
0.014360032
 10
2758.328772174364
 20
186.5307410872414
 42
0.014369579
 10
2762.080892174363
 20
193.3978490872416
 42
0.014343516
 10
2765.433402174364
 20
200.4697800872416
 42
0.014349699
 10
2768.373972174364
 20
207.7212610872416
  0
LWPOLYLINE
  5
82C5
330
18
100
AcDbEntity
  8
DRAW2
100
AcDbPolyline
 90
        4
 70
     0
 43
0.0
 10
2755.920822174363
 20
169.3745510872415
 42
0.018612344
 10
2761.987042174364
 20
178.2017510872415
 42
0.018636137
 10
2767.379912174364
 20
187.4553310872415
 42
0.01857951
 10
2772.069322174363
 20
197.0831270872415
  0
LWPOLYLINE
  5
82C6
330
18
100
AcDbEntity
  8
DRAW2
100
AcDbPolyline
 90
        4
 70
     0
 43
0.0
 10
2755.485642174364
 20
169.3745510872415
 42
0.015879871
 10
2760.702102174363
 20
176.8304310872415
 42
0.015876532
 10
2765.435282174363
 20
184.6022210872415
 42
0.015857715
 10
2769.665092174363
 20
192.6577190872414
  0
LWPOLYLINE
  5
82C7
330
18
100
AcDbEntity
  8
DRAW2
100
AcDbPolyline
 90
        7
 70
     0
 43
0.0
 10
2731.803882174363
 20
153.5916510872414
 42
0.027122908
 10
2736.406152174364
 20
155.0627110872414
 42
0.027674056
 10
2740.820382174363
 20
157.0275710872415
 42
0.027916589
 10
2744.990202174363
 20
159.4699810872414
 42
0.02825485
 10
2748.859092174364
 20
162.3652810872415
 42
0.028666219
 10
2752.374032174364
 20
165.6803210872415
 42
0.028754235
 10
2755.485642174364
 20
169.3745510872415
  0
LWPOLYLINE
  5
82C8
330
18
100
AcDbEntity
  8
DRAW2
100
AcDbPolyline
 90
        7
 70
     0
 43
0.0
 10
2732.419912174363
 20
153.5916510872414
 42
0.027342992
 10
2736.993772174364
 20
155.0679610872414
 42
0.027807311
 10
2741.377802174364
 20
157.0380410872414
 42
0.027967895
 10
2745.516152174363
 20
159.4837910872415
 42
0.02822905
 10
2749.353282174364
 20
162.3790710872415
 42
0.028573988
 10
2752.837442174364
 20
165.6896810872415
 42
0.02860407
 10
2755.920822174363
 20
169.3745510872415
  0
LWPOLYLINE
  5
82C9
330
18
100
AcDbEntity
  8
DRAW2
100
AcDbPolyline
 90
        7
 70
     0
 43
0.0
 10
2729.883902174364
 20
160.3459510872414
 42
0.027040586
 10
2733.726932174363
 20
161.5716310872414
 42
0.027584034
 10
2737.413002174363
 20
163.2080410872415
 42
0.027849679
 10
2740.896852174364
 20
165.2425910872414
 42
0.028204821
 10
2744.129782174363
 20
167.6542210872414
 42
0.028653526
 10
2747.068162174363
 20
170.4162710872415
 42
0.02879492
 10
2749.672662174363
 20
173.4983710872415
  0
LWPOLYLINE
  5
82CA
330
18
100
AcDbEntity
  8
DRAW2
100
AcDbPolyline
 90
        7
 70
     0
 43
0.0
 10
2719.694345293499
 20
196.5185208822894
 42
-0.0296104137755898
 10
2721.387922174363
 20
202.0223570872415
 42
-0.011754075
 10
2722.186262174363
 20
204.0128290872414
 42
-0.013710055
 10
2723.084902174363
 20
205.9600800872415
 42
-0.020193786
 10
2724.102592174363
 20
207.8474840872416
 42
-0.038659061
 10
2725.331692174364
 20
209.6026170872414
 42
-0.13979024
 10
2727.013032174363
 20
210.8853450872416
  0
LINE
  5
82CB
330
18
100
AcDbEntity
  8
DRAW2
100
AcDbLine
 10
2768.203352174364
 20
209.0856730872416
 30
0.0
 11
2786.803352174363
 21
209.0856730872416
 31
0.0
  0
LINE
  5
82CC
330
18
100
AcDbEntity
  8
DRAW2
100
AcDbLine
 10
2769.003352174363
 20
201.0856730872416
 30
0.0
 11
2786.003352174363
 21
201.0856730872416
 31
0.0
  0
ARC
  5
82CD
330
18
100
AcDbEntity
  8
DRAW2
100
AcDbCircle
 10
2781.753352174363
 20
213.3612315872416
 30
0.0
 40
12.275561
100
AcDbArc
 50
249.7439356368368
 51
290.2560709999958
  0
LINE
  5
82CE
330
18
100
AcDbEntity
  8
DRAW3
100
AcDbLine
 10
2781.753352174363
 20
201.0856730872416
 30
0.0
 11
2781.753352174363
 21
191.3856730872416
 31
0.0
  0
LINE
  5
82CF
330
18
100
AcDbEntity
  8
DRAW2
100
AcDbLine
 10
2782.503352174364
 20
201.0856730872416
 30
0.0
 11
2782.503352174363
 21
192.1356730872416
 31
0.0
  0
LINE
  5
82D0
330
18
100
AcDbEntity
  8
DRAW2
100
AcDbLine
 10
2772.503352174363
 20
201.0856730872416
 30
0.0
 11
2772.503352174364
 21
192.1356730872416
 31
0.0
  0
LINE
  5
82D1
330
18
100
AcDbEntity
  8
DRAW3
100
AcDbLine
 10
2773.253352174363
 20
201.0856730872416
 30
0.0
 11
2773.253352174364
 21
191.3856730872416
 31
0.0
  0
LINE
  5
82D3
330
18
100
AcDbEntity
  8
DRAW2
100
AcDbLine
 10
2772.503352174364
 20
192.1356730872416
 30
0.0
 11
2773.253352174364
 21
191.3856730872416
 31
0.0
  0
LINE
  5
82D4
330
18
100
AcDbEntity
  8
DRAW2
100
AcDbLine
 10
2772.503352174364
 20
192.1356730872416
 30
0.0
 11
2782.503352174363
 21
192.1356730872416
 31
0.0
  0
LWPOLYLINE
  5
82D5
330
18
100
AcDbEntity
  8
DRAW2
100
AcDbPolyline
 90
        2
 70
     0
 43
0.0
 10
2772.503352174363
 20
198.9714205443331
 42
-0.0043141384576173
 10
2771.848362174364
 20
197.5150130872414
  0
LWPOLYLINE
  5
82D6
330
18
100
AcDbEntity
  8
DRAW2
100
AcDbPolyline
 90
        7
 70
     0
 43
0.0
 10
2771.848662174363
 20
197.5157920872416
 42
-0.0023835861
 10
2771.504262174364
 20
196.6975200872416
 42
-0.0023829183
 10
2771.152062174363
 20
195.8825440872415
 42
-0.0023924704
 10
2770.792462174363
 20
195.0717970872415
 42
-0.0024201701
 10
2770.424612174363
 20
194.2635040872414
 42
-0.0024585968
 10
2770.048742174363
 20
193.4585030872415
 42
-0.0025079142
 10
2769.665092174363
 20
192.6576960872414
  0
LINE
  5
82D7
330
18
100
AcDbEntity
  8
DRAW2
100
AcDbLine
 10
2772.503352174363
 20
198.0873431533794
 30
0.0
 11
2772.069322174363
 21
197.0831110872416
 31
0.0
  0
LINE
  5
82D8
330
18
100
AcDbEntity
  8
DRAW2
100
AcDbLine
 10
2782.503352174363
 20
192.1356730872416
 30
0.0
 11
2781.753352174363
 21
191.3856730872416
 31
0.0
  0
LINE
  5
82D9
330
18
100
AcDbEntity
  8
DRAW2
100
AcDbLine
 10
2773.253352174364
 20
191.3856730872416
 30
0.0
 11
2781.753352174363
 21
191.3856730872416
 31
0.0
  0
ARC
  5
82DA
330
18
100
AcDbEntity
  8
DRAW2
100
AcDbCircle
 10
2773.253352174363
 20
213.3612315872416
 30
0.0
 40
12.275561
100
AcDbArc
 50
249.7439100000002
 51
290.2560643631631
  0
LINE
  5
82DB
330
18
100
AcDbEntity
  8
DRAW2
100
AcDbLine
 10
2768.203352174364
 20
209.0856730872416
 30
0.0
 11
2768.203352174364
 21
210.8856730872417
 31
0.0
  0
LINE
  5
82DC
330
18
100
AcDbEntity
  8
DRAW2
100
AcDbLine
 10
2769.003352174363
 20
201.0856730872416
 30
0.0
 11
2769.003352174363
 21
209.0856730872416
 31
0.0
  0
LINE
  5
82DD
330
18
100
AcDbEntity
  8
DRAW2
100
AcDbLine
 10
2768.868100529433
 20
209.0856730872416
 30
0.0
 11
2768.373582174363
 21
207.7204100872415
 31
0.0
  0
LINE
  5
82DE
330
18
100
AcDbEntity
  8
DRAW2
100
AcDbLine
 10
2777.503352174363
 20
201.8448563821382
 30
0.0
 11
2777.503352174363
 21
209.0856730872416
 31
0.0
  0
LINE
  5
82DF
330
18
100
AcDbEntity
  8
DRAW2
100
AcDbLine
 10
2777.253352174363
 20
210.8856470872415
 30
0.0
 11
2777.253352174363
 21
209.0856730872416
 31
0.0
  0
LINE
  5
82E0
330
18
100
AcDbEntity
  8
DRAW2
100
AcDbLine
 10
2777.753352174363
 20
210.8856470872415
 30
0.0
 11
2777.753352174363
 21
209.0856730872416
 31
0.0
  0
LINE
  5
82E1
330
18
100
AcDbEntity
  8
DRAW2
100
AcDbLine
 10
2786.803352174363
 20
209.0856730872416
 30
0.0
 11
2786.803352174363
 21
210.8856730872419
 31
0.0
  0
LINE
  5
82E2
330
18
100
AcDbEntity
  8
DRAW2
100
AcDbLine
 10
2786.003352174363
 20
201.0856730872416
 30
0.0
 11
2786.003352174363
 21
209.0856730872416
 31
0.0
  0
ARC
  5
82E3
330
18
100
AcDbEntity
  8
DRAW2
100
AcDbCircle
 10
2801.467552174364
 20
212.3856550872415
 30
0.0
 40
1.5
100
AcDbArc
 50
269.9999970000023
 51
2.999999999998919
  0
ARC
  5
82E4
330
18
100
AcDbEntity
  8
DRAW2
100
AcDbCircle
 10
2784.864573474363
 20
254.0406059385564
 30
0.0
 40
4.3449049
100
AcDbArc
 50
64.38377751781577
 51
124.3841199999986
  0
LINE
  5
82E5
330
18
100
AcDbEntity
  8
DRAW2
100
AcDbLine
 10
2767.688395474363
 20
251.3855156385565
 30
0.0
 11
2787.318308874364
 21
251.3856570872416
 31
0.0
  0
LINE
  5
82E6
330
18
100
AcDbEntity
  8
DRAW2
100
AcDbLine
 10
2769.003321674363
 20
258.3855156385565
 30
0.0
 11
2786.003383674364
 21
258.3854994385565
 31
0.0
  0
LINE
  5
82E7
330
18
100
AcDbEntity
  8
DRAW2
100
AcDbLine
 10
2781.921442174363
 20
231.3854990805424
 30
0.0
 11
2781.921442174363
 21
230.8856470872416
 31
0.0
  0
ARC
  5
82E8
330
18
100
AcDbEntity
  8
DRAW2
100
AcDbCircle
 10
2777.503352174363
 20
242.1445793385565
 30
0.0
 40
16.24093999999999
100
AcDbArc
 50
72.41215600000227
 51
107.5877899999985
  0
LINE
  5
82E9
330
18
100
AcDbEntity
  8
DRAW2
100
AcDbLine
 10
2767.688391674363
 20
257.6263255385564
 30
0.0
 11
2769.003320674364
 21
258.3854994385565
 31
0.0
  0
ARC
  5
82EA
330
18
100
AcDbEntity
  8
DRAW2
100
AcDbCircle
 10
2770.142146074363
 20
254.0405602385565
 30
0.0
 40
4.3449545
100
AcDbArc
 50
55.61635200000545
 51
115.617659999998
  0
LINE
  5
82EB
330
18
100
AcDbEntity
  8
DRAW2
100
AcDbLine
 10
2772.595881474363
 20
257.6263451385565
 30
0.0
 11
2772.595881474363
 21
251.3855156385565
 31
0.0
  0
LINE
  5
82EC
330
18
100
AcDbEntity
  8
DRAW2
100
AcDbLine
 10
2767.688395474363
 20
257.6263451385565
 30
0.0
 11
2767.688395474363
 21
251.3855156385565
 31
0.0
  0
LINE
  5
82ED
330
18
100
AcDbEntity
  8
DRAW2
100
AcDbLine
 10
2768.503352174363
 20
251.3855156385565
 30
0.0
 11
2768.503352174363
 21
249.3855156385565
 31
0.0
  0
LINE
  5
82EE
330
18
100
AcDbEntity
  8
DRAW2
100
AcDbLine
 10
2782.410838174363
 20
257.6263298385564
 30
0.0
 11
2782.410838174363
 21
251.3855156385565
 31
0.0
  0
LINE
  5
82EF
330
18
100
AcDbEntity
  8
DRAW2
100
AcDbLine
 10
2801.921472174363
 20
232.3856270872653
 30
0.0
 11
2801.921472174363
 21
247.3856270872415
 31
0.0
  0
ARC
  5
82F0
330
18
100
AcDbEntity
  8
DRAW2
100
AcDbCircle
 10
2800.921472174364
 20
232.3856270872653
 30
0.0
 40
1.0
100
AcDbArc
 50
270.0003860122151
 51
0.0
  0
LINE
  5
82F1
330
18
100
AcDbEntity
  8
DRAW2
100
AcDbLine
 10
2801.000068885162
 20
230.8856470872415
 30
0.0
 11
2802.052405044136
 21
229.8870175631116
 31
0.0
  0
LINE
  5
82F2
330
18
100
AcDbEntity
  8
DRAW2
100
AcDbLine
 10
2787.318308874364
 20
257.6264865872416
 30
0.0
 11
2787.318308874364
 21
251.3856570872416
 31
0.0
  0
LINE
  5
82F3
330
18
100
AcDbEntity
  8
DRAW2
100
AcDbLine
 10
2787.318312674364
 20
257.6263255385564
 30
0.0
 11
2786.003383674364
 21
258.3854994385565
 31
0.0
  0
LINE
  5
82F4
330
18
100
AcDbEntity
  8
DRAW2
100
AcDbLine
 10
2786.503352174364
 20
251.3855156385565
 30
0.0
 11
2786.503352174364
 21
249.3855156385565
 31
0.0
  0
ARC
  5
82F5
330
18
100
AcDbEntity
  8
DRAW2
100
AcDbCircle
 10
2799.921502174364
 20
247.3856570872415
 30
0.0
 40
2.0
100
AcDbArc
 50
359.999989999999
 51
89.9999970000023
  0
LINE
  5
82F6
330
18
100
AcDbEntity
  8
DRAW2
100
AcDbLine
 10
2647.421442174363
 20
393.2931543753534
 30
0.0
 11
2638.921442174364
 21
398.2006316634649
 31
0.0
  0
LINE
  5
82F7
330
18
100
AcDbEntity
  8
DRAW2
100
AcDbLine
 10
2630.421442174363
 20
393.2931543753534
 30
0.0
 11
2638.921442174364
 21
398.200631663465
 31
0.0
  0
LINE
  5
82F8
330
18
100
AcDbEntity
  8
DRAW2
100
AcDbLine
 10
2647.421442174364
 20
383.4781997991299
 30
0.0
 11
2638.921442174364
 21
378.5707225110177
 31
0.0
  0
CIRCLE
  5
82F9
330
18
100
AcDbEntity
  8
DRAW3
100
AcDbCircle
 10
2638.921442174364
 20
388.3856770872414
 30
0.0
 40
6.5
  0
CIRCLE
  5
82FA
330
18
100
AcDbEntity
  8
DRAW2
100
AcDbCircle
 10
2638.921442174364
 20
388.3856770872414
 30
0.0
 40
5.75
  0
CIRCLE
  5
82FB
330
18
100
AcDbEntity
  8
DRAW2
100
AcDbCircle
 10
2638.921442174364
 20
388.3856770872414
 30
0.0
 40
8.5
  0
LINE
  5
82FC
330
18
100
AcDbEntity
  8
DRAW2
100
AcDbLine
 10
2630.421442174363
 20
383.47819979913
 30
0.0
 11
2630.421442174363
 21
393.2931543753531
 31
0.0
  0
LINE
  5
82FD
330
18
100
AcDbEntity
  8
DRAW2
100
AcDbLine
 10
2630.421442174363
 20
383.4781997991299
 30
0.0
 11
2638.921442174364
 21
378.5707225110177
 31
0.0
  0
LINE
  5
82FE
330
18
100
AcDbEntity
  8
DRAW2
100
AcDbLine
 10
2647.421442174364
 20
383.47819979913
 30
0.0
 11
2647.421442174363
 21
393.2931543753531
 31
0.0
  0
LINE
  5
82FF
330
18
100
AcDbEntity
  8
DRAW2
100
AcDbLine
 10
2647.581735772261
 20
442.3856570872413
 30
0.0
 11
2647.581735772261
 21
423.3856570872412
 31
0.0
  0
LINE
  5
8300
330
18
100
AcDbEntity
  8
DRAW2
100
AcDbLine
 10
2630.261148576466
 20
442.3856570872413
 30
0.0
 11
2630.261148576466
 21
423.3856570872412
 31
0.0
  0
LINE
  5
8301
330
18
100
AcDbEntity
  8
DRAW2
100
AcDbLine
 10
2656.613951508863
 20
442.3856661964868
 30
0.0
 11
2656.613951508863
 21
423.3856661964868
 31
0.0
  0
LINE
  5
8302
330
18
100
AcDbEntity
  8
DRAW2
100
AcDbLine
 10
2761.921442174363
 20
418.3856570872414
 30
0.0
 11
2761.921442174363
 21
375.3856570872414
 31
0.0
  0
ARC
  5
8303
330
18
100
AcDbEntity
  8
DRAW2
100
AcDbCircle
 10
2761.291862174363
 20
373.3856570872414
 30
0.0
 40
2.0
100
AcDbArc
 50
89.9999970000023
 51
185.0
  0
LINE
  5
8304
330
18
100
AcDbEntity
  8
DRAW2
100
AcDbLine
 10
2761.921442174363
 20
418.3856870872414
 30
0.0
 11
2756.921442174363
 21
423.3856870872414
 31
0.0
  0
LINE
  5
8305
330
18
100
AcDbEntity
  8
DRAW2
100
AcDbLine
 10
2294.030032567092
 20
743.317736368253
 30
0.0
 11
2294.030032567092
 21
819.3177363682529
 31
0.0
  0
LINE
  5
8306
330
18
100
AcDbEntity
  8
DRAW2
100
AcDbLine
 10
2290.030032567093
 20
700.317736368253
 30
0.0
 11
2290.030032567093
 21
862.3177363682533
 31
0.0
  0
LINE
  5
8307
330
18
100
AcDbEntity
  8
DRAW2
100
AcDbLine
 10
2292.529962567092
 20
710.628970805233
 30
0.0
 11
2292.529962567092
 21
731.6289708052331
 31
0.0
  0
ARC
  5
8308
330
18
100
AcDbEntity
  8
DRAW2
100
AcDbCircle
 10
2286.810362567093
 20
716.3789708052331
 30
0.0
 40
13.719608
100
AcDbArc
 50
339.7437000000006
 51
20.25628299999656
  0
LINE
  5
8309
330
18
100
AcDbEntity
  8
DRAW2
100
AcDbLine
 10
2300.529962567093
 20
711.628970805233
 30
0.0
 11
2292.529962567092
 21
711.628970805233
 31
0.0
  0
LINE
  5
830A
330
18
100
AcDbEntity
  8
DRAW2
100
AcDbLine
 10
2300.529962567093
 20
730.6289708052331
 30
0.0
 11
2292.529962567092
 21
730.6289708052331
 31
0.0
  0
ARC
  5
830B
330
18
100
AcDbEntity
  8
DRAW2
100
AcDbCircle
 10
2286.810362567093
 20
725.8789708052331
 30
0.0
 40
13.719608
100
AcDbArc
 50
339.7437000000006
 51
20.2562759999988
  0
LINE
  5
830C
330
18
100
AcDbEntity
  8
DRAW2
100
AcDbLine
 10
2292.529962567092
 20
710.628970805233
 30
0.0
 11
2290.029962567092
 21
710.628970805233
 31
0.0
  0
LINE
  5
830D
330
18
100
AcDbEntity
  8
DRAW2
100
AcDbLine
 10
2289.030032567092
 20
699.317736368253
 30
0.0
 11
2290.030032567093
 21
700.317736368253
 31
0.0
  0
LINE
  5
830E
330
18
100
AcDbEntity
  8
DRAW2
100
AcDbLine
 10
2299.681452567093
 20
721.1289708052332
 30
0.0
 11
2292.529962567092
 21
721.1289708052332
 31
0.0
  0
LINE
  5
830F
330
18
100
AcDbEntity
  8
DRAW2
100
AcDbLine
 10
2300.529962567093
 20
711.628970805233
 30
0.0
 11
2300.529962567093
 21
730.6289708052331
 31
0.0
  0
ARC
  5
8310
330
18
100
AcDbEntity
  8
DRAW2
100
AcDbCircle
 10
2292.030032567093
 20
743.317736368253
 30
0.0
 40
2.0
100
AcDbArc
 50
270.0
 51
0.0
  0
ARC
  5
8311
330
18
100
AcDbEntity
  8
DRAW2
100
AcDbCircle
 10
2292.030032567093
 20
739.3177363682529
 30
0.0
 40
2.0
100
AcDbArc
 50
90.0
 51
180.0
  0
LINE
  5
8312
330
18
100
AcDbEntity
  8
DRAW2
100
AcDbLine
 10
2292.529962567092
 20
731.6289708052331
 30
0.0
 11
2290.029962567092
 21
731.6289708052331
 31
0.0
  0
ARC
  5
8313
330
18
100
AcDbEntity
  8
DRAW2
100
AcDbCircle
 10
2286.810362567093
 20
846.256501931273
 30
0.0
 40
13.719608
100
AcDbArc
 50
339.7437000000006
 51
20.2562759999988
  0
LINE
  5
8314
330
18
100
AcDbEntity
  8
DRAW2
100
AcDbLine
 10
2300.529962567093
 20
832.0065019312732
 30
0.0
 11
2300.529962567093
 21
851.006501931273
 31
0.0
  0
LINE
  5
8315
330
18
100
AcDbEntity
  8
DRAW2
100
AcDbLine
 10
2292.529962567092
 20
831.0065019312732
 30
0.0
 11
2292.529962567092
 21
852.0065019312731
 31
0.0
  0
LINE
  5
8316
330
18
100
AcDbEntity
  8
DRAW2
100
AcDbLine
 10
2300.529962567093
 20
790.817736368253
 30
0.0
 11
2294.030032567092
 21
790.817736368253
 31
0.0
  0
LINE
  5
8317
330
18
100
AcDbEntity
  8
DRAW2
100
AcDbLine
 10
2300.529962567093
 20
771.817736368253
 30
0.0
 11
2294.030032567092
 21
771.817736368253
 31
0.0
  0
ARC
  5
8318
330
18
100
AcDbEntity
  8
DRAW2
100
AcDbCircle
 10
2286.810362567093
 20
776.567736368253
 30
0.0
 40
13.719608
100
AcDbArc
 50
339.7437000000006
 51
20.25628299999656
  0
ARC
  5
8319
330
18
100
AcDbEntity
  8
DRAW2
100
AcDbCircle
 10
2286.810362567093
 20
786.067736368253
 30
0.0
 40
13.719608
100
AcDbArc
 50
339.7437000000006
 51
20.2562759999988
  0
LINE
  5
831A
330
18
100
AcDbEntity
  8
DRAW2
100
AcDbLine
 10
2299.681452567093
 20
781.3177363682529
 30
0.0
 11
2294.030032567092
 21
781.3177363682529
 31
0.0
  0
LINE
  5
831B
330
18
100
AcDbEntity
  8
DRAW2
100
AcDbLine
 10
2300.529962567093
 20
771.817736368253
 30
0.0
 11
2300.529962567093
 21
790.817736368253
 31
0.0
  0
LINE
  5
831C
330
18
100
AcDbEntity
  8
DRAW2
100
AcDbLine
 10
2300.529962567093
 20
832.0065019312732
 30
0.0
 11
2292.529962567092
 21
832.0065019312732
 31
0.0
  0
ARC
  5
831D
330
18
100
AcDbEntity
  8
DRAW2
100
AcDbCircle
 10
2286.810362567093
 20
836.7565019312731
 30
0.0
 40
13.719608
100
AcDbArc
 50
339.7437000000006
 51
20.25628299999656
  0
ARC
  5
831E
330
18
100
AcDbEntity
  8
DRAW2
100
AcDbCircle
 10
2292.030032567093
 20
819.3177363682529
 30
0.0
 40
2.0
100
AcDbArc
 50
0.0
 51
90.0
  0
ARC
  5
831F
330
18
100
AcDbEntity
  8
DRAW2
100
AcDbCircle
 10
2292.030032567093
 20
823.317736368253
 30
0.0
 40
2.0
100
AcDbArc
 50
180.0
 51
270.0
  0
LINE
  5
8320
330
18
100
AcDbEntity
  8
DRAW2
100
AcDbLine
 10
2299.681452567093
 20
841.5065019312731
 30
0.0
 11
2292.529962567092
 21
841.5065019312731
 31
0.0
  0
LINE
  5
8321
330
18
100
AcDbEntity
  8
DRAW2
100
AcDbLine
 10
2292.529962567092
 20
831.0065019312732
 30
0.0
 11
2290.029962567092
 21
831.0065019312732
 31
0.0
  0
LINE
  5
8322
330
18
100
AcDbEntity
  8
DRAW2
100
AcDbLine
 10
2300.529962567093
 20
851.006501931273
 30
0.0
 11
2292.529962567092
 21
851.006501931273
 31
0.0
  0
LINE
  5
8323
330
18
100
AcDbEntity
  8
DRAW2
100
AcDbLine
 10
2292.529962567092
 20
852.0065019312731
 30
0.0
 11
2290.029962567092
 21
852.0065019312731
 31
0.0
  0
LINE
  5
8324
330
18
100
AcDbEntity
  8
DRAW2
100
AcDbLine
 10
2290.030032567093
 20
862.3177363682529
 30
0.0
 11
2289.030032567092
 21
863.3177363682531
 31
0.0
  0
LINE
  5
8325
330
18
100
AcDbEntity
  8
DRAW2
100
AcDbLine
 10
2642.921442174364
 20
486.8856570872415
 30
0.0
 11
2642.921442174364
 21
459.7727670872414
 31
0.0
  0
LINE
  5
8326
330
18
100
AcDbEntity
  8
DRAW2
100
AcDbLine
 10
2634.921442174363
 20
486.8856570872415
 30
0.0
 11
2634.921442174363
 21
459.7727670872414
 31
0.0
  0
LINE
  5
8327
330
18
100
AcDbEntity
  8
DRAW2
100
AcDbLine
 10
2646.571394647394
 20
458.7727670872413
 30
0.0
 11
2631.271489701333
 21
458.7727670872413
 31
0.0
  0
ARC
  5
8329
330
18
100
AcDbEntity
  8
DRAW2
100
AcDbCircle
 10
2633.921442174363
 20
459.7727670872414
 30
0.0
 40
1.0
100
AcDbArc
 50
270.0
 51
0.0
  0
ARC
  5
832A
330
18
100
AcDbEntity
  8
DRAW2
100
AcDbCircle
 10
2631.271489701333
 20
457.7727670872412
 30
0.0
 40
1.0
100
AcDbArc
 50
90.00000000001303
 51
174.9999999999837
  0
ARC
  5
832B
330
18
100
AcDbEntity
  8
DRAW2
100
AcDbCircle
 10
2646.571394647394
 20
457.7727670872412
 30
0.0
 40
1.0
100
AcDbArc
 50
5.000000000016249
 51
89.99999999998697
  0
ARC
  5
832C
330
18
100
AcDbEntity
  8
DRAW2
100
AcDbCircle
 10
2643.921442174363
 20
459.7727670872414
 30
0.0
 40
1.0
100
AcDbArc
 50
180.0
 51
270.0
  0
ARC
  5
832D
330
18
100
AcDbEntity
  8
DRAW2
100
AcDbCircle
 10
2638.921442174364
 20
486.8856570872415
 30
0.0
 40
4.0
100
AcDbArc
 50
0.0
 51
180.0
  0
LINE
  5
84BB
330
18
100
AcDbEntity
  8
DRAW2
100
AcDbLine
 10
1918.948092049514
 20
258.3856570872416
 30
0.0
 11
1935.948092049514
 21
258.3856570872416
 31
0.0
  0
LINE
  5
84BC
330
18
100
AcDbEntity
  8
DRAW2
100
AcDbLine
 10
1918.948092049514
 20
251.3856570872416
 30
0.0
 11
1935.948092049514
 21
251.3856570872416
 31
0.0
  0
ARC
  5
84BD
330
18
100
AcDbEntity
  8
DRAW2
100
AcDbCircle
 10
1931.698092049514
 20
246.1100985872416
 30
0.0
 40
12.275561
100
AcDbArc
 50
69.74392900000416
 51
110.2560900000058
  0
LINE
  5
84C3
330
18
100
AcDbEntity
  8
DRAW2
100
AcDbLine
 10
1927.448092049514
 20
257.6264712872415
 30
0.0
 11
1927.448092049514
 21
251.3856570872416
 31
0.0
  0
LINE
  5
84C4
330
18
100
AcDbEntity
  8
DRAW2
100
AcDbLine
 10
1918.948092049514
 20
258.3856570872416
 30
0.0
 11
1918.948092049514
 21
251.3856570872416
 31
0.0
  0
ARC
  5
84C5
330
18
100
AcDbEntity
  8
DRAW2
100
AcDbCircle
 10
1923.198092049514
 20
246.1100985872416
 30
0.0
 40
12.275561
100
AcDbArc
 50
69.74392900000416
 51
110.2560900000058
  0
LINE
  5
84C6
330
18
100
AcDbEntity
  8
DRAW2
100
AcDbLine
 10
1935.948092049514
 20
258.3856570872416
 30
0.0
 11
1935.948092049514
 21
251.3856570872416
 31
0.0
  0
LINE
  5
84C7
330
18
100
AcDbEntity
  8
DRAW2
100
AcDbLine
 10
2000.127482049514
 20
258.3856570872416
 30
0.0
 11
2017.127482049514
 21
258.3856570872416
 31
0.0
  0
LINE
  5
84C8
330
18
100
AcDbEntity
  8
DRAW2
100
AcDbLine
 10
2000.127482049514
 20
251.3856570872416
 30
0.0
 11
2017.127482049514
 21
251.3856570872416
 31
0.0
  0
ARC
  5
84C9
330
18
100
AcDbEntity
  8
DRAW2
100
AcDbCircle
 10
2012.877482049514
 20
246.1100985872416
 30
0.0
 40
12.275561
100
AcDbArc
 50
69.74392900000416
 51
110.2560900000058
  0
LINE
  5
84CF
330
18
100
AcDbEntity
  8
DRAW2
100
AcDbLine
 10
2008.627482049515
 20
257.6264712872415
 30
0.0
 11
2008.627482049515
 21
251.3856570872416
 31
0.0
  0
LINE
  5
84D0
330
18
100
AcDbEntity
  8
DRAW2
100
AcDbLine
 10
2000.127482049514
 20
258.3856570872416
 30
0.0
 11
2000.127482049514
 21
251.3856570872416
 31
0.0
  0
ARC
  5
84D1
330
18
100
AcDbEntity
  8
DRAW2
100
AcDbCircle
 10
2004.377482049514
 20
246.1100985872416
 30
0.0
 40
12.275561
100
AcDbArc
 50
69.74392900000416
 51
110.2560900000058
  0
LINE
  5
84D2
330
18
100
AcDbEntity
  8
DRAW2
100
AcDbLine
 10
2017.127482049514
 20
258.3856570872416
 30
0.0
 11
2017.127482049514
 21
251.3856570872416
 31
0.0
  0
LINE
  5
84D3
330
18
100
AcDbEntity
  8
DRAW2
100
AcDbLine
 10
2114.932532049514
 20
258.3856570872416
 30
0.0
 11
2131.932532049514
 21
258.3856570872416
 31
0.0
  0
LINE
  5
84D4
330
18
100
AcDbEntity
  8
DRAW2
100
AcDbLine
 10
2114.932532049514
 20
251.3856570872416
 30
0.0
 11
2131.932532049514
 21
251.3856570872416
 31
0.0
  0
ARC
  5
84D5
330
18
100
AcDbEntity
  8
DRAW2
100
AcDbCircle
 10
2127.682532049514
 20
246.1100985872416
 30
0.0
 40
12.275561
100
AcDbArc
 50
69.74392900000416
 51
110.2560900000058
  0
LINE
  5
84DB
330
18
100
AcDbEntity
  8
DRAW2
100
AcDbLine
 10
2123.432532049514
 20
257.6264712872415
 30
0.0
 11
2123.432532049514
 21
251.3856570872416
 31
0.0
  0
LINE
  5
84DC
330
18
100
AcDbEntity
  8
DRAW2
100
AcDbLine
 10
2114.932532049514
 20
258.3856570872416
 30
0.0
 11
2114.932532049514
 21
251.3856570872416
 31
0.0
  0
ARC
  5
84DD
330
18
100
AcDbEntity
  8
DRAW2
100
AcDbCircle
 10
2119.182532049514
 20
246.1100985872416
 30
0.0
 40
12.275561
100
AcDbArc
 50
69.74392900000416
 51
110.2560900000058
  0
LINE
  5
84DE
330
18
100
AcDbEntity
  8
DRAW2
100
AcDbLine
 10
2131.932532049514
 20
258.3856570872416
 30
0.0
 11
2131.932532049514
 21
251.3856570872416
 31
0.0
  0
LINE
  5
84DF
330
18
100
AcDbEntity
  8
DRAW2
100
AcDbLine
 10
2196.111912049514
 20
258.3856570872416
 30
0.0
 11
2213.111912049514
 21
258.3856570872416
 31
0.0
  0
LINE
  5
84E0
330
18
100
AcDbEntity
  8
DRAW2
100
AcDbLine
 10
2196.111912049514
 20
251.3856570872416
 30
0.0
 11
2213.111912049514
 21
251.3856570872416
 31
0.0
  0
ARC
  5
84E1
330
18
100
AcDbEntity
  8
DRAW2
100
AcDbCircle
 10
2208.861912049514
 20
246.1100985872416
 30
0.0
 40
12.275561
100
AcDbArc
 50
69.74392900000416
 51
110.2560900000058
  0
LINE
  5
84E7
330
18
100
AcDbEntity
  8
DRAW2
100
AcDbLine
 10
2204.611912049514
 20
257.6264712872415
 30
0.0
 11
2204.611912049514
 21
251.3856570872416
 31
0.0
  0
LINE
  5
84E8
330
18
100
AcDbEntity
  8
DRAW2
100
AcDbLine
 10
2196.111912049514
 20
258.3856570872416
 30
0.0
 11
2196.111912049514
 21
251.3856570872416
 31
0.0
  0
ARC
  5
84E9
330
18
100
AcDbEntity
  8
DRAW2
100
AcDbCircle
 10
2200.361912049514
 20
246.1100985872416
 30
0.0
 40
12.275561
100
AcDbArc
 50
69.74392900000416
 51
110.2560900000058
  0
LINE
  5
84EA
330
18
100
AcDbEntity
  8
DRAW2
100
AcDbLine
 10
2213.111912049514
 20
258.3856570872416
 30
0.0
 11
2213.111912049514
 21
251.3856570872416
 31
0.0
  0
VIEWPORT
  5
BD5
330
15
100
AcDbEntity
 67
     1
  8
0
100
AcDbViewport
 10
296.9950122070312
 20
209.9950000476836
 30
0.0
 40
632.1056339387388
 41
423.1939163498098
 68
     1
 69
     1
 12
296.9950122070312
 22
209.9950000476836
 13
0.0
 23
0.0
 14
10.0
 24
10.0
 15
10.0
 25
10.0
 16
0.0
 26
0.0
 36
1.0
 17
0.0
 27
0.0
 37
0.0
 42
50.0
 43
0.0
 44
0.0
 45
423.1939163498098
 50
0.0
 51
0.0
 72
   100
 90
    32768
  1

281
     0
 71
     1
 74
     0
110
0.0
120
0.0
130
0.0
111
1.0
121
0.0
131
0.0
112
0.0
122
1.0
132
0.0
 79
     0
146
0.0
  0
ENDSEC
  0
SECTION
  2
OBJECTS
  0
DICTIONARY
  5
C
330
0
100
AcDbDictionary
281
     1
  3
ACAD_GROUP
350
D
  3
ACAD_LAYOUT
350
6721
  3
ACAD_MLINESTYLE
350
E
  3
ACAD_PLOTSETTINGS
350
6722
  3
ACAD_PLOTSTYLENAME
350
671F
  0
DICTIONARY
  5
7A67
330
2
100
AcDbDictionary
280
     1
281
     1
  3
ACAD_LAYERFILTERS
360
7A68
  0
DICTIONARY
  5
D
102
{ACAD_REACTORS
330
C
102
}
330
C
100
AcDbDictionary
281
     1
  0
DICTIONARY
  5
6721
102
{ACAD_REACTORS
330
C
102
}
330
C
100
AcDbDictionary
281
     1
  3
Model
350
6723
  3
ﾚｲｱｳﾄ1
350
6724
  0
DICTIONARY
  5
E
102
{ACAD_REACTORS
330
C
102
}
330
C
100
AcDbDictionary
281
     1
  3
STANDARD
350
1B
  0
DICTIONARY
  5
6722
102
{ACAD_REACTORS
330
C
102
}
330
C
100
AcDbDictionary
281
     1
  3
AdobePDF_A1
350
6730
  3
AdobePDF_A2
350
791A
  0
ACDBDICTIONARYWDFLT
  5
671F
102
{ACAD_REACTORS
330
C
102
}
330
C
100
AcDbDictionary
281
     1
  3
Normal
350
6720
100
AcDbDictionaryWithDefault
340
6720
  0
DICTIONARY
  5
7A68
102
{ACAD_REACTORS
330
7A67
102
}
330
7A67
100
AcDbDictionary
280
     1
281
     1
  3
0 画層
360
7A69
  3
06
360
7A6A
  3
06siki
360
7A6B
  3
06siki2
360
7A6C
  3
2
360
7A6D
  3
A 画層
360
7A6E
  3
aaa
360
7A6F
  3
B 画層
360
7A70
  3
E 画層
360
7A71
  3
H 画層
360
7A72
  3
L 画層
360
7A73
  3
sekkei
360
7A74
  3
一般画層
360
7A75
  3
開発画層
360
7A76
  3
外構一般画層
360
7A77
  3
建築一般画層
360
7A78
  3
座席のみ
360
7A79
  3
詳細一般画層
360
7A7A
  3
全階平面図
360
7A7B
  0
LAYOUT
  5
6723
102
{ACAD_REACTORS
330
6721
102
}
330
6721
100
AcDbPlotSettings
  1

  2
Acrobat Distiller
  4

  6

 40
0.0
 41
0.0
 42
0.0
 43
0.0
 44
0.0
 45
0.0
 46
0.0
 47
0.0
 48
0.0
 49
0.0
140
0.0
141
0.0
142
1.0
143
1.0
 70
  1712
 72
     0
 73
     0
 74
     0
  7

 75
     0
147
1.0
148
0.0
149
0.0
100
AcDbLayout
  1
Model
 70
     1
 71
     0
 10
0.0
 20
0.0
 11
12.0
 21
9.0
 12
0.0
 22
0.0
 32
0.0
 14
0.0
 24
0.0
 34
0.0
 15
0.0
 25
0.0
 35
0.0
146
0.0
 13
0.0
 23
0.0
 33
0.0
 16
1.0
 26
0.0
 36
0.0
 17
0.0
 27
1.0
 37
0.0
 76
     0
330
18
  0
LAYOUT
  5
6724
102
{ACAD_REACTORS
330
6721
102
}
330
6721
100
AcDbPlotSettings
  1
AdobePDF_A2
  2
Adobe PDF
  4
User66
  6
A1
 40
3.174999952316284
 41
3.174999952316284
 42
3.17498779296875
 43
3.17498779296875
 44
420.0
 45
594.0
 46
-3.169999999999999
 47
-3.169999999999999
 48
0.0
 49
0.0
140
594.0
141
420.0
142
1.0
143
1.0
 70
   692
 72
     1
 73
     1
 74
     4
  7
LineScale_10.ctb
 75
    16
147
1.0
148
0.0
149
0.0
100
AcDbLayout
  1
ﾚｲｱｳﾄ1
 70
     1
 71
     1
 10
-0.0049877929687501
 20
-0.0049999523162843
 11
593.9950122070312
 21
419.9950000476837
 12
0.0
 22
0.0
 32
0.0
 14
1.000000000000000E+20
 24
1.000000000000000E+20
 34
1.000000000000000E+20
 15
-1.000000000000000E+20
 25
-1.000000000000000E+20
 35
-1.000000000000000E+20
146
0.0
 13
0.0
 23
0.0
 33
0.0
 16
1.0
 26
0.0
 36
0.0
 17
0.0
 27
1.0
 37
0.0
 76
     0
330
15
331
BD5
  0
MLINESTYLE
  5
1B
102
{ACAD_REACTORS
330
E
102
}
330
E
100
AcDbMlineStyle
  2
STANDARD
 70
     0
  3

 62
     0
 51
90.0
 52
90.0
 71
     2
 49
0.5
 62
   256
  6
BYLAYER
 49
-0.5
 62
   256
  6
BYLAYER
  0
PLOTSETTINGS
  5
6730
102
{ACAD_REACTORS
330
6722
102
}
330
6722
100
AcDbPlotSettings
  1
AdobePDF_A1
  2
Adobe PDF
  4
User120
  6
A1
 40
3.174999952316284
 41
3.174999952316284
 42
3.17498779296875
 43
3.17498779296875
 44
594.0
 45
841.0
 46
-3.169999999999999
 47
-3.169999999999999
 48
0.0
 49
0.0
140
841.0
141
594.0
142
1.0
143
1.0
 70
   692
 72
     1
 73
     1
 74
     4
  7
LineScale_10.ctb
 75
    16
147
1.0
148
0.0
149
0.0
  0
PLOTSETTINGS
  5
791A
102
{ACAD_REACTORS
330
6722
102
}
330
6722
100
AcDbPlotSettings
  1
AdobePDF_A2
  2
Adobe PDF
  4
User66
  6
A1
 40
3.174999952316284
 41
3.174999952316284
 42
3.17498779296875
 43
3.17498779296875
 44
420.0
 45
594.0
 46
-3.169999999999999
 47
-3.169999999999999
 48
0.0
 49
0.0
140
594.0
141
420.0
142
1.0
143
1.0
 70
   692
 72
     1
 73
     1
 74
     4
  7
LineScale_10.ctb
 75
    16
147
1.0
148
0.0
149
0.0
  0
ACDBPLACEHOLDER
  5
6720
102
{ACAD_REACTORS
330
671F
102
}
330
671F
  0
XRECORD
  5
7A69
102
{ACAD_REACTORS
330
7A68
102
}
330
7A68
100
AcDbXrecord
280
     1
  1
0 画層
  1
0*,*.
  1
*
  1
*
 70
     0
  1
*
  1
*
  0
XRECORD
  5
7A6A
102
{ACAD_REACTORS
330
7A68
102
}
330
7A68
100
AcDbXrecord
280
     1
  1
06
  1
06*
  1
*
  1
*
 70
     0
  1
*
  1
*
  0
XRECORD
  5
7A6B
102
{ACAD_REACTORS
330
7A68
102
}
330
7A68
100
AcDbXrecord
280
     1
  1
06siki
  1
06*siki*,sikiti,00waku,*|*
  1
*
  1
*
 70
     0
  1
*
  1
*
  0
XRECORD
  5
7A6C
102
{ACAD_REACTORS
330
7A68
102
}
330
7A68
100
AcDbXrecord
280
     1
  1
06siki2
  1
06*siki*,sikiti,00waku,*|*
  1
*
  1
*
 70
     0
  1
*
  1
*
  0
XRECORD
  5
7A6D
102
{ACAD_REACTORS
330
7A68
102
}
330
7A68
100
AcDbXrecord
280
     1
  1
2
  1
2*
  1
*
  1
*
 70
     0
  1
*
  1
*
  0
XRECORD
  5
7A6E
102
{ACAD_REACTORS
330
7A68
102
}
330
7A68
100
AcDbXrecord
280
     1
  1
A 画層
  1
A*,*.
  1
*
  1
*
 70
     0
  1
*
  1
*
  0
XRECORD
  5
7A6F
102
{ACAD_REACTORS
330
7A68
102
}
330
7A68
100
AcDbXrecord
280
     1
  1
aaa
  1
*moji*
  1
*
  1
*
 70
     0
  1
*
  1
*
  0
XRECORD
  5
7A70
102
{ACAD_REACTORS
330
7A68
102
}
330
7A68
100
AcDbXrecord
280
     1
  1
B 画層
  1
B*,*.
  1
*
  1
*
 70
     0
  1
*
  1
*
  0
XRECORD
  5
7A71
102
{ACAD_REACTORS
330
7A68
102
}
330
7A68
100
AcDbXrecord
280
     1
  1
E 画層
  1
E*,*.
  1
*
  1
*
 70
     0
  1
*
  1
*
  0
XRECORD
  5
7A72
102
{ACAD_REACTORS
330
7A68
102
}
330
7A68
100
AcDbXrecord
280
     1
  1
H 画層
  1
H*,*.
  1
*
  1
*
 70
     0
  1
*
  1
*
  0
XRECORD
  5
7A73
102
{ACAD_REACTORS
330
7A68
102
}
330
7A68
100
AcDbXrecord
280
     1
  1
L 画層
  1
L*,*.
  1
*
  1
*
 70
     0
  1
*
  1
*
  0
XRECORD
  5
7A74
102
{ACAD_REACTORS
330
7A68
102
}
330
7A68
100
AcDbXrecord
280
     1
  1
sekkei
  1
34
  1
*
  1
*
 70
     0
  1
*
  1
*
  0
XRECORD
  5
7A75
102
{ACAD_REACTORS
330
7A68
102
}
330
7A68
100
AcDbXrecord
280
     1
  1
一般画層
  1
.*
  1
*
  1
*
 70
     0
  1
*
  1
*
  0
XRECORD
  5
7A76
102
{ACAD_REACTORS
330
7A68
102
}
330
7A68
100
AcDbXrecord
280
     1
  1
開発画層
  1
L*,B*
  1
*
  1
*
 70
     0
  1
*
  1
*
  0
XRECORD
  5
7A77
102
{ACAD_REACTORS
330
7A68
102
}
330
7A68
100
AcDbXrecord
280
     1
  1
外構一般画層
  1
L*,B*
  1
*
  1
*
 70
     0
  1
*
  1
*
  0
XRECORD
  5
7A78
102
{ACAD_REACTORS
330
7A68
102
}
330
7A68
100
AcDbXrecord
280
     1
  1
建築一般画層
  1
B*,A*
  1
*
  1
*
 70
     0
  1
*
  1
*
  0
XRECORD
  5
7A79
102
{ACAD_REACTORS
330
7A68
102
}
330
7A68
100
AcDbXrecord
280
     1
  1
座席のみ
  1
*
  1
*
  1
*
 70
     0
  1
*
  1
*
  0
XRECORD
  5
7A7A
102
{ACAD_REACTORS
330
7A68
102
}
330
7A68
100
AcDbXrecord
280
     1
  1
詳細一般画層
  1
B*,A*,D*
  1
*
  1
*
 70
     0
  1
*
  1
*
  0
XRECORD
  5
7A7B
102
{ACAD_REACTORS
330
7A68
102
}
330
7A68
100
AcDbXrecord
280
     1
  1
全階平面図
  1
*
  1
*
  1
*
 70
     0
  1
*
  1
*
  0
ENDSEC
  0
EOF
