  0
SECTION
  2
HEADER
  9
$ACADVER
  1
AC1015
  9
$ACADMAINTVER
 70
     6
  9
$DWGCODEPAGE
  3
ANSI_932
  9
$INSBASE
 10
0.0
 20
0.0
 30
0.0
  9
$EXTMIN
 10
1200.59939588523
 20
84.38324330186379
 30
-0.0015258207003583
  9
$EXTMAX
 10
1772.68431161431
 20
593.945620441746
 30
0.0000000349246037
  9
$LIMMIN
 10
-841.0
 20
-594.0
  9
$LIMMAX
 10
841.0
 20
594.0
  9
$ORTHOMODE
 70
     0
  9
$REGENMODE
 70
     1
  9
$FILLMODE
 70
     1
  9
$QTEXTMODE
 70
     0
  9
$MIRRTEXT
 70
     0
  9
$LTSCALE
 40
7.0
  9
$ATTMODE
 70
     1
  9
$TEXTSIZE
 40
4.799999999999999
  9
$TRACEWID
 40
1.0
  9
$TEXTSTYLE
  7
DIMFONT
  9
$CLAYER
  8
DRAW2
  9
$CELTYPE
  6
BYLAYER
  9
$CECOLOR
 62
   256
  9
$CELTSCALE
 40
1.0
  9
$DISPSILH
 70
     0
  9
$DIMSCALE
 40
2.0
  9
$DIMASZ
 40
3.0
  9
$DIMEXO
 40
0.0
  9
$DIMDLI
 40
10.0
  9
$DIMRND
 40
0.0
  9
$DIMDLE
 40
0.0
  9
$DIMEXE
 40
1.0
  9
$DIMTP
 40
0.0
  9
$DIMTM
 40
0.0
  9
$DIMTXT
 40
3.2
  9
$DIMCEN
 40
0.0
  9
$DIMTSZ
 40
0.0
  9
$DIMTOL
 70
     0
  9
$DIMLIM
 70
     0
  9
$DIMTIH
 70
     0
  9
$DIMTOH
 70
     0
  9
$DIMSE1
 70
     0
  9
$DIMSE2
 70
     0
  9
$DIMTAD
 70
     3
  9
$DIMZIN
 70
     8
  9
$DIMBLK
  1

  9
$DIMASO
 70
     1
  9
$DIMSHO
 70
     1
  9
$DIMPOST
  1

  9
$DIMAPOST
  1

  9
$DIMALT
 70
     0
  9
$DIMALTD
 70
     2
  9
$DIMALTF
 40
25.4
  9
$DIMLFAC
 40
1.0
  9
$DIMTOFL
 70
     1
  9
$DIMTVP
 40
0.0
  9
$DIMTIX
 70
     0
  9
$DIMSOXD
 70
     0
  9
$DIMSAH
 70
     1
  9
$DIMBLK1
  1
OPEN
  9
$DIMBLK2
  1
OPEN
  9
$DIMSTYLE
  2
1_2
  9
$DIMCLRD
 70
     0
  9
$DIMCLRE
 70
     0
  9
$DIMCLRT
 70
     0
  9
$DIMTFAC
 40
0.75
  9
$DIMGAP
 40
1.0
  9
$DIMJUST
 70
     0
  9
$DIMSD1
 70
     0
  9
$DIMSD2
 70
     0
  9
$DIMTOLJ
 70
     1
  9
$DIMTZIN
 70
     8
  9
$DIMALTZ
 70
     0
  9
$DIMALTTZ
 70
     0
  9
$DIMUPT
 70
     0
  9
$DIMDEC
 70
     3
  9
$DIMTDEC
 70
     3
  9
$DIMALTU
 70
     2
  9
$DIMALTTD
 70
     2
  9
$DIMTXSTY
  7
DIMFONT
  9
$DIMAUNIT
 70
     0
  9
$DIMADEC
 70
     0
  9
$DIMALTRND
 40
0.0
  9
$DIMAZIN
 70
     0
  9
$DIMDSEP
 70
    46
  9
$DIMATFIT
 70
     3
  9
$DIMFRAC
 70
     0
  9
$DIMLDRBLK
  1
OPEN
  9
$DIMLUNIT
 70
     2
  9
$DIMLWD
 70
    -2
  9
$DIMLWE
 70
    -2
  9
$DIMTMOVE
 70
     0
  9
$LUNITS
 70
     2
  9
$LUPREC
 70
     4
  9
$SKETCHINC
 40
1.0
  9
$FILLETRAD
 40
0.0
  9
$AUNITS
 70
     0
  9
$AUPREC
 70
     4
  9
$MENU
  1
acad
  9
$ELEVATION
 40
0.0
  9
$PELEVATION
 40
0.0
  9
$THICKNESS
 40
0.0
  9
$LIMCHECK
 70
     0
  9
$CHAMFERA
 40
0.0
  9
$CHAMFERB
 40
0.0
  9
$CHAMFERC
 40
0.0
  9
$CHAMFERD
 40
0.0
  9
$SKPOLY
 70
     0
  9
$TDCREATE
 40
2452675.358017477
  9
$TDUCREATE
 40
2452674.983017476
  9
$TDUPDATE
 40
2454973.442862766
  9
$TDUUPDATE
 40
2454973.067862766
  9
$TDINDWG
 40
0.0921262847
  9
$TDUSRTIMER
 40
0.0921235532
  9
$USRTIMER
 70
     1
  9
$ANGBASE
 50
0.0
  9
$ANGDIR
 70
     0
  9
$PDMODE
 70
    35
  9
$PDSIZE
 40
0.5
  9
$PLINEWID
 40
0.0
  9
$SPLFRAME
 70
     0
  9
$SPLINETYPE
 70
     6
  9
$SPLINESEGS
 70
     8
  9
$HANDSEED
  5
39EB
  9
$SURFTAB1
 70
     6
  9
$SURFTAB2
 70
     6
  9
$SURFTYPE
 70
     6
  9
$SURFU
 70
     6
  9
$SURFV
 70
     6
  9
$UCSBASE
  2

  9
$UCSNAME
  2

  9
$UCSORG
 10
0.0
 20
0.0
 30
0.0
  9
$UCSXDIR
 10
1.0
 20
0.0
 30
0.0
  9
$UCSYDIR
 10
0.0
 20
1.0
 30
0.0
  9
$UCSORTHOREF
  2

  9
$UCSORTHOVIEW
 70
     0
  9
$UCSORGTOP
 10
0.0
 20
0.0
 30
0.0
  9
$UCSORGBOTTOM
 10
0.0
 20
0.0
 30
0.0
  9
$UCSORGLEFT
 10
0.0
 20
0.0
 30
0.0
  9
$UCSORGRIGHT
 10
0.0
 20
0.0
 30
0.0
  9
$UCSORGFRONT
 10
0.0
 20
0.0
 30
0.0
  9
$UCSORGBACK
 10
0.0
 20
0.0
 30
0.0
  9
$PUCSBASE
  2

  9
$PUCSNAME
  2

  9
$PUCSORG
 10
0.0
 20
0.0
 30
0.0
  9
$PUCSXDIR
 10
1.0
 20
0.0
 30
0.0
  9
$PUCSYDIR
 10
0.0
 20
1.0
 30
0.0
  9
$PUCSORTHOREF
  2

  9
$PUCSORTHOVIEW
 70
     0
  9
$PUCSORGTOP
 10
0.0
 20
0.0
 30
0.0
  9
$PUCSORGBOTTOM
 10
0.0
 20
0.0
 30
0.0
  9
$PUCSORGLEFT
 10
0.0
 20
0.0
 30
0.0
  9
$PUCSORGRIGHT
 10
0.0
 20
0.0
 30
0.0
  9
$PUCSORGFRONT
 10
0.0
 20
0.0
 30
0.0
  9
$PUCSORGBACK
 10
0.0
 20
0.0
 30
0.0
  9
$USERI1
 70
     0
  9
$USERI2
 70
     0
  9
$USERI3
 70
     0
  9
$USERI4
 70
     0
  9
$USERI5
 70
     0
  9
$USERR1
 40
0.0
  9
$USERR2
 40
0.0
  9
$USERR3
 40
0.0
  9
$USERR4
 40
0.0
  9
$USERR5
 40
0.0
  9
$WORLDVIEW
 70
     1
  9
$SHADEDGE
 70
     3
  9
$SHADEDIF
 70
    70
  9
$TILEMODE
 70
     1
  9
$MAXACTVP
 70
    48
  9
$PINSBASE
 10
0.0
 20
0.0
 30
0.0
  9
$PLIMCHECK
 70
     0
  9
$PEXTMIN
 10
1.000000000000000E+20
 20
1.000000000000000E+20
 30
1.000000000000000E+20
  9
$PEXTMAX
 10
-1.000000000000000E+20
 20
-1.000000000000000E+20
 30
-1.000000000000000E+20
  9
$PLIMMIN
 10
-0.0049877929687501
 20
-0.0049999523162843
  9
$PLIMMAX
 10
593.9950122070312
 20
419.9950000476837
  9
$UNITMODE
 70
     0
  9
$VISRETAIN
 70
     0
  9
$PLINEGEN
 70
     1
  9
$PSLTSCALE
 70
     1
  9
$TREEDEPTH
 70
  3020
  9
$CMLSTYLE
  2
STANDARD
  9
$CMLJUST
 70
     0
  9
$CMLSCALE
 40
20.0
  9
$PROXYGRAPHICS
 70
     1
  9
$MEASUREMENT
 70
     0
  9
$CELWEIGHT
370
    -1
  9
$ENDCAPS
280
     0
  9
$JOINSTYLE
280
     0
  9
$LWDISPLAY
290
     0
  9
$INSUNITS
 70
     0
  9
$HYPERLINKBASE
  1

  9
$STYLESHEET
  1

  9
$XEDIT
290
     1
  9
$CEPSNTYPE
380
     0
  9
$PSTYLEMODE
290
     1
  9
$FINGERPRINTGUID
  2
{F6BF95ED-E07B-4D5A-9613-2A4D2EA4315B}
  9
$VERSIONGUID
  2
{5BCDF3C3-400D-46E4-A7A0-D37AE934FD94}
  9
$EXTNAMES
290
     1
  9
$PSVPSCALE
 40
0.0
  9
$OLESTARTUP
290
     0
  0
ENDSEC
  0
SECTION
  2
CLASSES
  0
CLASS
  1
LWPOLYLINE
  2
AcDbPolyline
  3
AutoCAD 2000
 90
    32768
280
     0
281
     1
  0
CLASS
  1
ACDBDICTIONARYWDFLT
  2
AcDbDictionaryWithDefault
  3
AutoCAD 2000
 90
        0
280
     0
281
     0
  0
CLASS
  1
ACDBPLACEHOLDER
  2
AcDbPlaceHolder
  3
AutoCAD 2000
 90
        0
280
     0
281
     0
  0
CLASS
  1
LAYOUT
  2
AcDbLayout
  3
AutoCAD 2000
 90
        0
280
     0
281
     0
  0
CLASS
  1
PLOTSETTINGS
  2
AcDbPlotSettings
  3
AutoCAD 2000
 90
        0
280
     0
281
     0
  0
CLASS
  1
RASTERVARIABLES
  2
AcDbRasterVariables
  3
ISM
 90
        0
280
     0
281
     0
  0
CLASS
  1
LONG_TRANSACTION
  2
AcDbLongTransaction
  3
AutoCAD 2000
 90
    32768
280
     0
281
     0
  0
CLASS
  1
LWPOLYLINE
  2
AcDbPolyline
  3
AutoCAD 2000
 90
    32768
280
     0
281
     1
  0
CLASS
  1
HATCH
  2
AcDbHatch
  3
AutoCAD 2000
 90
    32768
280
     0
281
     1
  0
CLASS
  1
XRECORD
  2
AcDbXrecord
  3
AutoCAD 2000
 90
    32768
280
     0
281
     0
  0
CLASS
  1
LONG_TRANSACTION
  2
AcDbLongTransaction
  3
AutoCAD 2000
 90
    32768
280
     0
281
     0
  0
CLASS
  1
LWPOLYLINE
  2
AcDbPolyline
  3
AutoCAD 2000
 90
    32768
280
     0
281
     1
  0
CLASS
  1
HATCH
  2
AcDbHatch
  3
AutoCAD 2000
 90
    32768
280
     0
281
     1
  0
CLASS
  1
XRECORD
  2
AcDbXrecord
  3
AutoCAD 2000
 90
    32768
280
     0
281
     0
  0
CLASS
  1
LONG_TRANSACTION
  2
AcDbLongTransaction
  3
AutoCAD 2000
 90
    32768
280
     0
281
     0
  0
CLASS
  1
LWPOLYLINE
  2
AcDbPolyline
  3
AutoCAD 2000
 90
    32768
280
     0
281
     1
  0
CLASS
  1
HATCH
  2
AcDbHatch
  3
AutoCAD 2000
 90
    32768
280
     0
281
     1
  0
CLASS
  1
XRECORD
  2
AcDbXrecord
  3
AutoCAD 2000
 90
    32768
280
     0
281
     0
  0
ENDSEC
  0
SECTION
  2
TABLES
  0
TABLE
  2
VPORT
  5
8
330
0
100
AcDbSymbolTable
 70
     3
  0
VPORT
  5
39EA
330
8
100
AcDbSymbolTableRecord
100
AcDbViewportTableRecord
  2
*Active
 70
     0
 10
0.0
 20
0.0
 11
1.0
 21
1.0
 12
1486.64185374977
 22
339.1644318718049
 13
0.0
 23
0.0
 14
5.0
 24
5.0
 15
10.0
 25
10.0
 16
0.0
 26
0.0
 36
1.0
 17
0.0
 27
0.0
 37
0.0
 40
513.4373762055847
 41
1.493654822335025
 42
50.0
 43
0.0
 44
0.0
 50
0.0
 51
0.0
 71
     0
 72
   100
 73
     1
 74
     0
 75
     0
 76
     0
 77
     0
 78
     0
281
     0
 65
     1
110
0.0
120
0.0
130
0.0
111
1.0
121
0.0
131
0.0
112
0.0
122
1.0
132
0.0
 79
     0
146
0.0
  0
ENDTAB
  0
TABLE
  2
LTYPE
  5
5
330
0
100
AcDbSymbolTable
 70
     4
  0
LTYPE
  5
12
330
5
100
AcDbSymbolTableRecord
100
AcDbLinetypeTableRecord
  2
BYBLOCK
 70
     0
  3

 72
    65
 73
     0
 40
0.0
  0
LTYPE
  5
13
330
5
100
AcDbSymbolTableRecord
100
AcDbLinetypeTableRecord
  2
BYLAYER
 70
     0
  3

 72
    65
 73
     0
 40
0.0
  0
LTYPE
  5
14
330
5
100
AcDbSymbolTableRecord
100
AcDbLinetypeTableRecord
  2
CONTINUOUS
 70
     0
  3
Solid line
 72
    65
 73
     0
 40
0.0
  0
ENDTAB
  0
TABLE
  2
LAYER
  5
2
330
0
100
AcDbSymbolTable
 70
    16
  0
LAYER
  5
E
330
2
100
AcDbSymbolTableRecord
100
AcDbLayerTableRecord
  2
0
 70
     0
 62
     7
  6
CONTINUOUS
370
    -3
390
18FD
  0
LAYER
  5
29
330
2
100
AcDbSymbolTableRecord
100
AcDbLayerTableRecord
  2
DRAW2
 70
     0
 62
     4
  6
CONTINUOUS
370
    -3
390
18FD
  0
LAYER
  5
2A
330
2
100
AcDbSymbolTableRecord
100
AcDbLayerTableRecord
  2
DRAW3
 70
     0
 62
     1
  6
CONTINUOUS
370
    -3
390
18FD
  0
LAYER
  5
133
330
2
100
AcDbSymbolTableRecord
100
AcDbLayerTableRecord
  2
DEFPOINTS
 70
     0
 62
     7
  6
CONTINUOUS
290
     0
370
    -3
390
18FD
  0
ENDTAB
  0
TABLE
  2
STYLE
  5
3
330
0
100
AcDbSymbolTable
 70
     4
  0
STYLE
  5
F
330
3
100
AcDbSymbolTableRecord
100
AcDbTextStyleTableRecord
  2
STANDARD
 70
     0
 40
0.0
 41
1.0
 50
0.0
 71
     0
 42
2.5
  3
txt
  4

  0
STYLE
  5
30
330
3
100
AcDbSymbolTableRecord
100
AcDbTextStyleTableRecord
  2
DIMFONT
 70
     0
 40
0.0
 41
1.0
 50
10.0
 71
     0
 42
4.799999999999999
  3
romans.shx
  4
extfont.shx
  0
ENDTAB
  0
TABLE
  2
VIEW
  5
6
330
0
100
AcDbSymbolTable
 70
     4
  0
VIEW
  5
39
330
6
100
AcDbSymbolTableRecord
100
AcDbViewTableRecord
  2
A1
 70
     1
 40
660.0
 10
420.5
 20
297.0
 41
1136.871508379887
 11
0.0
 21
0.0
 31
1.0
 12
0.0
 22
0.0
 32
0.0
 42
50.0
 43
0.0
 44
0.0
 50
0.0
 71
     0
281
     0
 72
     0
  0
VIEW
  5
3A
330
6
100
AcDbSymbolTableRecord
100
AcDbViewTableRecord
  2
A2
 70
     1
 40
466.6666666666666
 10
297.0
 20
210.0
 41
803.8485412787087
 11
0.0
 21
0.0
 31
1.0
 12
0.0
 22
0.0
 32
0.0
 42
50.0
 43
0.0
 44
0.0
 50
0.0
 71
     0
281
     0
 72
     0
  0
VIEW
  5
3B
330
6
100
AcDbSymbolTableRecord
100
AcDbViewTableRecord
  2
A3
 70
     1
 40
330.0
 10
210.0
 20
148.5
 41
568.4357541899442
 11
0.0
 21
0.0
 31
1.0
 12
0.0
 22
0.0
 32
0.0
 42
50.0
 43
0.0
 44
0.0
 50
0.0
 71
     0
281
     0
 72
     0
  0
VIEW
  5
3C
330
6
100
AcDbSymbolTableRecord
100
AcDbViewTableRecord
  2
A4
 70
     1
 40
330.0
 10
105.0
 20
148.5
 41
568.4357541899442
 11
0.0
 21
0.0
 31
1.0
 12
0.0
 22
0.0
 32
0.0
 42
50.0
 43
0.0
 44
0.0
 50
0.0
 71
     0
281
     0
 72
     0
  0
ENDTAB
  0
TABLE
  2
UCS
  5
7
330
0
100
AcDbSymbolTable
 70
     0
  0
ENDTAB
  0
TABLE
  2
APPID
  5
9
330
0
100
AcDbSymbolTable
 70
     1
  0
APPID
  5
10
330
9
100
AcDbSymbolTableRecord
100
AcDbRegAppTableRecord
  2
ACAD
 70
     0
  0
ENDTAB
  0
TABLE
  2
DIMSTYLE
  5
A
330
0
100
AcDbSymbolTable
 70
    11
100
AcDbDimStyleTable
 71
     1
340
4B
  0
DIMSTYLE
105
1D
330
A
100
AcDbSymbolTableRecord
100
AcDbDimStyleTableRecord
  2
STANDARD
 70
     0
340
F
  0
DIMSTYLE
105
4B
102
{ACAD_REACTORS
330
14CE
330
1503
330
1504
330
15DF
330
166B
330
161F
330
161B
330
1610
330
1406
330
1405
330
39B1
330
3985
330
1404
330
399B
330
1409
330
1611
330
1615
330
1614
330
1613
330
161D
102
}
330
A
100
AcDbSymbolTableRecord
100
AcDbDimStyleTableRecord
  2
1_2
 70
     0
 40
2.0
 41
3.0
 42
0.0
 43
10.0
 44
1.0
 73
     0
 74
     0
 77
     3
 78
     8
140
3.2
141
0.0
146
0.75
147
1.0
172
     1
173
     1
271
     3
272
     3
284
     8
340
30
341
125
343
125
344
125
  0
ENDTAB
  0
TABLE
  2
BLOCK_RECORD
  5
1
330
0
100
AcDbSymbolTable
 70
    23
  0
BLOCK_RECORD
  5
18
102
{ACAD_XDICTIONARY
360
18BE
102
}
330
1
100
AcDbSymbolTableRecord
100
AcDbBlockTableRecord
  2
*MODEL_SPACE
340
18FE
  0
BLOCK_RECORD
  5
15
102
{ACAD_XDICTIONARY
360
18BC
102
}
330
1
100
AcDbSymbolTableRecord
100
AcDbBlockTableRecord
  2
*PAPER_SPACE
340
18FF
  0
BLOCK_RECORD
  5
125
330
1
100
AcDbSymbolTableRecord
100
AcDbBlockTableRecord
  2
_OPEN
340
0
102
{BLKREFS
331
335D
331
335E
331
390A
331
390B
331
391C
331
391D
331
3925
331
3926
331
392E
331
392F
331
3937
331
3938
331
3940
331
3941
331
3949
331
394A
331
3952
331
3953
331
395B
331
395C
331
3964
331
3965
331
396D
331
396E
331
3976
331
3977
331
397F
331
3980
331
3995
331
3996
331
39AB
331
39AC
331
39D3
331
39D4
331
39DC
331
39DD
102
}
  0
ENDTAB
  0
ENDSEC
  0
SECTION
  2
BLOCKS
  0
BLOCK
  5
19
330
18
100
AcDbEntity
  8
0
100
AcDbBlockBegin
  2
*MODEL_SPACE
 70
     0
 10
0.0
 20
0.0
 30
0.0
  3
*MODEL_SPACE
  1

  0
ENDBLK
  5
1A
330
18
100
AcDbEntity
  8
0
100
AcDbBlockEnd
  0
BLOCK
  5
16
330
15
100
AcDbEntity
 67
     1
  8
0
100
AcDbBlockBegin
  2
*PAPER_SPACE
 70
     0
 10
0.0
 20
0.0
 30
0.0
  3
*PAPER_SPACE
  1

  0
ENDBLK
  5
17
330
15
100
AcDbEntity
 67
     1
  8
0
100
AcDbBlockEnd
  0
BLOCK
  5
126
330
125
100
AcDbEntity
  8
0
100
AcDbBlockBegin
  2
_OPEN
 70
     0
 10
0.0
 20
0.0
 30
0.0
  3
_OPEN
  1

  0
LINE
  5
127
330
125
100
AcDbEntity
  8
0
  6
ByBlock
 62
     0
100
AcDbLine
 10
-1.0
 20
0.1666666666666666
 30
0.0
 11
0.0
 21
0.0
 31
0.0
  0
LINE
  5
128
330
125
100
AcDbEntity
  8
0
  6
ByBlock
 62
     0
100
AcDbLine
 10
0.0
 20
0.0
 30
0.0
 11
-1.0
 21
-0.1666666666666666
 31
0.0
  0
LINE
  5
129
330
125
100
AcDbEntity
  8
0
  6
ByBlock
 62
     0
100
AcDbLine
 10
0.0
 20
0.0
 30
0.0
 11
-1.0
 21
0.0
 31
0.0
  0
ENDBLK
  5
12A
330
125
100
AcDbEntity
  8
0
100
AcDbBlockEnd
  0
ENDSEC
  0
SECTION
  2
ENTITIES
  0
ARC
  5
33C8
330
18
100
AcDbEntity
  8
DRAW2
100
AcDbCircle
 10
1718.305484648065
 20
271.1146200146182
 30
0.0
 40
8.999998099999997
100
AcDbArc
 50
135.0450000000033
 51
340.9885900000023
  0
CIRCLE
  5
33C9
330
18
100
AcDbEntity
  8
DRAW2
100
AcDbCircle
 10
1718.305544648065
 20
271.1145600146181
 30
0.0
 40
8.5
  0
CIRCLE
  5
33CA
330
18
100
AcDbEntity
  8
DRAW2
100
AcDbCircle
 10
1718.305544648065
 20
271.1145600146181
 30
0.0
 40
7.8000002
  0
CIRCLE
  5
33CB
330
18
100
AcDbEntity
  8
DRAW2
100
AcDbCircle
 10
1718.305484648065
 20
163.727450014618
 30
0.0
 40
8.5
  0
ARC
  5
33CC
330
18
100
AcDbEntity
  8
DRAW2
100
AcDbCircle
 10
1718.305484648065
 20
163.727450014618
 30
0.0
 40
8.999998099999997
100
AcDbArc
 50
19.01142200000119
 51
224.9549999999966
  0
CIRCLE
  5
33CD
330
18
100
AcDbEntity
  8
DRAW2
100
AcDbCircle
 10
1718.305484648065
 20
163.727450014618
 30
0.0
 40
7.8000002
  0
ARC
  5
33CE
330
18
100
AcDbEntity
  8
DRAW2
100
AcDbCircle
 10
1687.305484648065
 20
217.4210500146181
 30
0.0
 40
49.57999799999999
100
AcDbArc
 50
293.1602300000032
 51
66.83977400000171
  0
ARC
  5
33D1
330
18
100
AcDbEntity
  8
DRAW2
100
AcDbCircle
 10
1687.305484648065
 20
217.4210500146181
 30
0.0
 40
71.0
100
AcDbArc
 50
285.9410200000013
 51
74.05897600000203
  0
LINE
  5
33D2
330
18
100
AcDbEntity
  8
DRAW2
100
AcDbLine
 10
1619.805484648065
 20
94.42101001461821
 30
0.0
 11
1754.805484648065
 21
94.42101001461821
 31
0.0
  0
LINE
  5
33D3
330
18
100
AcDbEntity
  8
DRAW2
100
AcDbLine
 10
1692.596984648065
 20
109.4210100146181
 30
0.0
 11
1759.805484648065
 21
109.4210100146181
 31
0.0
  0
LINE
  5
33D9
330
18
100
AcDbEntity
  8
DRAW2
100
AcDbLine
 10
1248.254475545679
 20
213.4210300146181
 30
0.0
 11
1248.254475545679
 21
167.727460014618
 31
0.0
  0
LINE
  5
33DA
330
18
100
AcDbEntity
  8
DRAW2
100
AcDbLine
 10
1323.254475545679
 20
167.727460014618
 30
0.0
 11
1323.254475545679
 21
213.4210300146181
 31
0.0
  0
ARC
  5
33DB
330
18
100
AcDbEntity
  8
DRAW2
100
AcDbCircle
 10
1346.754475545679
 20
176.4211110002756
 30
0.0
 40
19.50000199999998
100
AcDbArc
 50
359.9999799999979
 51
45.97949800000421
  0
LINE
  5
33DC
330
18
100
AcDbEntity
  8
DRAW2
100
AcDbLine
 10
1330.754475545679
 20
144.4210910002756
 30
0.0
 11
1330.754475545679
 21
290.4211510002754
 31
0.0
  0
LINE
  5
33DD
330
18
100
AcDbEntity
  8
DRAW2
100
AcDbLine
 10
1324.254475545679
 20
146.4210910002755
 30
0.0
 11
1324.254475545679
 21
288.4210910002757
 31
0.0
  0
LINE
  5
33DE
330
18
100
AcDbEntity
  8
DRAW2
100
AcDbLine
 10
1299.554465545679
 20
279.4210301628596
 30
0.0
 11
1299.554465545679
 21
155.4209901628594
 31
0.0
  0
LINE
  5
33DF
330
18
100
AcDbEntity
  8
DRAW2
100
AcDbLine
 10
1301.554465545679
 20
279.4210301628596
 30
0.0
 11
1301.554465545679
 21
155.4209901628594
 31
0.0
  0
LINE
  5
33E0
330
18
100
AcDbEntity
  8
DRAW2
100
AcDbLine
 10
1322.254475545679
 20
279.421030014618
 30
0.0
 11
1322.254475545679
 21
155.4209900146178
 31
0.0
  0
ARC
  5
33E1
330
18
100
AcDbEntity
  8
DRAW2
100
AcDbCircle
 10
1304.804465545679
 20
217.4210910002757
 30
0.0
 40
52.450005
100
AcDbArc
 50
300.4975600000014
 51
59.502257999995
  0
ARC
  5
33E2
330
18
100
AcDbEntity
  8
DRAW2
100
AcDbCircle
 10
1224.754415545679
 20
176.421110014618
 30
0.0
 40
19.50000199999998
100
AcDbArc
 50
134.0205000000022
 51
179.9999599999992
  0
LINE
  5
33E3
330
18
100
AcDbEntity
  8
DRAW2
100
AcDbLine
 10
1240.754475545679
 20
290.4210600146182
 30
0.0
 11
1240.754475545679
 21
144.4210300146178
 31
0.0
  0
LINE
  5
33E4
330
18
100
AcDbEntity
  8
DRAW2
100
AcDbLine
 10
1247.254475545679
 20
288.4210900146181
 30
0.0
 11
1247.254475545679
 21
146.4210900146179
 31
0.0
  0
LINE
  5
33E5
330
18
100
AcDbEntity
  8
DRAW2
100
AcDbLine
 10
1249.254535545679
 20
277.436581831815
 30
0.0
 11
1249.254535545679
 21
157.4056281974058
 31
0.0
  0
ARC
  5
33E6
330
18
100
AcDbEntity
  8
DRAW2
100
AcDbCircle
 10
1266.704485545679
 20
217.4210900146181
 30
0.0
 40
52.450005
100
AcDbArc
 50
119.6537499999986
 51
240.3462399999978
  0
LINE
  5
33E7
330
18
100
AcDbEntity
  8
DRAW2
100
AcDbLine
 10
1332.754475545679
 20
156.4275432002755
 30
0.0
 11
1330.754475545679
 21
156.4275432002755
 31
0.0
  0
LINE
  5
33E8
330
18
100
AcDbEntity
  8
DRAW2
100
AcDbLine
 10
1332.754505845679
 20
164.5935257502754
 30
0.0
 11
1330.754491445679
 21
163.4388168002755
 31
0.0
  0
LINE
  5
33E9
330
18
100
AcDbEntity
  8
DRAW2
100
AcDbLine
 10
1332.754447445679
 20
164.0161734102754
 30
0.0
 11
1330.754459445679
 21
162.8614796802754
 31
0.0
  0
LINE
  5
33EA
330
18
100
AcDbEntity
  8
DRAW2
100
AcDbLine
 10
1332.754475545679
 20
171.0275188002755
 30
0.0
 11
1330.754475545679
 21
171.0275188002755
 31
0.0
  0
LINE
  5
33EC
330
18
100
AcDbEntity
  8
DRAW2
100
AcDbLine
 10
1366.254475545679
 20
136.4210110002757
 30
0.0
 11
1326.754415545679
 21
136.4210700146184
 31
0.0
  0
LINE
  5
33ED
330
18
100
AcDbEntity
  8
DRAW2
100
AcDbLine
 10
1366.254475545679
 20
144.4210910002756
 30
0.0
 11
1330.754475545679
 21
144.4210910002756
 31
0.0
  0
LINE
  5
33EE
330
18
100
AcDbEntity
  8
DRAW2
100
AcDbLine
 10
1334.231405545679
 20
89.10015001461824
 30
0.0
 11
1331.25423554568
 21
107.4209700146182
 31
0.0
  0
LINE
  5
33EF
330
18
100
AcDbEntity
  8
DRAW2
100
AcDbLine
 10
1367.754355545679
 20
109.4210000146182
 30
0.0
 11
1325.754355545679
 21
109.4210000146182
 31
0.0
  0
LINE
  5
33F0
330
18
100
AcDbEntity
  8
DRAW2
100
AcDbLine
 10
1367.754355545679
 20
107.4209800146181
 30
0.0
 11
1325.754355545679
 21
107.4209800146181
 31
0.0
  0
LINE
  5
33F2
330
18
100
AcDbEntity
  8
DRAW2
100
AcDbLine
 10
1237.77717554568
 20
89.10018001461816
 30
0.0
 11
1240.754295545679
 21
107.420980014618
 31
0.0
  0
LINE
  5
33F3
330
18
100
AcDbEntity
  8
DRAW2
100
AcDbLine
 10
1209.754295545679
 20
107.4210000146181
 30
0.0
 11
1212.731405545679
 21
89.10014001461821
 31
0.0
  0
LINE
  5
33F5
330
18
100
AcDbEntity
  8
DRAW2
100
AcDbLine
 10
1214.705645545679
 20
87.42101001461817
 30
0.0
 11
1235.803185545679
 21
87.42101001461817
 31
0.0
  0
ARC
  5
33F6
330
18
100
AcDbEntity
  8
DRAW2
100
AcDbCircle
 10
1214.705645545679
 20
89.42100001461819
 30
0.0
 40
2.0
100
AcDbArc
 50
189.2298200000021
 51
270.0000199999954
  0
ARC
  5
33F7
330
18
100
AcDbEntity
  8
DRAW2
100
AcDbCircle
 10
1235.803185545679
 20
89.42100001461819
 30
0.0
 40
2.0
100
AcDbArc
 50
270.0000199999954
 51
350.7700199999997
  0
LINE
  5
33F8
330
18
100
AcDbEntity
  8
DRAW2
100
AcDbLine
 10
1246.254476016918
 20
111.4210500146181
 30
0.0
 11
1325.259892762267
 21
111.4210500146178
 31
0.0
  0
LINE
  5
33F9
330
18
100
AcDbEntity
  8
DRAW2
100
AcDbLine
 10
1246.254475545679
 20
134.4210600146181
 30
0.0
 11
1325.254415545679
 21
134.4210700146184
 31
0.0
  0
LINE
  5
33FA
330
18
100
AcDbEntity
  8
DRAW2
100
AcDbLine
 10
1251.254475545679
 20
155.4211200146179
 30
0.0
 11
1299.554465545679
 21
155.4209901628594
 31
0.0
  0
LINE
  5
33FB
330
18
100
AcDbEntity
  8
DRAW2
100
AcDbLine
 10
1244.254535545679
 20
146.4210900146179
 30
0.0
 11
1244.254535545679
 21
136.4211100146179
 31
0.0
  0
LINE
  5
33FC
330
18
100
AcDbEntity
  8
DRAW2
100
AcDbLine
 10
1205.254475545679
 20
176.421110014618
 30
0.0
 11
1205.254475545679
 21
136.4211100146179
 31
0.0
  0
LINE
  5
33FD
330
18
100
AcDbEntity
  8
DRAW2
100
AcDbLine
 10
1205.254475545679
 20
136.4211100146179
 30
0.0
 11
1244.754475545679
 21
136.421050014618
 31
0.0
  0
LINE
  5
33FE
330
18
100
AcDbEntity
  8
DRAW2
100
AcDbLine
 10
1204.254475545679
 20
109.4210000146181
 30
0.0
 11
1246.25441554568
 21
109.4210000146181
 31
0.0
  0
LINE
  5
33FF
330
18
100
AcDbEntity
  8
DRAW2
100
AcDbLine
 10
1204.254475545679
 20
107.420980014618
 30
0.0
 11
1246.25441554568
 21
107.420980014618
 31
0.0
  0
LINE
  5
3400
330
18
100
AcDbEntity
  8
DRAW2
100
AcDbLine
 10
1220.254475545679
 20
117.5210100146179
 30
0.0
 11
1220.254475545679
 21
112.5210100146179
 31
0.0
  0
LINE
  5
3401
330
18
100
AcDbEntity
  8
DRAW2
100
AcDbLine
 10
1225.254475545679
 20
117.0744300146182
 30
0.0
 11
1225.254475545679
 21
112.5210100146179
 31
0.0
  0
LINE
  5
3402
330
18
100
AcDbEntity
  8
DRAW2
100
AcDbLine
 10
1230.254475545679
 20
117.5210100146179
 30
0.0
 11
1230.254475545679
 21
112.5210100146179
 31
0.0
  0
LINE
  5
3403
330
18
100
AcDbEntity
  8
DRAW2
100
AcDbLine
 10
1205.754415545679
 20
110.921000014618
 30
0.0
 11
1205.754415545679
 21
136.421050014618
 31
0.0
  0
LINE
  5
3404
330
18
100
AcDbEntity
  8
DRAW2
100
AcDbLine
 10
1202.25441554568
 20
99.42101001461816
 30
0.0
 11
1204.254475545679
 21
99.42101001461816
 31
0.0
  0
ARC
  5
3405
330
18
100
AcDbEntity
  8
DRAW2
100
AcDbCircle
 10
1204.254475545679
 20
107.420980014618
 30
0.0
 40
2.0
100
AcDbArc
 50
89.99998200000083
 51
179.9999599999992
  0
ARC
  5
3406
330
18
100
AcDbEntity
  8
DRAW2
100
AcDbCircle
 10
1207.254535545679
 20
110.921000014618
 30
0.0
 40
1.5
100
AcDbArc
 50
180.0000400000006
 51
270.0000199999954
  0
LINE
  5
3407
330
18
100
AcDbEntity
  8
DRAW2
100
AcDbLine
 10
1202.254475545679
 20
94.42101001461816
 30
0.0
 11
1204.254475545679
 21
94.42101001461816
 31
0.0
  0
LINE
  5
3408
330
18
100
AcDbEntity
  8
DRAW2
100
AcDbLine
 10
1202.254475545679
 20
107.420980014618
 30
0.0
 11
1202.254475545679
 21
94.42101001461816
 31
0.0
  0
LINE
  5
3409
330
18
100
AcDbEntity
  8
DRAW2
100
AcDbLine
 10
1204.254475545679
 20
107.420980014618
 30
0.0
 11
1204.254475545679
 21
94.42101001461816
 31
0.0
  0
LINE
  5
340A
330
18
100
AcDbEntity
  8
DRAW2
100
AcDbLine
 10
1225.110145545679
 20
112.5210300146178
 30
0.0
 11
1225.976175545679
 21
111.0210200146179
 31
0.0
  0
LINE
  5
340B
330
18
100
AcDbEntity
  8
DRAW2
100
AcDbLine
 10
1224.532795545679
 20
112.5210200146181
 30
0.0
 11
1225.39882554568
 21
111.0210100146179
 31
0.0
  0
LINE
  5
340C
330
18
100
AcDbEntity
  8
DRAW2
100
AcDbLine
 10
1231.004475545679
 20
112.5210100146179
 30
0.0
 11
1231.004475545679
 21
109.4210000146181
 31
0.0
  0
LINE
  5
340D
330
18
100
AcDbEntity
  8
DRAW2
100
AcDbLine
 10
1219.504475545679
 20
112.5210100146179
 30
0.0
 11
1219.504475545679
 21
109.4210000146181
 31
0.0
  0
LINE
  5
340E
330
18
100
AcDbEntity
  8
DRAW2
100
AcDbLine
 10
1219.504475545679
 20
112.5210100146179
 30
0.0
 11
1231.004475545679
 21
112.5210100146179
 31
0.0
  0
LINE
  5
340F
330
18
100
AcDbEntity
  8
DRAW2
100
AcDbLine
 10
1219.504475545679
 20
111.0210100146179
 30
0.0
 11
1231.004475545679
 21
111.0210100146179
 31
0.0
  0
LINE
  5
3410
330
18
100
AcDbEntity
  8
DRAW2
100
AcDbLine
 10
1220.504475545679
 20
109.4210000146181
 30
0.0
 11
1232.004475545679
 21
109.4210000146181
 31
0.0
  0
LINE
  5
3411
330
18
100
AcDbEntity
  8
DRAW2
100
AcDbLine
 10
1222.754535545679
 20
119.4210100146181
 30
0.0
 11
1227.754415545679
 21
119.4210100146181
 31
0.0
  0
LINE
  5
3412
330
18
100
AcDbEntity
  8
DRAW2
100
AcDbLine
 10
1222.254475545679
 20
118.921010014618
 30
0.0
 11
1228.254475545679
 21
118.921010014618
 31
0.0
  0
ARC
  5
3413
330
18
100
AcDbEntity
  8
DRAW2
100
AcDbCircle
 10
1227.754475545679
 20
110.3000700146182
 30
0.0
 40
7.220932
100
AcDbArc
 50
69.74397700000162
 51
110.2560400000013
  0
LINE
  5
3414
330
18
100
AcDbEntity
  8
DRAW2
100
AcDbLine
 10
1222.254475545679
 20
118.921010014618
 30
0.0
 11
1222.254475545679
 21
117.5210100146179
 31
0.0
  0
LINE
  5
3415
330
18
100
AcDbEntity
  8
DRAW3
100
AcDbLine
 10
1222.754535545679
 20
119.4210100146181
 30
0.0
 11
1222.754535545679
 21
117.5210100146179
 31
0.0
  0
LINE
  5
3416
330
18
100
AcDbEntity
  8
DRAW2
100
AcDbLine
 10
1222.754655545679
 20
119.4209200146181
 30
0.0
 11
1222.254655545679
 21
118.9208900146181
 31
0.0
  0
LINE
  5
3417
330
18
100
AcDbEntity
  8
DRAW2
100
AcDbLine
 10
1228.254475545679
 20
118.921010014618
 30
0.0
 11
1228.254475545679
 21
117.5210100146179
 31
0.0
  0
LINE
  5
3418
330
18
100
AcDbEntity
  8
DRAW3
100
AcDbLine
 10
1227.754415545679
 20
119.4210100146181
 30
0.0
 11
1227.754415545679
 21
117.5210100146179
 31
0.0
  0
LINE
  5
3419
330
18
100
AcDbEntity
  8
DRAW2
100
AcDbLine
 10
1227.754475545679
 20
119.4210000146179
 30
0.0
 11
1228.254535545679
 21
118.9209700146182
 31
0.0
  0
LINE
  5
341A
330
18
100
AcDbEntity
  8
DRAW2
100
AcDbLine
 10
1220.254475545679
 20
117.5210100146179
 30
0.0
 11
1230.254475545679
 21
117.5210100146179
 31
0.0
  0
ARC
  5
341B
330
18
100
AcDbEntity
  8
DRAW2
100
AcDbCircle
 10
1222.754475545679
 20
110.3000700146182
 30
0.0
 40
7.220932
100
AcDbArc
 50
69.74397700000162
 51
110.2560400000013
  0
ARC
  5
341C
330
18
100
AcDbEntity
  8
DRAW2
100
AcDbCircle
 10
1259.065755545679
 20
122.9210300146182
 30
0.0
 40
18.35924
100
AcDbArc
 50
141.2158799999984
 51
218.7840999999965
  0
LINE
  5
341D
330
18
100
AcDbEntity
  8
DRAW2
100
AcDbLine
 10
1246.254475545679
 20
99.42101001461816
 30
0.0
 11
1248.254415545679
 21
99.42101001461816
 31
0.0
  0
ARC
  5
341E
330
18
100
AcDbEntity
  8
DRAW2
100
AcDbCircle
 10
1246.25441554568
 20
107.420980014618
 30
0.0
 40
2.0
100
AcDbArc
 50
0.0
 51
89.99998200000083
  0
ARC
  5
341F
330
18
100
AcDbEntity
  8
DRAW2
100
AcDbCircle
 10
1244.254415545679
 20
109.9210500146182
 30
0.0
 40
0.5
100
AcDbArc
 50
270.0000199999954
 51
0.0
  0
ARC
  5
3420
330
18
100
AcDbEntity
  8
DRAW2
100
AcDbCircle
 10
1246.254475545679
 20
109.9210500146182
 30
0.0
 40
1.5
100
AcDbArc
 50
89.99998200000083
 51
180.0000199999987
  0
LINE
  5
3421
330
18
100
AcDbEntity
  8
DRAW2
100
AcDbLine
 10
1246.25441554568
 20
94.42101001461816
 30
0.0
 11
1248.254415545679
 21
94.42101001461816
 31
0.0
  0
LINE
  5
3422
330
18
100
AcDbEntity
  8
DRAW2
100
AcDbLine
 10
1246.25441554568
 20
107.420980014618
 30
0.0
 11
1246.25441554568
 21
94.42101001461816
 31
0.0
  0
LINE
  5
3423
330
18
100
AcDbEntity
  8
DRAW2
100
AcDbLine
 10
1248.254475545679
 20
107.420980014618
 30
0.0
 11
1248.254475545679
 21
94.42101001461816
 31
0.0
  0
LINE
  5
3424
330
18
100
AcDbEntity
  8
DRAW2
100
AcDbLine
 10
1244.754475545679
 20
135.9210600146182
 30
0.0
 11
1244.754475545679
 21
136.421050014618
 31
0.0
  0
ARC
  5
3425
330
18
100
AcDbEntity
  8
DRAW2
100
AcDbCircle
 10
1246.254475545679
 20
135.9210600146182
 30
0.0
 40
1.5
100
AcDbArc
 50
180.0
 51
270.0
  0
LINE
  5
3427
330
18
100
AcDbEntity
  8
DRAW2
100
AcDbLine
 10
1205.254475545679
 20
144.4210300146178
 30
0.0
 11
1240.754475545679
 21
144.4210300146178
 31
0.0
  0
LINE
  5
3428
330
18
100
AcDbEntity
  8
DRAW2
100
AcDbLine
 10
1239.154375545679
 20
171.4775500146178
 30
0.0
 11
1239.154375545679
 21
155.9775200146178
 31
0.0
  0
LINE
  5
3429
330
18
100
AcDbEntity
  8
DRAW2
100
AcDbLine
 10
1233.654375545679
 20
170.227580014618
 30
0.0
 11
1233.654375545679
 21
157.227560014618
 31
0.0
  0
ARC
  5
342A
330
18
100
AcDbEntity
  8
DRAW2
100
AcDbCircle
 10
1246.074235545679
 20
163.7275500146179
 30
0.0
 40
12.419868
100
AcDbArc
 50
162.4126400000013
 51
197.587350000001
  0
ARC
  5
342B
330
18
100
AcDbEntity
  8
DRAW2
100
AcDbCircle
 10
1251.254475545679
 20
157.4211200146179
 30
0.0
 40
2.0
100
AcDbArc
 50
180.0
 51
270.0
  0
LINE
  5
342C
330
18
100
AcDbEntity
  8
DRAW3
100
AcDbLine
 10
1249.254535545679
 20
160.3525350146179
 30
0.0
 11
1247.254475545679
 21
160.3525350146179
 31
0.0
  0
LINE
  5
342D
330
18
100
AcDbEntity
  8
DRAW2
100
AcDbLine
 10
1249.254535545679
 20
159.7274700146178
 30
0.0
 11
1247.254475545679
 21
159.7274700146178
 31
0.0
  0
LINE
  5
342E
330
18
100
AcDbEntity
  8
DRAW2
100
AcDbLine
 10
1234.235005545679
 20
159.9747400146178
 30
0.0
 11
1239.154375545679
 21
159.9747400146178
 31
0.0
  0
LINE
  5
342F
330
18
100
AcDbEntity
  8
DRAW2
100
AcDbLine
 10
1234.235005545679
 20
156.2219600146179
 30
0.0
 11
1239.154375545679
 21
156.2219600146179
 31
0.0
  0
LINE
  5
3430
330
18
100
AcDbEntity
  8
DRAW2
100
AcDbLine
 10
1233.654625545679
 20
157.227760014618
 30
0.0
 11
1234.235185545679
 21
156.2221900146179
 31
0.0
  0
ARC
  5
3431
330
18
100
AcDbEntity
  8
DRAW2
100
AcDbCircle
 10
1236.977005545679
 20
158.098370014618
 30
0.0
 40
3.3225961
100
AcDbArc
 50
145.6160800000018
 51
205.6167799999981
  0
LINE
  5
3432
330
18
100
AcDbEntity
  8
DRAW2
100
AcDbLine
 10
1239.154375545679
 20
155.9775500146179
 30
0.0
 11
1240.754415545679
 21
155.9775500146179
 31
0.0
  0
LINE
  5
3433
330
18
100
AcDbEntity
  8
DRAW2
100
AcDbLine
 10
1244.254475545679
 20
146.4210900146179
 30
0.0
 11
1247.254475545679
 21
146.4210900146179
 31
0.0
  0
LINE
  5
3434
330
18
100
AcDbEntity
  8
DRAW2
100
AcDbLine
 10
1241.754475545679
 20
146.4210300146178
 30
0.0
 11
1243.254535545679
 21
146.4210300146178
 31
0.0
  0
LINE
  5
3435
330
18
100
AcDbEntity
  8
DRAW2
100
AcDbLine
 10
1241.754475545679
 20
144.4210300146178
 30
0.0
 11
1243.254535545679
 21
144.4210300146178
 31
0.0
  0
LINE
  5
3436
330
18
100
AcDbEntity
  8
DRAW2
100
AcDbLine
 10
1251.254475545679
 20
155.4211200146179
 30
0.0
 11
1263.981715545679
 21
155.4210800146179
 31
0.0
  0
LINE
  5
3437
330
18
100
AcDbEntity
  8
DRAW3
100
AcDbLine
 10
1249.254535545679
 20
167.1025350146178
 30
0.0
 11
1247.254475545679
 21
167.1025350146178
 31
0.0
  0
LINE
  5
3438
330
18
100
AcDbEntity
  8
DRAW2
100
AcDbLine
 10
1249.254535545679
 20
167.727460014618
 30
0.0
 11
1247.254475545679
 21
167.727460014618
 31
0.0
  0
LINE
  5
3439
330
18
100
AcDbEntity
  8
DRAW2
100
AcDbLine
 10
1234.233535545679
 20
171.2337700146179
 30
0.0
 11
1233.653035545679
 21
170.2282500146182
 31
0.0
  0
ARC
  5
343A
330
18
100
AcDbEntity
  8
DRAW2
100
AcDbCircle
 10
1236.977005545679
 20
169.3567100146179
 30
0.0
 40
3.322667599999998
100
AcDbArc
 50
154.385529999998
 51
214.3831399999998
  0
LINE
  5
343B
330
18
100
AcDbEntity
  8
DRAW2
100
AcDbLine
 10
1234.235005545679
 20
167.4803300146179
 30
0.0
 11
1239.154375545679
 21
167.4803300146179
 31
0.0
  0
LINE
  5
343C
330
18
100
AcDbEntity
  8
DRAW2
100
AcDbLine
 10
1234.235005545679
 20
171.233120014618
 30
0.0
 11
1239.154375545679
 21
171.233120014618
 31
0.0
  0
LINE
  5
343D
330
18
100
AcDbEntity
  8
DRAW2
100
AcDbLine
 10
1239.154375545679
 20
171.4775500146178
 30
0.0
 11
1240.754415545679
 21
171.4775500146178
 31
0.0
  0
LINE
  5
343E
330
18
100
AcDbEntity
  8
DRAW2
100
AcDbLine
 10
1327.254415545679
 20
136.4210110002757
 30
0.0
 11
1327.254415545679
 21
146.4210910002755
 31
0.0
  0
ARC
  5
343F
330
18
100
AcDbEntity
  8
DRAW2
100
AcDbCircle
 10
1312.443135545679
 20
122.9210400146184
 30
0.0
 40
18.35924
100
AcDbArc
 50
321.2159000000032
 51
38.78411899999824
  0
ARC
  5
3440
330
18
100
AcDbEntity
  8
DRAW2
100
AcDbCircle
 10
1325.754355545679
 20
107.4209800146181
 30
0.0
 40
2.0
100
AcDbArc
 50
90.00003699999981
 51
180.0000199999987
  0
ARC
  5
3441
330
18
100
AcDbEntity
  8
DRAW2
100
AcDbCircle
 10
1327.254415545679
 20
109.9210600146184
 30
0.0
 40
0.5
100
AcDbArc
 50
180.0000400000006
 51
270.0000199999954
  0
ARC
  5
3442
330
18
100
AcDbEntity
  8
DRAW2
100
AcDbCircle
 10
1325.254415545679
 20
109.9210600146184
 30
0.0
 40
1.5
100
AcDbArc
 50
0.0
 51
89.99998200000083
  0
LINE
  5
3443
330
18
100
AcDbEntity
  8
DRAW2
100
AcDbLine
 10
1325.754355545679
 20
94.42101001461821
 30
0.0
 11
1323.754415545679
 21
94.42101001461821
 31
0.0
  0
LINE
  5
3444
330
18
100
AcDbEntity
  8
DRAW2
100
AcDbLine
 10
1325.754355545679
 20
107.4209800146181
 30
0.0
 11
1325.754355545679
 21
94.42101001461821
 31
0.0
  0
LINE
  5
3445
330
18
100
AcDbEntity
  8
DRAW2
100
AcDbLine
 10
1323.754415545679
 20
107.4209800146181
 30
0.0
 11
1323.754415545679
 21
94.42101001461821
 31
0.0
  0
LINE
  5
3446
330
18
100
AcDbEntity
  8
DRAW2
100
AcDbLine
 10
1327.004475545679
 20
136.4210600146182
 30
0.0
 11
1327.254535545679
 21
136.4210600146182
 31
0.0
  0
LINE
  5
3447
330
18
100
AcDbEntity
  8
DRAW2
100
AcDbLine
 10
1326.754415545679
 20
135.9210800146186
 30
0.0
 11
1326.754415545679
 21
136.4210700146184
 31
0.0
  0
ARC
  5
3448
330
18
100
AcDbEntity
  8
DRAW2
100
AcDbCircle
 10
1325.254415545679
 20
135.9210700146184
 30
0.0
 40
1.5
100
AcDbArc
 50
270.0
 51
0.0
  0
LINE
  5
3449
330
18
100
AcDbEntity
  8
DRAW2
100
AcDbLine
 10
1330.754475545679
 20
171.0275188002755
 30
0.0
 11
1330.754475545679
 21
156.4275432002755
 31
0.0
  0
LINE
  5
344A
330
18
100
AcDbEntity
  8
DRAW2
100
AcDbLine
 10
1301.554465545679
 20
155.4209901628594
 30
0.0
 11
1322.254475545679
 21
155.4210800146179
 31
0.0
  0
LINE
  5
344B
330
18
100
AcDbEntity
  8
DRAW2
100
AcDbLine
 10
1299.554465545679
 20
155.6709401628594
 30
0.0
 11
1301.554465545679
 21
155.6709401628594
 31
0.0
  0
LINE
  5
344C
330
18
100
AcDbEntity
  8
DRAW3
100
AcDbLine
 10
1324.254475545679
 20
160.3525350146179
 30
0.0
 11
1322.254475545679
 21
160.3525350146179
 31
0.0
  0
LINE
  5
344D
330
18
100
AcDbEntity
  8
DRAW2
100
AcDbLine
 10
1324.254605545679
 20
159.7274700146178
 30
0.0
 11
1322.254475545679
 21
159.7274700146178
 31
0.0
  0
LINE
  5
344E
330
18
100
AcDbEntity
  8
DRAW2
100
AcDbLine
 10
1329.754475545679
 20
146.4210910002755
 30
0.0
 11
1328.254415545679
 21
146.4210910002755
 31
0.0
  0
LINE
  5
344F
330
18
100
AcDbEntity
  8
DRAW2
100
AcDbLine
 10
1329.754475545679
 20
144.4210910002756
 30
0.0
 11
1328.254415545679
 21
144.4210910002756
 31
0.0
  0
LINE
  5
3450
330
18
100
AcDbEntity
  8
DRAW2
100
AcDbLine
 10
1327.254415545679
 20
146.4210910002755
 30
0.0
 11
1324.254475545679
 21
146.4210910002755
 31
0.0
  0
LINE
  5
3451
330
18
100
AcDbEntity
  8
DRAW3
100
AcDbLine
 10
1322.254475545679
 20
167.1025350146178
 30
0.0
 11
1324.254475545679
 21
167.1025350146178
 31
0.0
  0
LINE
  5
3452
330
18
100
AcDbEntity
  8
DRAW2
100
AcDbLine
 10
1324.254605545679
 20
167.727460014618
 30
0.0
 11
1322.254475545679
 21
167.727460014618
 31
0.0
  0
LINE
  5
3453
330
18
100
AcDbEntity
  8
DRAW2
100
AcDbLine
 10
1362.254235545679
 20
107.4209800146181
 30
0.0
 11
1359.277115545679
 21
89.10021001461819
 31
0.0
  0
LINE
  5
3455
330
18
100
AcDbEntity
  8
DRAW2
100
AcDbLine
 10
1357.303185545679
 20
87.42101001461822
 30
0.0
 11
1336.205645545679
 21
87.42101001461822
 31
0.0
  0
ARC
  5
3456
330
18
100
AcDbEntity
  8
DRAW2
100
AcDbCircle
 10
1336.205585545679
 20
89.42100001461824
 30
0.0
 40
2.0
100
AcDbArc
 50
189.2300300000013
 51
270.0000199999954
  0
ARC
  5
3457
330
18
100
AcDbEntity
  8
DRAW2
100
AcDbCircle
 10
1357.303115545679
 20
89.42100001461824
 30
0.0
 40
2.0
100
AcDbArc
 50
270.0000199999954
 51
350.7702199999984
  0
LINE
  5
3458
330
18
100
AcDbEntity
  8
DRAW2
100
AcDbLine
 10
1388.094195545679
 20
137.4210800146181
 30
0.0
 11
1411.354415545679
 21
137.421080014618
 31
0.0
  0
LINE
  5
3459
330
18
100
AcDbEntity
  8
DRAW2
100
AcDbLine
 10
1388.094195545679
 20
108.4210300146182
 30
0.0
 11
1411.354416069278
 21
108.4210500146182
 31
0.0
  0
LINE
  5
345A
330
18
100
AcDbEntity
  8
DRAW2
100
AcDbLine
 10
1366.254475545679
 20
136.4210110002757
 30
0.0
 11
1366.254475545679
 21
176.4211110002756
 31
0.0
  0
ARC
  5
345B
330
18
100
AcDbEntity
  8
DRAW2
100
AcDbCircle
 10
1380.065695545679
 20
122.9210400146184
 30
0.0
 40
18.35924
100
AcDbArc
 50
141.2158799999984
 51
218.7840999999965
  0
LINE
  5
345C
330
18
100
AcDbEntity
  8
DRAW2
100
AcDbLine
 10
1351.254415545679
 20
117.521010014618
 30
0.0
 11
1351.254415545679
 21
112.521010014618
 31
0.0
  0
LINE
  5
345D
330
18
100
AcDbEntity
  8
DRAW2
100
AcDbLine
 10
1341.254415545679
 20
117.5210000146182
 30
0.0
 11
1341.254415545679
 21
112.5210000146182
 31
0.0
  0
LINE
  5
345E
330
18
100
AcDbEntity
  8
DRAW2
100
AcDbLine
 10
1346.254415545679
 20
117.0744300146182
 30
0.0
 11
1346.254415545679
 21
112.521010014618
 31
0.0
  0
LINE
  5
345F
330
18
100
AcDbEntity
  8
DRAW2
100
AcDbLine
 10
1352.004415545679
 20
112.521010014618
 30
0.0
 11
1340.504415545679
 21
112.5210000146182
 31
0.0
  0
LINE
  5
3460
330
18
100
AcDbEntity
  8
DRAW2
100
AcDbLine
 10
1352.004415545679
 20
111.0210100146179
 30
0.0
 11
1340.504415545679
 21
111.0210000146182
 31
0.0
  0
LINE
  5
3461
330
18
100
AcDbEntity
  8
DRAW2
100
AcDbLine
 10
1352.258865545679
 20
109.4210000146181
 30
0.0
 11
1340.758865545679
 21
109.4210000146181
 31
0.0
  0
LINE
  5
3462
330
18
100
AcDbEntity
  8
DRAW2
100
AcDbLine
 10
1346.39874554568
 20
112.5210300146179
 30
0.0
 11
1345.532715545679
 21
111.0210200146179
 31
0.0
  0
LINE
  5
3463
330
18
100
AcDbEntity
  8
DRAW2
100
AcDbLine
 10
1346.976085545679
 20
112.5210200146182
 30
0.0
 11
1346.110055545679
 21
111.0210100146179
 31
0.0
  0
LINE
  5
3464
330
18
100
AcDbEntity
  8
DRAW2
100
AcDbLine
 10
1340.504415545679
 20
112.5210000146182
 30
0.0
 11
1340.504415545679
 21
109.4210000146181
 31
0.0
  0
LINE
  5
3465
330
18
100
AcDbEntity
  8
DRAW2
100
AcDbLine
 10
1352.004415545679
 20
112.521010014618
 30
0.0
 11
1352.004415545679
 21
109.4210000146181
 31
0.0
  0
LINE
  5
3466
330
18
100
AcDbEntity
  8
DRAW2
100
AcDbLine
 10
1349.254415545679
 20
118.9210100146181
 30
0.0
 11
1343.254415545679
 21
118.9210100146181
 31
0.0
  0
LINE
  5
3467
330
18
100
AcDbEntity
  8
DRAW2
100
AcDbLine
 10
1348.754415545679
 20
119.4210100146182
 30
0.0
 11
1343.754415545679
 21
119.4210100146182
 31
0.0
  0
ARC
  5
3468
330
18
100
AcDbEntity
  8
DRAW2
100
AcDbCircle
 10
1348.754402956375
 20
110.3000705146038
 30
0.0
 40
7.220932
100
AcDbArc
 50
69.7439799999955
 51
110.2560499999962
  0
LINE
  5
3469
330
18
100
AcDbEntity
  8
DRAW2
100
AcDbLine
 10
1351.254415545679
 20
117.521010014618
 30
0.0
 11
1341.254415545679
 21
117.5210000146182
 31
0.0
  0
LINE
  5
346A
330
18
100
AcDbEntity
  8
DRAW3
100
AcDbLine
 10
1343.754415545679
 20
119.4210100146182
 30
0.0
 11
1343.754415545679
 21
117.521010014618
 31
0.0
  0
LINE
  5
346B
330
18
100
AcDbEntity
  8
DRAW2
100
AcDbLine
 10
1343.754355545679
 20
119.421030014618
 30
0.0
 11
1343.254355545679
 21
118.921030014618
 31
0.0
  0
LINE
  5
346C
330
18
100
AcDbEntity
  8
DRAW2
100
AcDbLine
 10
1343.254415545679
 20
118.9210100146181
 30
0.0
 11
1343.254415545679
 21
117.521010014618
 31
0.0
  0
ARC
  5
346D
330
18
100
AcDbEntity
  8
DRAW2
100
AcDbCircle
 10
1343.754402956375
 20
110.3000705146038
 30
0.0
 40
7.220932
100
AcDbArc
 50
69.7439799999955
 51
110.2560499999962
  0
LINE
  5
346E
330
18
100
AcDbEntity
  8
DRAW2
100
AcDbLine
 10
1349.254415545679
 20
118.9210100146181
 30
0.0
 11
1349.254415545679
 21
117.521010014618
 31
0.0
  0
LINE
  5
346F
330
18
100
AcDbEntity
  8
DRAW3
100
AcDbLine
 10
1348.754415545679
 20
119.4210100146182
 30
0.0
 11
1348.754415545679
 21
117.521010014618
 31
0.0
  0
LINE
  5
3470
330
18
100
AcDbEntity
  8
DRAW2
100
AcDbLine
 10
1348.75422554568
 20
119.4209400146181
 30
0.0
 11
1349.25422554568
 21
118.9209100146179
 31
0.0
  0
LINE
  5
3471
330
18
100
AcDbEntity
  8
DRAW2
100
AcDbLine
 10
1386.800125545679
 20
136.4210600146182
 30
0.0
 11
1386.800125545679
 21
109.4210500146182
 31
0.0
  0
LINE
  5
3472
330
18
100
AcDbEntity
  8
DRAW2
100
AcDbLine
 10
1381.512535545679
 20
133.421060014618
 30
0.0
 11
1381.512535545679
 21
112.4210300146182
 31
0.0
  0
ARC
  5
3473
330
18
100
AcDbEntity
  8
DRAW2
100
AcDbCircle
 10
1380.218585545679
 20
106.4210600146182
 30
0.0
 40
5.0
100
AcDbArc
 50
59.99993300000249
 51
89.99998200000083
  0
ARC
  5
3474
330
18
100
AcDbEntity
  8
DRAW2
100
AcDbCircle
 10
1365.254415545679
 20
109.9210600146184
 30
0.0
 40
0.5
100
AcDbArc
 50
270.0000199999954
 51
0.0
  0
ARC
  5
3475
330
18
100
AcDbEntity
  8
DRAW2
100
AcDbCircle
 10
1367.254415545679
 20
109.9210600146184
 30
0.0
 40
1.5
100
AcDbArc
 50
89.99998200000083
 51
180.0000199999987
  0
ARC
  5
3476
330
18
100
AcDbEntity
  8
DRAW2
100
AcDbCircle
 10
1367.754415545679
 20
107.4209800146181
 30
0.0
 40
2.0
100
AcDbArc
 50
0.0000546415133601
 51
90.00003699999981
  0
LINE
  5
3477
330
18
100
AcDbEntity
  8
DRAW2
100
AcDbLine
 10
1367.248938329094
 20
111.4210500146178
 30
0.0
 11
1380.218585545679
 21
111.4210500146178
 31
0.0
  0
LINE
  5
3478
330
18
100
AcDbEntity
  8
DRAW2
100
AcDbLine
 10
1369.754415545679
 20
94.42101001461821
 30
0.0
 11
1367.754355545679
 21
94.42101001461821
 31
0.0
  0
LINE
  5
3479
330
18
100
AcDbEntity
  8
DRAW2
100
AcDbLine
 10
1369.754415545679
 20
107.4209800146181
 30
0.0
 11
1369.754415545679
 21
94.42101001461821
 31
0.0
  0
LINE
  5
347A
330
18
100
AcDbEntity
  8
DRAW2
100
AcDbLine
 10
1367.754415545679
 20
107.4209800146181
 30
0.0
 11
1367.754415545679
 21
94.42101001461821
 31
0.0
  0
LINE
  5
347B
330
18
100
AcDbEntity
  8
DRAW2
100
AcDbLine
 10
1382.718525545679
 20
110.7511200146182
 30
0.0
 11
1385.594135545679
 21
109.0908800146179
 31
0.0
  0
ARC
  5
347C
330
18
100
AcDbEntity
  8
DRAW2
100
AcDbCircle
 10
1388.094195545679
 20
113.4210000146182
 30
0.0
 40
5.0
100
AcDbArc
 50
239.9999100000047
 51
270.0000199999954
  0
ARC
  5
347D
330
18
100
AcDbEntity
  8
DRAW2
100
AcDbCircle
 10
1380.218465545679
 20
139.4210300146182
 30
0.0
 40
5.0
100
AcDbArc
 50
270.0000199999954
 51
299.9998199999966
  0
LINE
  5
347E
330
18
100
AcDbEntity
  8
DRAW2
100
AcDbLine
 10
1365.754415545679
 20
134.4210700146181
 30
0.0
 11
1365.754415545679
 21
136.4210600146182
 31
0.0
  0
LINE
  5
347F
330
18
100
AcDbEntity
  8
DRAW2
100
AcDbLine
 10
1365.754454935449
 20
134.4210437352138
 30
0.0
 11
1380.218465545679
 21
134.4210600146179
 31
0.0
  0
LINE
  5
3480
330
18
100
AcDbEntity
  8
DRAW2
100
AcDbLine
 10
1382.718405545679
 20
135.0908900146182
 30
0.0
 11
1385.594195545679
 21
136.7512100146182
 31
0.0
  0
ARC
  5
3481
330
18
100
AcDbEntity
  8
DRAW2
100
AcDbCircle
 10
1388.094195545679
 20
132.4210900146181
 30
0.0
 40
5.0
100
AcDbArc
 50
89.99998200000083
 51
119.9998400000009
  0
LINE
  5
3482
330
18
100
AcDbEntity
  8
DRAW2
100
AcDbLine
 10
1339.254475445679
 20
170.2275615002754
 30
0.0
 11
1339.254475445679
 21
157.2275310002754
 31
0.0
  0
LINE
  5
3483
330
18
100
AcDbEntity
  8
DRAW2
100
AcDbLine
 10
1332.754475545679
 20
171.2330852002754
 30
0.0
 11
1332.754475545679
 21
156.2219768002754
 31
0.0
  0
ARC
  5
3484
330
18
100
AcDbEntity
  8
DRAW2
100
AcDbCircle
 10
1326.834614745679
 20
163.7275310002754
 30
0.0
 40
12.419868
100
AcDbArc
 50
342.412655
 51
17.58735999999965
  0
LINE
  5
3485
330
18
100
AcDbEntity
  8
DRAW2
100
AcDbLine
 10
1344.154375545679
 20
160.3525350146179
 30
0.0
 11
1344.154375545679
 21
167.1025350146178
 31
0.0
  0
LINE
  5
3486
330
18
100
AcDbEntity
  8
DRAW2
100
AcDbLine
 10
1343.529375545679
 20
159.7275350146178
 30
0.0
 11
1343.529375545679
 21
167.727525014618
 31
0.0
  0
LINE
  5
3487
330
18
100
AcDbEntity
  8
DRAW2
100
AcDbLine
 10
1339.254470445679
 20
157.2275334002754
 30
0.0
 11
1338.673904345679
 21
156.2219630002754
 31
0.0
  0
ARC
  5
3488
330
18
100
AcDbEntity
  8
DRAW2
100
AcDbCircle
 10
1335.931874245679
 20
158.0983654002755
 30
0.0
 40
3.322595799999999
100
AcDbArc
 50
334.3832069999999
 51
34.38391000000086
  0
LINE
  5
3489
330
18
100
AcDbEntity
  8
DRAW2
100
AcDbLine
 10
1338.673924445679
 20
156.2219768002754
 30
0.0
 11
1332.754475545679
 21
156.2219768002754
 31
0.0
  0
LINE
  5
348A
330
18
100
AcDbEntity
  8
DRAW2
100
AcDbLine
 10
1338.673939645679
 20
159.9747539002754
 30
0.0
 11
1332.754475545679
 21
159.9747539002754
 31
0.0
  0
LINE
  5
348B
330
18
100
AcDbEntity
  8
DRAW2
100
AcDbLine
 10
1343.529435545679
 20
159.727495014618
 30
0.0
 11
1344.154435545679
 21
160.3524950146178
 31
0.0
  0
LINE
  5
348C
330
18
100
AcDbEntity
  8
DRAW2
100
AcDbLine
 10
1343.529375545679
 20
159.7275350146178
 30
0.0
 11
1339.254475445679
 21
159.7275350146178
 31
0.0
  0
LINE
  5
348D
330
18
100
AcDbEntity
  8
DRAW3
100
AcDbLine
 10
1344.154375545679
 20
160.3525350146179
 30
0.0
 11
1339.254475445679
 21
160.3525350146179
 31
0.0
  0
LINE
  5
348E
330
18
100
AcDbEntity
  8
DRAW2
100
AcDbLine
 10
1338.673915845679
 20
171.2330966002755
 30
0.0
 11
1339.254455445679
 21
170.2275725002755
 31
0.0
  0
ARC
  5
348F
330
18
100
AcDbEntity
  8
DRAW2
100
AcDbCircle
 10
1335.931813245679
 20
169.3566966002754
 30
0.0
 40
3.3226678
100
AcDbArc
 50
325.6168539999997
 51
25.61447999999997
  0
LINE
  5
3490
330
18
100
AcDbEntity
  8
DRAW2
100
AcDbLine
 10
1338.673939645679
 20
171.2330852002754
 30
0.0
 11
1332.754475545679
 21
171.2330852002754
 31
0.0
  0
LINE
  5
3491
330
18
100
AcDbEntity
  8
DRAW2
100
AcDbLine
 10
1338.673939645679
 20
167.4803081002754
 30
0.0
 11
1332.754475545679
 21
167.4803081002754
 31
0.0
  0
LINE
  5
3492
330
18
100
AcDbEntity
  8
DRAW2
100
AcDbLine
 10
1343.529375545679
 20
167.7275350146179
 30
0.0
 11
1344.154375545679
 21
167.102575014618
 31
0.0
  0
LINE
  5
3493
330
18
100
AcDbEntity
  8
DRAW3
100
AcDbLine
 10
1344.154375545679
 20
167.1025350146178
 30
0.0
 11
1339.254475445679
 21
167.1025350146178
 31
0.0
  0
LINE
  5
3494
330
18
100
AcDbEntity
  8
DRAW2
100
AcDbLine
 10
1343.529375545679
 20
167.727525014618
 30
0.0
 11
1339.254475445679
 21
167.7275250146181
 31
0.0
  0
LINE
  5
3495
330
18
100
AcDbEntity
  8
DRAW2
100
AcDbLine
 10
1412.854415545679
 20
109.9210500146182
 30
0.0
 11
1412.854415545679
 21
135.9210800146181
 31
0.0
  0
ARC
  5
3496
330
18
100
AcDbEntity
  8
DRAW2
100
AcDbCircle
 10
1411.354415545679
 20
109.9210500146182
 30
0.0
 40
1.5
100
AcDbArc
 50
270.0000199999954
 51
0.0
  0
ARC
  5
3497
330
18
100
AcDbEntity
  8
DRAW2
100
AcDbCircle
 10
1411.354415545679
 20
135.9210800146181
 30
0.0
 40
1.5
100
AcDbArc
 50
0.0
 51
89.99998200000083
  0
LINE
  5
3499
330
18
100
AcDbEntity
  8
DRAW2
100
AcDbLine
 10
1332.754475545679
 20
278.4145888002758
 30
0.0
 11
1330.754475545679
 21
278.4145888002758
 31
0.0
  0
LINE
  5
349A
330
18
100
AcDbEntity
  8
DRAW2
100
AcDbLine
 10
1332.754447445679
 20
271.4032434102757
 30
0.0
 11
1330.754459445679
 21
270.2485496802757
 31
0.0
  0
LINE
  5
349B
330
18
100
AcDbEntity
  8
DRAW2
100
AcDbLine
 10
1332.754505845679
 20
271.9805957502758
 30
0.0
 11
1330.754491445679
 21
270.8258868002758
 31
0.0
  0
LINE
  5
349C
330
18
100
AcDbEntity
  8
DRAW2
100
AcDbLine
 10
1332.754475545679
 20
263.8146132002757
 30
0.0
 11
1330.754475545679
 21
263.8146132002757
 31
0.0
  0
LINE
  5
349D
330
18
100
AcDbEntity
  8
DRAW2
100
AcDbLine
 10
1332.754475545679
 20
224.7210788002758
 30
0.0
 11
1330.754475545679
 21
224.7210788002758
 31
0.0
  0
LINE
  5
349E
330
18
100
AcDbEntity
  8
DRAW2
100
AcDbLine
 10
1332.754447445679
 20
217.7097334102757
 30
0.0
 11
1330.754459445679
 21
216.5550396802757
 31
0.0
  0
LINE
  5
349F
330
18
100
AcDbEntity
  8
DRAW2
100
AcDbLine
 10
1332.754505845679
 20
218.2870857502757
 30
0.0
 11
1330.754491445679
 21
217.1323768002757
 31
0.0
  0
LINE
  5
34A0
330
18
100
AcDbEntity
  8
DRAW2
100
AcDbLine
 10
1332.754475545679
 20
210.1211032002757
 30
0.0
 11
1330.754475545679
 21
210.1211032002757
 31
0.0
  0
LINE
  5
34A2
330
18
100
AcDbEntity
  8
DRAW2
100
AcDbLine
 10
1366.254475545679
 20
298.4210610002758
 30
0.0
 11
1326.754415545679
 21
298.4210600146182
 31
0.0
  0
LINE
  5
34A3
330
18
100
AcDbEntity
  8
DRAW2
100
AcDbLine
 10
1366.254475545679
 20
290.4211510002754
 30
0.0
 11
1330.754475545679
 21
290.4211510002754
 31
0.0
  0
LINE
  5
34A4
330
18
100
AcDbEntity
  8
DRAW2
100
AcDbLine
 10
1365.254415545679
 20
325.4211200146181
 30
0.0
 11
1327.254475545679
 21
325.4211200146181
 31
0.0
  0
ARC
  5
34A7
330
18
100
AcDbEntity
  8
DRAW2
100
AcDbCircle
 10
1251.254475545679
 20
277.4210900146179
 30
0.0
 40
2.0
100
AcDbArc
 50
90.0
 51
180.0
  0
LINE
  5
34A9
330
18
100
AcDbEntity
  8
DRAW2
100
AcDbLine
 10
1233.654435545679
 20
277.614420014618
 30
0.0
 11
1234.235005545679
 21
278.6200000146182
 31
0.0
  0
LINE
  5
34AA
330
18
100
AcDbEntity
  8
DRAW2
100
AcDbLine
 10
1239.154375545679
 20
263.364690014618
 30
0.0
 11
1239.154375545679
 21
278.8646000146182
 31
0.0
  0
LINE
  5
34AB
330
18
100
AcDbEntity
  8
DRAW2
100
AcDbLine
 10
1205.254475545679
 20
298.4211800146181
 30
0.0
 11
1205.254475545679
 21
258.4210600146182
 31
0.0
  0
ARC
  5
34AC
330
18
100
AcDbEntity
  8
DRAW2
100
AcDbCircle
 10
1276.674095545679
 20
245.421090014618
 30
0.0
 40
11.99996999999989
100
AcDbArc
 50
117.2796866030426
 51
62.72031339695733
  0
LINE
  5
34AE
330
18
100
AcDbEntity
  8
DRAW2
100
AcDbLine
 10
1248.254475545679
 20
267.1145400146181
 30
0.0
 11
1248.254475545679
 21
221.4210200146183
 31
0.0
  0
LINE
  5
34AF
330
18
100
AcDbEntity
  8
DRAW2
100
AcDbLine
 10
1214.254475545679
 20
237.2079000146182
 30
0.0
 11
1214.254475545679
 21
197.6342900146179
 31
0.0
  0
ARC
  5
34B1
330
18
100
AcDbEntity
  8
DRAW2
100
AcDbCircle
 10
1204.254535545679
 20
197.6342600146181
 30
0.0
 40
10.0
100
AcDbArc
 50
314.0204200000013
 51
359.9999499999982
  0
LINE
  5
34B2
330
18
100
AcDbEntity
  8
DRAW3
100
AcDbLine
 10
1249.254535545679
 20
220.7960950146181
 30
0.0
 11
1247.254475545679
 21
220.7960950146181
 31
0.0
  0
LINE
  5
34B3
330
18
100
AcDbEntity
  8
DRAW2
100
AcDbLine
 10
1249.254535545679
 20
221.4210200146183
 30
0.0
 11
1247.254475545679
 21
221.4210200146183
 31
0.0
  0
LINE
  5
34B4
330
18
100
AcDbEntity
  8
DRAW3
100
AcDbLine
 10
1249.254535545679
 20
214.0460950146182
 30
0.0
 11
1247.254475545679
 21
214.0460950146182
 31
0.0
  0
LINE
  5
34B5
330
18
100
AcDbEntity
  8
DRAW2
100
AcDbLine
 10
1249.254535545679
 20
213.4210300146181
 30
0.0
 11
1247.254475545679
 21
213.4210300146181
 31
0.0
  0
LINE
  5
34B6
330
18
100
AcDbEntity
  8
DRAW2
100
AcDbLine
 10
1234.235005545679
 20
224.9266100146182
 30
0.0
 11
1239.154375545679
 21
224.9266100146182
 31
0.0
  0
LINE
  5
34B7
330
18
100
AcDbEntity
  8
DRAW2
100
AcDbLine
 10
1234.235005545679
 20
221.1738400146181
 30
0.0
 11
1239.154375545679
 21
221.1738400146181
 31
0.0
  0
LINE
  5
34B8
330
18
100
AcDbEntity
  8
DRAW2
100
AcDbLine
 10
1233.654495545679
 20
223.9210000146181
 30
0.0
 11
1234.235065545679
 21
224.926580014618
 31
0.0
  0
ARC
  5
34B9
330
18
100
AcDbEntity
  8
DRAW2
100
AcDbCircle
 10
1236.977005545679
 20
223.0502400146181
 30
0.0
 40
3.3225961
100
AcDbArc
 50
154.3832000000015
 51
214.3839000000007
  0
LINE
  5
34BA
330
18
100
AcDbEntity
  8
DRAW2
100
AcDbLine
 10
1239.154375545679
 20
225.1710900146181
 30
0.0
 11
1240.754415545679
 21
225.1710900146181
 31
0.0
  0
LINE
  5
34BB
330
18
100
AcDbEntity
  8
DRAW2
100
AcDbLine
 10
1234.235005545679
 20
213.6683100146181
 30
0.0
 11
1239.154375545679
 21
213.6683100146181
 31
0.0
  0
LINE
  5
34BC
330
18
100
AcDbEntity
  8
DRAW2
100
AcDbLine
 10
1234.235005545679
 20
209.9155400146181
 30
0.0
 11
1239.154375545679
 21
209.9155400146181
 31
0.0
  0
LINE
  5
34BD
330
18
100
AcDbEntity
  8
DRAW2
100
AcDbLine
 10
1234.23439554568
 20
209.9151400146181
 30
0.0
 11
1233.65382554568
 21
210.920720014618
 31
0.0
  0
ARC
  5
34BE
330
18
100
AcDbEntity
  8
DRAW2
100
AcDbCircle
 10
1236.977005545679
 20
211.791940014618
 30
0.0
 40
3.322667599999998
100
AcDbArc
 50
145.6168500000019
 51
205.6144600000009
  0
LINE
  5
34BF
330
18
100
AcDbEntity
  8
DRAW2
100
AcDbLine
 10
1239.154375545679
 20
209.671090014618
 30
0.0
 11
1240.754415545679
 21
209.671090014618
 31
0.0
  0
ARC
  5
34C0
330
18
100
AcDbEntity
  8
DRAW2
100
AcDbCircle
 10
1246.074235545679
 20
217.4210900146181
 30
0.0
 40
12.419868
100
AcDbArc
 50
162.4126400000013
 51
197.587350000001
  0
LINE
  5
34C1
330
18
100
AcDbEntity
  8
DRAW2
100
AcDbLine
 10
1233.654375545679
 20
210.921060014618
 30
0.0
 11
1233.654375545679
 21
223.921120014618
 31
0.0
  0
LINE
  5
34C2
330
18
100
AcDbEntity
  8
DRAW2
100
AcDbLine
 10
1239.154375545679
 20
209.671150014618
 30
0.0
 11
1239.154375545679
 21
225.1710900146181
 31
0.0
  0
ARC
  5
34C4
330
18
100
AcDbEntity
  8
DRAW2
100
AcDbCircle
 10
1224.754415545679
 20
258.4210600146182
 30
0.0
 40
19.50000199999998
100
AcDbArc
 50
179.9999799999978
 51
225.9794999999976
  0
ARC
  5
34C5
330
18
100
AcDbEntity
  8
DRAW2
100
AcDbCircle
 10
1204.254535545679
 20
237.2079000146182
 30
0.0
 40
10.0
100
AcDbArc
 50
0.0
 51
45.97952200000285
  0
LINE
  5
34C6
330
18
100
AcDbEntity
  8
DRAW3
100
AcDbLine
 10
1249.254535545679
 20
274.4896050146181
 30
0.0
 11
1247.254475545679
 21
274.4896050146181
 31
0.0
  0
LINE
  5
34C7
330
18
100
AcDbEntity
  8
DRAW2
100
AcDbLine
 10
1249.254535545679
 20
275.1145300146182
 30
0.0
 11
1247.254475545679
 21
275.1145300146182
 31
0.0
  0
LINE
  5
34C8
330
18
100
AcDbEntity
  8
DRAW3
100
AcDbLine
 10
1249.254535545679
 20
267.7396050146181
 30
0.0
 11
1247.254475545679
 21
267.7396050146181
 31
0.0
  0
LINE
  5
34C9
330
18
100
AcDbEntity
  8
DRAW2
100
AcDbLine
 10
1249.254535545679
 20
267.1145400146181
 30
0.0
 11
1247.254475545679
 21
267.1145400146181
 31
0.0
  0
LINE
  5
34CA
330
18
100
AcDbEntity
  8
DRAW2
100
AcDbLine
 10
1234.235005545679
 20
274.8673800146181
 30
0.0
 11
1239.154375545679
 21
274.8673800146181
 31
0.0
  0
ARC
  5
34CB
330
18
100
AcDbEntity
  8
DRAW2
100
AcDbCircle
 10
1236.977005545679
 20
276.7438100146181
 30
0.0
 40
3.3225961
100
AcDbArc
 50
154.3832000000015
 51
214.3839000000007
  0
LINE
  5
34CC
330
18
100
AcDbEntity
  8
DRAW2
100
AcDbLine
 10
1234.235005545679
 20
267.361860014618
 30
0.0
 11
1239.154375545679
 21
267.361860014618
 31
0.0
  0
LINE
  5
34CD
330
18
100
AcDbEntity
  8
DRAW2
100
AcDbLine
 10
1234.235005545679
 20
263.6090500146181
 30
0.0
 11
1239.154375545679
 21
263.6090500146181
 31
0.0
  0
LINE
  5
34CE
330
18
100
AcDbEntity
  8
DRAW2
100
AcDbLine
 10
1234.23414554568
 20
263.608840014618
 30
0.0
 11
1233.653645545679
 21
264.6142700146181
 31
0.0
  0
ARC
  5
34CF
330
18
100
AcDbEntity
  8
DRAW2
100
AcDbCircle
 10
1236.977005545679
 20
265.4854500146182
 30
0.0
 40
3.322667599999998
100
AcDbArc
 50
145.6168500000019
 51
205.6144600000009
  0
LINE
  5
34D0
330
18
100
AcDbEntity
  8
DRAW2
100
AcDbLine
 10
1239.154375545679
 20
263.364600014618
 30
0.0
 11
1240.754415545679
 21
263.364600014618
 31
0.0
  0
LINE
  5
34D1
330
18
100
AcDbEntity
  8
DRAW2
100
AcDbLine
 10
1233.654375545679
 20
264.6146300146181
 30
0.0
 11
1233.654375545679
 21
277.6146300146181
 31
0.0
  0
ARC
  5
34D2
330
18
100
AcDbEntity
  8
DRAW2
100
AcDbCircle
 10
1246.074235545679
 20
271.1146600146181
 30
0.0
 40
12.419868
100
AcDbArc
 50
162.4126400000013
 51
197.587350000001
  0
LINE
  5
34D3
330
18
100
AcDbEntity
  8
DRAW2
100
AcDbLine
 10
1323.254475545679
 20
221.4210300146181
 30
0.0
 11
1323.254475545679
 21
267.1145700146181
 31
0.0
  0
LINE
  5
34D4
330
18
100
AcDbEntity
  8
DRAW3
100
AcDbLine
 10
1324.254475545679
 20
214.0460950146182
 30
0.0
 11
1322.254475545679
 21
214.0460950146182
 31
0.0
  0
LINE
  5
34D5
330
18
100
AcDbEntity
  8
DRAW3
100
AcDbLine
 10
1322.254475545679
 20
220.7960950146181
 30
0.0
 11
1324.254475545679
 21
220.7960950146181
 31
0.0
  0
LINE
  5
34D6
330
18
100
AcDbEntity
  8
DRAW2
100
AcDbLine
 10
1330.754475545679
 20
224.7210788002758
 30
0.0
 11
1330.754475545679
 21
210.1211032002757
 31
0.0
  0
LINE
  5
34D7
330
18
100
AcDbEntity
  8
DRAW2
100
AcDbLine
 10
1324.254605545679
 20
221.4210300146181
 30
0.0
 11
1322.254475545679
 21
221.4210300146181
 31
0.0
  0
LINE
  5
34D8
330
18
100
AcDbEntity
  8
DRAW2
100
AcDbLine
 10
1324.254605545679
 20
213.4210300146181
 30
0.0
 11
1322.254475545679
 21
213.4210300146181
 31
0.0
  0
LINE
  5
34D9
330
18
100
AcDbEntity
  8
DRAW2
100
AcDbLine
 10
1282.174095545679
 20
257.4210900146181
 30
0.0
 11
1282.174095545679
 21
252.9266435140833
 31
0.0
  0
LINE
  5
34DA
330
18
100
AcDbEntity
  8
DRAW2
100
AcDbLine
 10
1271.17409554568
 20
257.4210900146181
 30
0.0
 11
1271.17409554568
 21
252.9266435140833
 31
0.0
  0
LINE
  5
34DB
330
18
100
AcDbEntity
  8
DRAW2
100
AcDbLine
 10
1278.362357854189
 20
254.2613258925608
 30
0.0
 11
1283.485833237169
 21
251.3032860010109
 31
0.0
  0
ARC
  5
34DC
330
18
100
AcDbEntity
  8
DRAW2
100
AcDbCircle
 10
1283.67409554568
 20
252.9266435140833
 30
0.0
 40
1.5
100
AcDbArc
 50
180.0
 51
239.9999999999994
  0
LINE
  5
34DD
330
18
100
AcDbEntity
  8
DRAW2
100
AcDbLine
 10
1283.485833237169
 20
239.5388940282253
 30
0.0
 11
1278.362357854189
 21
236.5808541366754
 31
0.0
  0
CIRCLE
  5
34DE
330
18
100
AcDbEntity
  8
DRAW2
100
AcDbCircle
 10
1276.674095545679
 20
245.421090014618
 30
0.0
 40
5.694887103024191
  0
CIRCLE
  5
34DF
330
18
100
AcDbEntity
  8
DRAW3
100
AcDbCircle
 10
1276.674095545679
 20
245.421090014618
 30
0.0
 40
6.578500006249997
  0
CIRCLE
  5
34E0
330
18
100
AcDbEntity
  8
DRAW2
100
AcDbCircle
 10
1276.674095545679
 20
245.421090014618
 30
0.0
 40
8.25
  0
ARC
  5
34E1
330
18
100
AcDbEntity
  8
DRAW2
100
AcDbCircle
 10
1276.674095545679
 20
245.421090014618
 30
0.0
 40
9.0
100
AcDbArc
 50
79.18813645372273
 51
100.8118635462772
  0
ARC
  5
34E2
330
18
100
AcDbEntity
  8
DRAW2
100
AcDbCircle
 10
1276.674095545679
 20
245.421090014618
 30
0.0
 40
9.0
100
AcDbArc
 50
259.1881364537226
 51
280.8118635462772
  0
CIRCLE
  5
34E3
330
18
100
AcDbEntity
  8
DRAW2
100
AcDbCircle
 10
1276.674095545679
 20
245.421090014618
 30
0.0
 40
3.0
  0
ARC
  5
34E4
330
18
100
AcDbEntity
  8
DRAW2
100
AcDbCircle
 10
1276.674095545679
 20
245.421090014618
 30
0.0
 40
9.0
100
AcDbArc
 50
139.1881364537236
 51
160.8118635462803
  0
ARC
  5
34E5
330
18
100
AcDbEntity
  8
DRAW2
100
AcDbCircle
 10
1269.674095545679
 20
252.9266435140833
 30
0.0
 40
1.5
100
AcDbArc
 50
300.0000000000005
 51
0.0
  0
ARC
  5
34E6
330
18
100
AcDbEntity
  8
DRAW2
100
AcDbCircle
 10
1276.674095545679
 20
245.421090014618
 30
0.0
 40
9.0
100
AcDbArc
 50
199.1881364537194
 51
220.8118635462759
  0
LINE
  5
34E7
330
18
100
AcDbEntity
  8
DRAW2
100
AcDbLine
 10
1268.174095545679
 20
242.4630501230684
 30
0.0
 11
1268.174095545679
 21
248.3791299061679
 31
0.0
  0
LINE
  5
34E8
330
18
100
AcDbEntity
  8
DRAW2
100
AcDbLine
 10
1274.985833237169
 20
236.5808541366754
 30
0.0
 11
1269.862357854189
 21
239.5388940282253
 31
0.0
  0
LINE
  5
34E9
330
18
100
AcDbEntity
  8
DRAW2
100
AcDbLine
 10
1269.862357854189
 20
251.3032860010109
 30
0.0
 11
1274.985833237169
 21
254.2613258925608
 31
0.0
  0
ARC
  5
34EA
330
18
100
AcDbEntity
  8
DRAW2
100
AcDbCircle
 10
1276.674095545679
 20
245.421090014618
 30
0.0
 40
9.0
100
AcDbArc
 50
19.18813645371953
 51
40.81186354627617
  0
ARC
  5
34EB
330
18
100
AcDbEntity
  8
DRAW2
100
AcDbCircle
 10
1276.674095545679
 20
245.421090014618
 30
0.0
 40
9.0
100
AcDbArc
 50
319.1881364537238
 51
340.8118635462804
  0
LINE
  5
34EC
330
18
100
AcDbEntity
  8
DRAW2
100
AcDbLine
 10
1285.17409554568
 20
248.3791299061679
 30
0.0
 11
1285.17409554568
 21
242.4630501230684
 31
0.0
  0
ARC
  5
34ED
330
18
100
AcDbEntity
  8
DRAW2
100
AcDbCircle
 10
1281.67409554568
 20
271.9210900146181
 30
0.0
 40
1.0
100
AcDbArc
 50
0.0
 51
90.0
  0
LINE
  5
34EE
330
18
100
AcDbEntity
  8
DRAW2
100
AcDbLine
 10
1283.67409554568
 20
263.4210900146181
 30
0.0
 11
1280.67409554568
 21
263.4210900146181
 31
0.0
  0
LINE
  5
34EF
330
18
100
AcDbEntity
  8
DRAW2
100
AcDbLine
 10
1283.67409554568
 20
257.4210900146181
 30
0.0
 11
1269.674095545679
 21
257.4210900146181
 31
0.0
  0
ARC
  5
34F0
330
18
100
AcDbEntity
  8
DRAW2
100
AcDbCircle
 10
1280.67409554568
 20
273.4210900146182
 30
0.0
 40
1.0
100
AcDbArc
 50
0.0
 51
90.0
  0
ARC
  5
34F1
330
18
100
AcDbEntity
  8
DRAW2
100
AcDbCircle
 10
1274.174095545679
 20
272.4210900146181
 30
0.0
 40
0.5
100
AcDbArc
 50
90.0
 51
180.0
  0
ARC
  5
34F2
330
18
100
AcDbEntity
  8
DRAW2
100
AcDbCircle
 10
1280.174095545679
 20
272.4210900146181
 30
0.0
 40
0.5
100
AcDbArc
 50
0.0
 51
90.0
  0
ARC
  5
34F3
330
18
100
AcDbEntity
  8
DRAW2
100
AcDbCircle
 10
1279.17409554568
 20
272.4210900146181
 30
0.0
 40
0.5
100
AcDbArc
 50
0.0
 51
90.0
  0
LINE
  5
34F4
330
18
100
AcDbEntity
  8
DRAW2
100
AcDbLine
 10
1281.67409554568
 20
273.4210900146182
 30
0.0
 11
1281.67409554568
 21
272.9210900146181
 31
0.0
  0
LINE
  5
34F5
330
18
100
AcDbEntity
  8
DRAW2
100
AcDbLine
 10
1279.674095545679
 20
264.4210900146181
 30
0.0
 11
1280.507428879013
 21
261.9210900146181
 31
0.0
  0
LINE
  5
34F6
330
18
100
AcDbEntity
  8
DRAW2
100
AcDbLine
 10
1273.67409554568
 20
264.4210900146181
 30
0.0
 11
1272.840762212346
 21
261.9210900146181
 31
0.0
  0
LINE
  5
34F7
330
18
100
AcDbEntity
  8
DRAW2
100
AcDbLine
 10
1278.855177152499
 20
263.7155675339901
 30
0.0
 11
1279.62000299229
 21
261.4210900146181
 31
0.0
  0
LINE
  5
34F8
330
18
100
AcDbEntity
  8
DRAW2
100
AcDbLine
 10
1274.493013938859
 20
263.7155675339901
 30
0.0
 11
1273.728188099069
 21
261.4210900146181
 31
0.0
  0
LINE
  5
34F9
330
18
100
AcDbEntity
  8
DRAW2
100
AcDbLine
 10
1273.728188099069
 20
261.4210900146181
 30
0.0
 11
1273.174095545679
 21
261.4210900146181
 31
0.0
  0
LINE
  5
34FA
330
18
100
AcDbEntity
  8
DRAW2
100
AcDbLine
 10
1280.174095545679
 20
261.4210900146181
 30
0.0
 11
1279.62000299229
 21
261.4210900146181
 31
0.0
  0
ARC
  5
34FB
330
18
100
AcDbEntity
  8
DRAW2
100
AcDbCircle
 10
1280.174095545679
 20
261.9210900146181
 30
0.0
 40
0.5
100
AcDbArc
 50
270.0
 51
0.0
  0
LINE
  5
34FC
330
18
100
AcDbEntity
  8
DRAW2
100
AcDbLine
 10
1278.380835503474
 20
264.0574536509818
 30
0.0
 11
1274.967355587885
 21
264.0574536509818
 31
0.0
  0
LINE
  5
34FD
330
18
100
AcDbEntity
  8
DRAW2
100
AcDbLine
 10
1279.17409554568
 20
264.4210900146181
 30
0.0
 11
1274.174095545679
 21
264.4210900146181
 31
0.0
  0
ARC
  5
34FE
330
18
100
AcDbEntity
  8
DRAW2
100
AcDbCircle
 10
1274.174095545679
 20
264.9210900146182
 30
0.0
 40
0.5
100
AcDbArc
 50
180.0
 51
270.0
  0
ARC
  5
34FF
330
18
100
AcDbEntity
  8
DRAW2
100
AcDbCircle
 10
1274.967355587885
 20
263.5574536509817
 30
0.0
 40
0.5
100
AcDbArc
 50
90.0
 51
161.5650511770748
  0
ARC
  5
3500
330
18
100
AcDbEntity
  8
DRAW2
100
AcDbCircle
 10
1279.17409554568
 20
264.9210900146182
 30
0.0
 40
0.5
100
AcDbArc
 50
270.0
 51
0.0
  0
ARC
  5
3501
330
18
100
AcDbEntity
  8
DRAW2
100
AcDbCircle
 10
1278.380835503474
 20
263.5574536509817
 30
0.0
 40
0.5
100
AcDbArc
 50
18.4349488229251
 51
90.0
  0
LINE
  5
3502
330
18
100
AcDbEntity
  8
DRAW2
100
AcDbLine
 10
1280.67409554568
 20
261.9210900146181
 30
0.0
 11
1280.67409554568
 21
272.4210900146181
 31
0.0
  0
LINE
  5
3503
330
18
100
AcDbEntity
  8
DRAW2
100
AcDbLine
 10
1279.674095545679
 20
264.9210900146182
 30
0.0
 11
1279.674095545679
 21
272.4210900146181
 31
0.0
  0
LINE
  5
3504
330
18
100
AcDbEntity
  8
DRAW2
100
AcDbLine
 10
1273.67409554568
 20
264.9210900146182
 30
0.0
 11
1273.67409554568
 21
272.4210900146181
 31
0.0
  0
ARC
  5
3505
330
18
100
AcDbEntity
  8
DRAW2
100
AcDbCircle
 10
1271.67409554568
 20
271.9210900146181
 30
0.0
 40
1.0
100
AcDbArc
 50
90.0
 51
180.0
  0
LINE
  5
3506
330
18
100
AcDbEntity
  8
DRAW2
100
AcDbLine
 10
1271.67409554568
 20
273.4210900146182
 30
0.0
 11
1271.67409554568
 21
272.9210900146181
 31
0.0
  0
ARC
  5
3507
330
18
100
AcDbEntity
  8
DRAW2
100
AcDbCircle
 10
1272.67409554568
 20
273.4210900146182
 30
0.0
 40
1.0
100
AcDbArc
 50
90.0
 51
180.0
  0
LINE
  5
3508
330
18
100
AcDbEntity
  8
DRAW2
100
AcDbLine
 10
1272.67409554568
 20
263.4210900146181
 30
0.0
 11
1269.674095545679
 21
263.4210900146181
 31
0.0
  0
ARC
  5
3509
330
18
100
AcDbEntity
  8
DRAW2
100
AcDbCircle
 10
1269.674095545679
 20
262.4210900146181
 30
0.0
 40
1.0
100
AcDbArc
 50
90.0
 51
180.0
  0
LINE
  5
350A
330
18
100
AcDbEntity
  8
DRAW2
100
AcDbLine
 10
1268.674095545679
 20
262.4210900146181
 30
0.0
 11
1268.674095545679
 21
258.4210900146181
 31
0.0
  0
LINE
  5
350B
330
18
100
AcDbEntity
  8
DRAW2
100
AcDbLine
 10
1272.67409554568
 20
261.9210900146181
 30
0.0
 11
1272.67409554568
 21
272.4210900146181
 31
0.0
  0
LINE
  5
350C
330
18
100
AcDbEntity
  8
DRAW2
100
AcDbLine
 10
1270.674095545679
 20
271.9210900146181
 30
0.0
 11
1270.674095545679
 21
263.4210900146181
 31
0.0
  0
ARC
  5
350D
330
18
100
AcDbEntity
  8
DRAW2
100
AcDbCircle
 10
1269.674095545679
 20
258.4210900146181
 30
0.0
 40
1.0
100
AcDbArc
 50
180.0
 51
270.0
  0
ARC
  5
350E
330
18
100
AcDbEntity
  8
DRAW2
100
AcDbCircle
 10
1273.174095545679
 20
261.9210900146181
 30
0.0
 40
0.5
100
AcDbArc
 50
180.0
 51
270.0
  0
LINE
  5
350F
330
18
100
AcDbEntity
  8
DRAW2
100
AcDbLine
 10
1281.67409554568
 20
272.9210900146181
 30
0.0
 11
1271.67409554568
 21
272.9210900146181
 31
0.0
  0
LINE
  5
3510
330
18
100
AcDbEntity
  8
DRAW2
100
AcDbLine
 10
1280.67409554568
 20
274.4210900146181
 30
0.0
 11
1272.67409554568
 21
274.4210900146181
 31
0.0
  0
ARC
  5
3511
330
18
100
AcDbEntity
  8
DRAW2
100
AcDbCircle
 10
1273.174095545679
 20
272.4210900146181
 30
0.0
 40
0.5
100
AcDbArc
 50
90.0
 51
180.0
  0
ARC
  5
3512
330
18
100
AcDbEntity
  8
DRAW2
100
AcDbCircle
 10
1283.67409554568
 20
262.4210900146181
 30
0.0
 40
1.0
100
AcDbArc
 50
0.0
 51
90.0
  0
LINE
  5
3513
330
18
100
AcDbEntity
  8
DRAW2
100
AcDbLine
 10
1284.674095545679
 20
262.4210900146181
 30
0.0
 11
1284.674095545679
 21
258.4210900146181
 31
0.0
  0
LINE
  5
3514
330
18
100
AcDbEntity
  8
DRAW2
100
AcDbLine
 10
1282.674095545679
 20
271.9210900146181
 30
0.0
 11
1282.674095545679
 21
263.4210900146181
 31
0.0
  0
ARC
  5
3515
330
18
100
AcDbEntity
  8
DRAW2
100
AcDbCircle
 10
1283.67409554568
 20
258.4210900146181
 30
0.0
 40
1.0
100
AcDbArc
 50
270.0
 51
0.0
  0
LINE
  5
3516
330
18
100
AcDbEntity
  8
DRAW3
100
AcDbLine
 10
1324.254475545679
 20
267.7396050146182
 30
0.0
 11
1322.254475545679
 21
267.7396050146182
 31
0.0
  0
LINE
  5
3517
330
18
100
AcDbEntity
  8
DRAW3
100
AcDbLine
 10
1322.254475545679
 20
274.4896050146181
 30
0.0
 11
1324.254475545679
 21
274.4896050146181
 31
0.0
  0
LINE
  5
3518
330
18
100
AcDbEntity
  8
DRAW2
100
AcDbLine
 10
1330.754475545679
 20
278.4145888002758
 30
0.0
 11
1330.754475545679
 21
263.8146132002757
 31
0.0
  0
LINE
  5
3519
330
18
100
AcDbEntity
  8
DRAW2
100
AcDbLine
 10
1324.254605545679
 20
275.1145700146181
 30
0.0
 11
1322.254475545679
 21
275.1145700146181
 31
0.0
  0
LINE
  5
351A
330
18
100
AcDbEntity
  8
DRAW2
100
AcDbLine
 10
1324.254605545679
 20
267.1145700146181
 30
0.0
 11
1322.254475545679
 21
267.1145700146181
 31
0.0
  0
LINE
  5
351B
330
18
100
AcDbEntity
  8
DRAW2
100
AcDbLine
 10
1246.254476016918
 20
300.421030014618
 30
0.0
 11
1325.254416016918
 21
300.421030014618
 31
0.0
  0
LINE
  5
351C
330
18
100
AcDbEntity
  8
DRAW2
100
AcDbLine
 10
1246.254476331077
 20
323.4210600146184
 30
0.0
 11
1325.254416069278
 21
323.4210600146183
 31
0.0
  0
LINE
  5
351D
330
18
100
AcDbEntity
  8
DRAW2
100
AcDbLine
 10
1251.254475545679
 20
279.4210900146179
 30
0.0
 11
1299.554465545679
 21
279.4210301628596
 31
0.0
  0
ARC
  5
351E
330
18
100
AcDbEntity
  8
DRAW2
100
AcDbCircle
 10
1246.254475545679
 20
324.9210600146182
 30
0.0
 40
1.5
100
AcDbArc
 50
179.9999799999978
 51
270.0000299999965
  0
ARC
  5
351F
330
18
100
AcDbEntity
  8
DRAW2
100
AcDbCircle
 10
1207.254535545679
 20
323.9211200146181
 30
0.0
 40
1.5
100
AcDbArc
 50
89.99998200000083
 51
179.9999599999992
  0
LINE
  5
3521
330
18
100
AcDbEntity
  8
DRAW2
100
AcDbLine
 10
1205.254475545679
 20
298.4211800146181
 30
0.0
 11
1244.754475545679
 21
298.4211777636526
 31
0.0
  0
LINE
  5
3522
330
18
100
AcDbEntity
  8
DRAW2
100
AcDbLine
 10
1205.254475545679
 20
290.4210600146182
 30
0.0
 11
1240.754475545679
 21
290.4210600146182
 31
0.0
  0
LINE
  5
3523
330
18
100
AcDbEntity
  8
DRAW2
100
AcDbLine
 10
1205.754415545679
 20
323.9210600146182
 30
0.0
 11
1205.754415545679
 21
298.4210600146182
 31
0.0
  0
LINE
  5
3524
330
18
100
AcDbEntity
  8
DRAW2
100
AcDbLine
 10
1221.254355545679
 20
289.6460900146181
 30
0.0
 11
1229.254475545679
 21
289.6460900146181
 31
0.0
  0
LINE
  5
3525
330
18
100
AcDbEntity
  8
DRAW2
100
AcDbLine
 10
1221.879415545679
 20
289.0210900146181
 30
0.0
 11
1228.629415545679
 21
289.0210900146181
 31
0.0
  0
LINE
  5
3526
330
18
100
AcDbEntity
  8
DRAW3
100
AcDbLine
 10
1221.879415545679
 20
290.4210600146182
 30
0.0
 11
1221.879415545679
 21
289.0210900146181
 31
0.0
  0
LINE
  5
3527
330
18
100
AcDbEntity
  8
DRAW2
100
AcDbLine
 10
1221.254355545679
 20
290.4210600146182
 30
0.0
 11
1221.254355545679
 21
289.6460900146181
 31
0.0
  0
LINE
  5
3528
330
18
100
AcDbEntity
  8
DRAW2
100
AcDbLine
 10
1221.254415545679
 20
289.6460900146181
 30
0.0
 11
1221.879355545679
 21
289.0210900146181
 31
0.0
  0
LINE
  5
3529
330
18
100
AcDbEntity
  8
DRAW3
100
AcDbLine
 10
1228.629415545679
 20
290.4210600146182
 30
0.0
 11
1228.629415545679
 21
289.0210900146181
 31
0.0
  0
LINE
  5
352A
330
18
100
AcDbEntity
  8
DRAW2
100
AcDbLine
 10
1229.254475545679
 20
290.4210600146182
 30
0.0
 11
1229.254475545679
 21
289.6460900146181
 31
0.0
  0
LINE
  5
352B
330
18
100
AcDbEntity
  8
DRAW2
100
AcDbLine
 10
1229.254475545679
 20
289.6460300146181
 30
0.0
 11
1228.629475545679
 21
289.0210300146181
 31
0.0
  0
ARC
  5
352C
330
18
100
AcDbEntity
  8
DRAW2
100
AcDbCircle
 10
1259.065755545679
 20
311.9210900146181
 30
0.0
 40
18.35924
100
AcDbArc
 50
141.2158799999984
 51
218.7840999999965
  0
ARC
  5
352D
330
18
100
AcDbEntity
  8
DRAW2
100
AcDbCircle
 10
1246.254475545679
 20
298.9210300146181
 30
0.0
 40
1.5
100
AcDbArc
 50
89.99998200000083
 51
179.9999599999992
  0
LINE
  5
352E
330
18
100
AcDbEntity
  8
DRAW2
100
AcDbLine
 10
1244.754475545679
 20
298.9210300146181
 30
0.0
 11
1244.754475545679
 21
298.4210600146182
 31
0.0
  0
LINE
  5
352F
330
18
100
AcDbEntity
  8
DRAW2
100
AcDbLine
 10
1244.254535545679
 20
288.4210900146181
 30
0.0
 11
1247.254475545679
 21
288.4210900146181
 31
0.0
  0
LINE
  5
3530
330
18
100
AcDbEntity
  8
DRAW2
100
AcDbLine
 10
1241.754475545679
 20
288.4210900146181
 30
0.0
 11
1243.254535545679
 21
288.4210900146181
 31
0.0
  0
LINE
  5
3531
330
18
100
AcDbEntity
  8
DRAW2
100
AcDbLine
 10
1241.754475545679
 20
290.4210600146182
 30
0.0
 11
1243.254535545679
 21
290.4210600146182
 31
0.0
  0
LINE
  5
3532
330
18
100
AcDbEntity
  8
DRAW2
100
AcDbLine
 10
1244.254535545679
 20
298.4211800146181
 30
0.0
 11
1244.254535545679
 21
288.4210900146181
 31
0.0
  0
LINE
  5
3533
330
18
100
AcDbEntity
  8
DRAW2
100
AcDbLine
 10
1234.235005545679
 20
278.6202200146182
 30
0.0
 11
1239.154375545679
 21
278.6202200146182
 31
0.0
  0
LINE
  5
3534
330
18
100
AcDbEntity
  8
DRAW2
100
AcDbLine
 10
1239.154375545679
 20
278.8645700146179
 30
0.0
 11
1240.754415545679
 21
278.8645700146179
 31
0.0
  0
LINE
  5
3535
330
18
100
AcDbEntity
  8
DRAW2
100
AcDbLine
 10
1251.254475545679
 20
279.4210900146179
 30
0.0
 11
1255.824975545679
 21
279.4210300146181
 31
0.0
  0
LINE
  5
3536
330
18
100
AcDbEntity
  8
DRAW2
100
AcDbLine
 10
1217.504415545679
 20
327.0211000146181
 30
0.0
 11
1233.004415545679
 21
327.0211000146181
 31
0.0
  0
LINE
  5
3537
330
18
100
AcDbEntity
  8
DRAW2
100
AcDbLine
 10
1207.254535545679
 20
325.4211200146181
 30
0.0
 11
1244.254475545679
 21
325.4211200146181
 31
0.0
  0
LINE
  5
3538
330
18
100
AcDbEntity
  8
DRAW2
100
AcDbLine
 10
1232.554465545679
 20
329.0211600146182
 30
0.0
 11
1232.554465545679
 21
327.021130014618
 31
0.0
  0
LINE
  5
3539
330
18
100
AcDbEntity
  8
DRAW2
100
AcDbLine
 10
1232.760025545679
 20
333.9405800146181
 30
0.0
 11
1232.760025545679
 21
329.0211300146181
 31
0.0
  0
LINE
  5
353A
330
18
100
AcDbEntity
  8
DRAW2
100
AcDbLine
 10
1224.388325545679
 20
329.0208200146181
 30
0.0
 11
1225.543045545679
 21
327.0207900146181
 31
0.0
  0
LINE
  5
353B
330
18
100
AcDbEntity
  8
DRAW2
100
AcDbLine
 10
1224.965715545679
 20
329.0208200146181
 30
0.0
 11
1226.120385545679
 21
327.0209100146182
 31
0.0
  0
LINE
  5
353C
330
18
100
AcDbEntity
  8
DRAW2
100
AcDbLine
 10
1229.007255545679
 20
333.9405900146181
 30
0.0
 11
1229.007255545679
 21
329.0211300146181
 31
0.0
  0
LINE
  5
353D
330
18
100
AcDbEntity
  8
DRAW2
100
AcDbLine
 10
1217.954545545679
 20
329.0211600146182
 30
0.0
 11
1217.954545545679
 21
327.021130014618
 31
0.0
  0
LINE
  5
353E
330
18
100
AcDbEntity
  8
DRAW2
100
AcDbLine
 10
1217.504415545679
 20
327.021130014618
 30
0.0
 11
1217.504415545679
 21
325.4210600146182
 31
0.0
  0
ARC
  5
353F
330
18
100
AcDbEntity
  8
DRAW2
100
AcDbCircle
 10
1219.625305545679
 20
331.1984700146181
 30
0.0
 40
3.3226678
100
AcDbArc
 50
55.61685400000246
 51
115.6144799999999
  0
LINE
  5
3540
330
18
100
AcDbEntity
  8
DRAW2
100
AcDbLine
 10
1217.748915545679
 20
333.9405700146181
 30
0.0
 11
1218.754435545679
 21
334.5211100146181
 31
0.0
  0
LINE
  5
3541
330
18
100
AcDbEntity
  8
DRAW2
100
AcDbLine
 10
1217.748925545679
 20
333.9405900146181
 30
0.0
 11
1217.748925545679
 21
329.0211300146181
 31
0.0
  0
LINE
  5
3542
330
18
100
AcDbEntity
  8
DRAW2
100
AcDbLine
 10
1221.501695545679
 20
333.9405900146181
 30
0.0
 11
1221.501695545679
 21
329.0211300146181
 31
0.0
  0
ARC
  5
3543
330
18
100
AcDbEntity
  8
DRAW2
100
AcDbCircle
 10
1225.254475545679
 20
322.1012700146181
 30
0.0
 40
12.419868
100
AcDbArc
 50
72.41265499999849
 51
107.5873599999995
  0
LINE
  5
3544
330
18
100
AcDbEntity
  8
DRAW2
100
AcDbLine
 10
1218.754445545679
 20
334.5211300146181
 30
0.0
 11
1231.754475545679
 21
334.5211300146181
 31
0.0
  0
LINE
  5
3545
330
18
100
AcDbEntity
  8
DRAW2
100
AcDbLine
 10
1217.748925545679
 20
329.0211300146181
 30
0.0
 11
1232.760025545679
 21
329.0211300146181
 31
0.0
  0
ARC
  5
3546
330
18
100
AcDbEntity
  8
DRAW2
100
AcDbCircle
 10
1230.883645545679
 20
331.1985300146182
 30
0.0
 40
3.322595799999998
100
AcDbArc
 50
64.38320700000068
 51
124.3839100000021
  0
LINE
  5
3547
330
18
100
AcDbEntity
  8
DRAW2
100
AcDbLine
 10
1231.754455545679
 20
334.5211300146181
 30
0.0
 11
1232.760025545679
 21
333.9405600146182
 31
0.0
  0
ARC
  5
3548
330
18
100
AcDbEntity
  8
DRAW2
100
AcDbCircle
 10
1244.254475545679
 20
324.9210600146182
 30
0.0
 40
0.5
100
AcDbArc
 50
0.0
 51
89.99998200000083
  0
ARC
  5
3549
330
18
100
AcDbEntity
  8
DRAW2
100
AcDbCircle
 10
1244.254415545679
 20
324.9210600146182
 30
0.0
 40
0.5
100
AcDbArc
 50
0.0
 51
89.99998200000083
  0
LINE
  5
354A
330
18
100
AcDbEntity
  8
DRAW2
100
AcDbLine
 10
1233.004415545679
 20
327.021130014618
 30
0.0
 11
1233.004415545679
 21
325.4210600146182
 31
0.0
  0
ARC
  5
354B
330
18
100
AcDbEntity
  8
DRAW2
100
AcDbCircle
 10
1325.254415545679
 20
324.9210600146182
 30
0.0
 40
1.5
100
AcDbArc
 50
270.0000199999954
 51
0.0
  0
ARC
  5
354C
330
18
100
AcDbEntity
  8
DRAW2
100
AcDbCircle
 10
1312.443135545679
 20
311.9210900146181
 30
0.0
 40
18.35924
100
AcDbArc
 50
321.2158799999983
 51
38.78409900000267
  0
LINE
  5
354D
330
18
100
AcDbEntity
  8
DRAW2
100
AcDbLine
 10
1301.554465545679
 20
279.4210301628596
 30
0.0
 11
1322.254475545679
 21
279.421030014618
 31
0.0
  0
LINE
  5
354E
330
18
100
AcDbEntity
  8
DRAW2
100
AcDbLine
 10
1299.554465545679
 20
279.1709101628597
 30
0.0
 11
1301.554465545679
 21
279.1709101628597
 31
0.0
  0
ARC
  5
354F
330
18
100
AcDbEntity
  8
DRAW2
100
AcDbCircle
 10
1325.254415545679
 20
298.9210300146181
 30
0.0
 40
1.5
100
AcDbArc
 50
0.0
 51
89.99998200000083
  0
LINE
  5
3550
330
18
100
AcDbEntity
  8
DRAW2
100
AcDbLine
 10
1328.249965545679
 20
298.4210600146182
 30
0.0
 11
1328.500025545679
 21
298.4210600146182
 31
0.0
  0
LINE
  5
3551
330
18
100
AcDbEntity
  8
DRAW2
100
AcDbLine
 10
1326.754415545679
 20
298.9210300146181
 30
0.0
 11
1326.754415545679
 21
298.4210600146182
 31
0.0
  0
LINE
  5
3552
330
18
100
AcDbEntity
  8
DRAW2
100
AcDbLine
 10
1329.754475545679
 20
290.4211510002754
 30
0.0
 11
1328.254415545679
 21
290.4211510002754
 31
0.0
  0
LINE
  5
3553
330
18
100
AcDbEntity
  8
DRAW2
100
AcDbLine
 10
1329.754475545679
 20
288.4211210002756
 30
0.0
 11
1328.254415545679
 21
288.4211210002756
 31
0.0
  0
LINE
  5
3554
330
18
100
AcDbEntity
  8
DRAW2
100
AcDbLine
 10
1327.254475545679
 20
288.4210910002757
 30
0.0
 11
1324.254475545679
 21
288.4210910002757
 31
0.0
  0
LINE
  5
3555
330
18
100
AcDbEntity
  8
DRAW2
100
AcDbLine
 10
1327.254415545679
 20
288.4210910002757
 30
0.0
 11
1327.254415545679
 21
298.4210610002758
 31
0.0
  0
ARC
  5
3556
330
18
100
AcDbEntity
  8
DRAW2
100
AcDbCircle
 10
1327.254415545679
 20
324.9210600146182
 30
0.0
 40
0.5
100
AcDbArc
 50
89.99998200000083
 51
179.9999599999992
  0
LINE
  5
3557
330
18
100
AcDbEntity
  8
DRAW2
100
AcDbLine
 10
1338.673915845679
 20
278.6201666002757
 30
0.0
 11
1339.254455445679
 21
277.6146425002758
 31
0.0
  0
LINE
  5
3558
330
18
100
AcDbEntity
  8
DRAW2
100
AcDbLine
 10
1332.754475545679
 20
278.6201552002757
 30
0.0
 11
1332.754475545679
 21
263.6090468002758
 31
0.0
  0
LINE
  5
3559
330
18
100
AcDbEntity
  8
DRAW2
100
AcDbLine
 10
1366.254475545679
 20
258.4210610002758
 30
0.0
 11
1366.254475545679
 21
298.4210610002758
 31
0.0
  0
LINE
  5
355A
330
18
100
AcDbEntity
  8
DRAW2
100
AcDbLine
 10
1357.254475545679
 20
197.6342610002757
 30
0.0
 11
1357.254475545679
 21
237.2079010002758
 31
0.0
  0
ARC
  5
355B
330
18
100
AcDbEntity
  8
DRAW2
100
AcDbCircle
 10
1367.254415545679
 20
197.6342910002755
 30
0.0
 40
10.0
100
AcDbArc
 50
179.9999899999988
 51
225.97951
  0
LINE
  5
355C
330
18
100
AcDbEntity
  8
DRAW2
100
AcDbLine
 10
1338.673939645679
 20
221.1738681002757
 30
0.0
 11
1332.754475545679
 21
221.1738681002757
 31
0.0
  0
LINE
  5
355D
330
18
100
AcDbEntity
  8
DRAW2
100
AcDbLine
 10
1338.673939645679
 20
224.9266452002757
 30
0.0
 11
1332.754475545679
 21
224.9266452002757
 31
0.0
  0
ARC
  5
355E
330
18
100
AcDbEntity
  8
DRAW2
100
AcDbCircle
 10
1335.931813245679
 20
223.0502566002757
 30
0.0
 40
3.3226678
100
AcDbArc
 50
325.6168539999997
 51
25.61447999999997
  0
LINE
  5
355F
330
18
100
AcDbEntity
  8
DRAW2
100
AcDbLine
 10
1338.673915845679
 20
224.9266566002757
 30
0.0
 11
1339.254455445679
 21
223.9211325002758
 31
0.0
  0
LINE
  5
3560
330
18
100
AcDbEntity
  8
DRAW2
100
AcDbLine
 10
1343.529375545679
 20
221.4210950146182
 30
0.0
 11
1344.154375545679
 21
220.7961350146183
 31
0.0
  0
LINE
  5
3561
330
18
100
AcDbEntity
  8
DRAW3
100
AcDbLine
 10
1344.154375545679
 20
220.7960950146181
 30
0.0
 11
1339.254475445679
 21
220.7960950146181
 31
0.0
  0
LINE
  5
3562
330
18
100
AcDbEntity
  8
DRAW2
100
AcDbLine
 10
1343.529375545679
 20
221.4210850146183
 30
0.0
 11
1339.254475445679
 21
221.4210850146184
 31
0.0
  0
LINE
  5
3563
330
18
100
AcDbEntity
  8
DRAW2
100
AcDbLine
 10
1338.673939645679
 20
213.6683139002757
 30
0.0
 11
1332.754475545679
 21
213.6683139002757
 31
0.0
  0
LINE
  5
3564
330
18
100
AcDbEntity
  8
DRAW2
100
AcDbLine
 10
1338.673924445679
 20
209.9155368002757
 30
0.0
 11
1332.754475545679
 21
209.9155368002757
 31
0.0
  0
ARC
  5
3565
330
18
100
AcDbEntity
  8
DRAW2
100
AcDbCircle
 10
1335.931874245679
 20
211.7919254002757
 30
0.0
 40
3.322595799999999
100
AcDbArc
 50
334.3832069999999
 51
34.38391000000086
  0
LINE
  5
3566
330
18
100
AcDbEntity
  8
DRAW2
100
AcDbLine
 10
1339.254470445679
 20
210.9210934002757
 30
0.0
 11
1338.673904345679
 21
209.9155230002757
 31
0.0
  0
LINE
  5
3567
330
18
100
AcDbEntity
  8
DRAW2
100
AcDbLine
 10
1343.529435545679
 20
213.4210550146183
 30
0.0
 11
1344.154435545679
 21
214.0460550146181
 31
0.0
  0
LINE
  5
3568
330
18
100
AcDbEntity
  8
DRAW3
100
AcDbLine
 10
1344.154375545679
 20
214.0460950146182
 30
0.0
 11
1339.254475445679
 21
214.0460950146182
 31
0.0
  0
LINE
  5
3569
330
18
100
AcDbEntity
  8
DRAW2
100
AcDbLine
 10
1343.529375545679
 20
213.4210950146181
 30
0.0
 11
1339.254475445679
 21
213.4210950146181
 31
0.0
  0
ARC
  5
356A
330
18
100
AcDbEntity
  8
DRAW2
100
AcDbCircle
 10
1326.834614745679
 20
217.4210910002757
 30
0.0
 40
12.419868
100
AcDbArc
 50
342.412655
 51
17.58735999999965
  0
LINE
  5
356B
330
18
100
AcDbEntity
  8
DRAW2
100
AcDbLine
 10
1332.754475545679
 20
224.9266452002757
 30
0.0
 11
1332.754475545679
 21
209.9155368002757
 31
0.0
  0
LINE
  5
356C
330
18
100
AcDbEntity
  8
DRAW2
100
AcDbLine
 10
1339.254475445679
 20
223.9211215002757
 30
0.0
 11
1339.254475445679
 21
210.9210910002757
 31
0.0
  0
LINE
  5
356D
330
18
100
AcDbEntity
  8
DRAW2
100
AcDbLine
 10
1343.529375545679
 20
213.4210950146181
 30
0.0
 11
1343.529375545679
 21
221.4210850146183
 31
0.0
  0
LINE
  5
356E
330
18
100
AcDbEntity
  8
DRAW2
100
AcDbLine
 10
1344.154375545679
 20
214.0460950146182
 30
0.0
 11
1344.154375545679
 21
220.7960950146181
 31
0.0
  0
ARC
  5
356F
330
18
100
AcDbEntity
  8
DRAW2
100
AcDbCircle
 10
1346.754475545679
 20
258.4210610002758
 30
0.0
 40
19.50000199999998
100
AcDbArc
 50
314.0204899999999
 51
359.9999599999991
  0
ARC
  5
3570
330
18
100
AcDbEntity
  8
DRAW2
100
AcDbCircle
 10
1367.254415545679
 20
237.2079010002758
 30
0.0
 40
10.0
100
AcDbArc
 50
134.0204300000015
 51
179.999949999998
  0
LINE
  5
3571
330
18
100
AcDbEntity
  8
DRAW2
100
AcDbLine
 10
1338.673939645679
 20
274.8673781002758
 30
0.0
 11
1332.754475545679
 21
274.8673781002758
 31
0.0
  0
ARC
  5
3572
330
18
100
AcDbEntity
  8
DRAW2
100
AcDbCircle
 10
1335.931813245679
 20
276.7437666002757
 30
0.0
 40
3.3226678
100
AcDbArc
 50
325.6168539999997
 51
25.61447999999997
  0
LINE
  5
3573
330
18
100
AcDbEntity
  8
DRAW2
100
AcDbLine
 10
1343.529375545679
 20
275.1146050146182
 30
0.0
 11
1344.154375545679
 21
274.4896450146183
 31
0.0
  0
LINE
  5
3574
330
18
100
AcDbEntity
  8
DRAW3
100
AcDbLine
 10
1344.154375545679
 20
274.4896050146181
 30
0.0
 11
1339.254475445679
 21
274.4896050146181
 31
0.0
  0
LINE
  5
3575
330
18
100
AcDbEntity
  8
DRAW2
100
AcDbLine
 10
1343.529375545679
 20
275.1145950146184
 30
0.0
 11
1339.254475445679
 21
275.1145950146184
 31
0.0
  0
LINE
  5
3576
330
18
100
AcDbEntity
  8
DRAW2
100
AcDbLine
 10
1338.673939645679
 20
267.3618239002757
 30
0.0
 11
1332.754475545679
 21
267.3618239002757
 31
0.0
  0
LINE
  5
3577
330
18
100
AcDbEntity
  8
DRAW2
100
AcDbLine
 10
1338.673924445679
 20
263.6090468002758
 30
0.0
 11
1332.754475545679
 21
263.6090468002758
 31
0.0
  0
ARC
  5
3578
330
18
100
AcDbEntity
  8
DRAW2
100
AcDbCircle
 10
1335.931874245679
 20
265.4854354002758
 30
0.0
 40
3.322595799999999
100
AcDbArc
 50
334.3832069999999
 51
34.38391000000086
  0
LINE
  5
3579
330
18
100
AcDbEntity
  8
DRAW2
100
AcDbLine
 10
1339.254470445679
 20
264.6146034002757
 30
0.0
 11
1338.673904345679
 21
263.6090330002757
 31
0.0
  0
LINE
  5
357A
330
18
100
AcDbEntity
  8
DRAW2
100
AcDbLine
 10
1343.529435545679
 20
267.1145650146183
 30
0.0
 11
1344.154435545679
 21
267.7395650146181
 31
0.0
  0
LINE
  5
357B
330
18
100
AcDbEntity
  8
DRAW3
100
AcDbLine
 10
1344.154375545679
 20
267.7396050146182
 30
0.0
 11
1339.254475445679
 21
267.7396050146182
 31
0.0
  0
LINE
  5
357C
330
18
100
AcDbEntity
  8
DRAW2
100
AcDbLine
 10
1343.529375545679
 20
267.1146050146181
 30
0.0
 11
1339.254475445679
 21
267.1146050146181
 31
0.0
  0
ARC
  5
357D
330
18
100
AcDbEntity
  8
DRAW2
100
AcDbCircle
 10
1326.834614745679
 20
271.1146010002758
 30
0.0
 40
12.419868
100
AcDbArc
 50
342.412655
 51
17.58735999999965
  0
LINE
  5
357E
330
18
100
AcDbEntity
  8
DRAW2
100
AcDbLine
 10
1339.254475445679
 20
277.6146315002757
 30
0.0
 11
1339.254475445679
 21
264.6146010002758
 31
0.0
  0
LINE
  5
357F
330
18
100
AcDbEntity
  8
DRAW2
100
AcDbLine
 10
1343.529375545679
 20
267.1146050146181
 30
0.0
 11
1343.529375545679
 21
275.1145950146184
 31
0.0
  0
LINE
  5
3580
330
18
100
AcDbEntity
  8
DRAW2
100
AcDbLine
 10
1344.154375545679
 20
267.7396050146182
 30
0.0
 11
1344.154375545679
 21
274.4896050146181
 31
0.0
  0
LINE
  5
3581
330
18
100
AcDbEntity
  8
DRAW2
100
AcDbLine
 10
1388.094195545679
 20
297.421030014618
 30
0.0
 11
1410.254415545679
 21
297.421030014618
 31
0.0
  0
LINE
  5
3582
330
18
100
AcDbEntity
  8
DRAW2
100
AcDbLine
 10
1388.094195545679
 20
326.421060014618
 30
0.0
 11
1410.254415545679
 21
326.421060014618
 31
0.0
  0
LINE
  5
3584
330
18
100
AcDbEntity
  8
DRAW2
100
AcDbLine
 10
1382.718525545679
 20
324.0909800146178
 30
0.0
 11
1385.594195545679
 21
325.7512300146179
 31
0.0
  0
ARC
  5
3585
330
18
100
AcDbEntity
  8
DRAW2
100
AcDbCircle
 10
1367.254415545679
 20
324.9210600146182
 30
0.0
 40
1.5
100
AcDbArc
 50
179.9999799999978
 51
270.0000299999965
  0
LINE
  5
3586
330
18
100
AcDbEntity
  8
DRAW2
100
AcDbLine
 10
1386.800125545679
 20
298.4210600146181
 30
0.0
 11
1386.800125545679
 21
325.4210600146181
 31
0.0
  0
ARC
  5
3587
330
18
100
AcDbEntity
  8
DRAW2
100
AcDbCircle
 10
1380.065695545679
 20
311.9210900146181
 30
0.0
 40
18.35924
100
AcDbArc
 50
141.2159000000031
 51
218.7841099999955
  0
LINE
  5
3588
330
18
100
AcDbEntity
  8
DRAW2
100
AcDbLine
 10
1342.879445545679
 20
289.0210900146181
 30
0.0
 11
1349.629445545679
 21
289.0210900146181
 31
0.0
  0
LINE
  5
3589
330
18
100
AcDbEntity
  8
DRAW2
100
AcDbLine
 10
1342.254385545679
 20
289.6460900146181
 30
0.0
 11
1350.254505545679
 21
289.6460900146181
 31
0.0
  0
LINE
  5
358A
330
18
100
AcDbEntity
  8
DRAW2
100
AcDbLine
 10
1338.673939645679
 20
278.6201552002757
 30
0.0
 11
1332.754475545679
 21
278.6201552002757
 31
0.0
  0
LINE
  5
358B
330
18
100
AcDbEntity
  8
DRAW2
100
AcDbLine
 10
1342.254445545679
 20
289.6460900146181
 30
0.0
 11
1342.879385545679
 21
289.0210900146181
 31
0.0
  0
LINE
  5
358C
330
18
100
AcDbEntity
  8
DRAW2
100
AcDbLine
 10
1342.254385545679
 20
290.4210600146182
 30
0.0
 11
1342.254385545679
 21
289.6460900146181
 31
0.0
  0
LINE
  5
358D
330
18
100
AcDbEntity
  8
DRAW3
100
AcDbLine
 10
1342.879445545679
 20
290.4210600146182
 30
0.0
 11
1342.879445545679
 21
289.0210900146181
 31
0.0
  0
LINE
  5
358E
330
18
100
AcDbEntity
  8
DRAW2
100
AcDbLine
 10
1350.254505545679
 20
289.6460300146181
 30
0.0
 11
1349.629505545679
 21
289.0210300146181
 31
0.0
  0
LINE
  5
358F
330
18
100
AcDbEntity
  8
DRAW2
100
AcDbLine
 10
1350.254505545679
 20
290.4210600146182
 30
0.0
 11
1350.254505545679
 21
289.6460900146181
 31
0.0
  0
LINE
  5
3590
330
18
100
AcDbEntity
  8
DRAW3
100
AcDbLine
 10
1349.629445545679
 20
290.4210600146182
 30
0.0
 11
1349.629445545679
 21
289.0210900146181
 31
0.0
  0
LINE
  5
3591
330
18
100
AcDbEntity
  8
DRAW2
100
AcDbLine
 10
1381.512535545679
 20
301.421060014618
 30
0.0
 11
1381.512535545679
 21
322.4210600146181
 31
0.0
  0
ARC
  5
3592
330
18
100
AcDbEntity
  8
DRAW2
100
AcDbCircle
 10
1380.218465545679
 20
295.4210900146181
 30
0.0
 40
5.0
100
AcDbArc
 50
60.000179000004
 51
89.99998200000083
  0
LINE
  5
3593
330
18
100
AcDbEntity
  8
DRAW2
100
AcDbLine
 10
1365.754415545679
 20
300.4210300146181
 30
0.0
 11
1365.754415545679
 21
298.4210600146182
 31
0.0
  0
LINE
  5
3594
330
18
100
AcDbEntity
  8
DRAW2
100
AcDbLine
 10
1365.754415545679
 20
300.4210300146181
 30
0.0
 11
1380.242960369621
 21
300.421030014618
 31
0.0
  0
LINE
  5
3595
330
18
100
AcDbEntity
  8
DRAW2
100
AcDbLine
 10
1382.718465545679
 20
299.751230014618
 30
0.0
 11
1385.594255545679
 21
298.090890014618
 31
0.0
  0
ARC
  5
3596
330
18
100
AcDbEntity
  8
DRAW2
100
AcDbCircle
 10
1388.094195545679
 20
302.4210600146181
 30
0.0
 40
5.0
100
AcDbArc
 50
240.0001599999988
 51
270.0000199999954
  0
ARC
  5
3597
330
18
100
AcDbEntity
  8
DRAW2
100
AcDbCircle
 10
1380.218585545679
 20
328.4210900146181
 30
0.0
 40
5.0
100
AcDbArc
 50
270.0000199999954
 51
300.0000700000018
  0
LINE
  5
3598
330
18
100
AcDbEntity
  8
DRAW2
100
AcDbLine
 10
1367.254415545679
 20
323.4210600146182
 30
0.0
 11
1380.218585545679
 21
323.421090014618
 31
0.0
  0
LINE
  5
3599
330
18
100
AcDbEntity
  8
DRAW2
100
AcDbLine
 10
1339.754445545679
 20
334.521130014618
 30
0.0
 11
1352.754475545679
 21
334.521130014618
 31
0.0
  0
ARC
  5
359A
330
18
100
AcDbEntity
  8
DRAW2
100
AcDbCircle
 10
1346.254475545679
 20
322.1012700146181
 30
0.0
 40
12.419868
100
AcDbArc
 50
72.41265499999849
 51
107.5873599999995
  0
LINE
  5
359B
330
18
100
AcDbEntity
  8
DRAW2
100
AcDbLine
 10
1338.50441554568
 20
327.021100014618
 30
0.0
 11
1354.004415545679
 21
327.021100014618
 31
0.0
  0
LINE
  5
359C
330
18
100
AcDbEntity
  8
DRAW2
100
AcDbLine
 10
1338.748915545679
 20
329.021130014618
 30
0.0
 11
1353.76002554568
 21
329.021130014618
 31
0.0
  0
LINE
  5
359D
330
18
100
AcDbEntity
  8
DRAW2
100
AcDbLine
 10
1345.388325545679
 20
329.020790014618
 30
0.0
 11
1346.543045545679
 21
327.0207600146181
 31
0.0
  0
LINE
  5
359E
330
18
100
AcDbEntity
  8
DRAW2
100
AcDbLine
 10
1345.965715545679
 20
329.0208500146181
 30
0.0
 11
1347.12050554568
 21
327.020700014618
 31
0.0
  0
LINE
  5
359F
330
18
100
AcDbEntity
  8
DRAW2
100
AcDbLine
 10
1338.954485545679
 20
329.0211600146181
 30
0.0
 11
1338.954485545679
 21
327.0211300146179
 31
0.0
  0
LINE
  5
35A0
330
18
100
AcDbEntity
  8
DRAW2
100
AcDbLine
 10
1338.50447554568
 20
327.0211300146179
 30
0.0
 11
1338.50447554568
 21
325.4210600146181
 31
0.0
  0
ARC
  5
35A1
330
18
100
AcDbEntity
  8
DRAW2
100
AcDbCircle
 10
1340.62530554568
 20
331.198470014618
 30
0.0
 40
3.3226678
100
AcDbArc
 50
55.61685400000246
 51
115.6144799999999
  0
LINE
  5
35A2
330
18
100
AcDbEntity
  8
DRAW2
100
AcDbLine
 10
1338.748915545679
 20
333.940570014618
 30
0.0
 11
1339.754435545679
 21
334.521110014618
 31
0.0
  0
LINE
  5
35A3
330
18
100
AcDbEntity
  8
DRAW2
100
AcDbLine
 10
1338.748915545679
 20
333.940590014618
 30
0.0
 11
1338.748915545679
 21
329.021130014618
 31
0.0
  0
LINE
  5
35A4
330
18
100
AcDbEntity
  8
DRAW2
100
AcDbLine
 10
1342.50169554568
 20
333.940590014618
 30
0.0
 11
1342.50169554568
 21
329.021130014618
 31
0.0
  0
LINE
  5
35A5
330
18
100
AcDbEntity
  8
DRAW2
100
AcDbLine
 10
1353.55446554568
 20
329.0211600146181
 30
0.0
 11
1353.55446554568
 21
327.0211300146179
 31
0.0
  0
LINE
  5
35A6
330
18
100
AcDbEntity
  8
DRAW2
100
AcDbLine
 10
1354.004475545679
 20
327.0211300146179
 30
0.0
 11
1354.004475545679
 21
325.4210600146181
 31
0.0
  0
LINE
  5
35A7
330
18
100
AcDbEntity
  8
DRAW2
100
AcDbLine
 10
1353.76002554568
 20
333.940580014618
 30
0.0
 11
1353.76002554568
 21
329.021130014618
 31
0.0
  0
LINE
  5
35A8
330
18
100
AcDbEntity
  8
DRAW2
100
AcDbLine
 10
1350.007255545679
 20
333.940590014618
 30
0.0
 11
1350.007255545679
 21
329.021130014618
 31
0.0
  0
ARC
  5
35A9
330
18
100
AcDbEntity
  8
DRAW2
100
AcDbCircle
 10
1351.883635545679
 20
331.1985300146181
 30
0.0
 40
3.322595799999998
100
AcDbArc
 50
64.38320700000068
 51
124.3839100000021
  0
LINE
  5
35AA
330
18
100
AcDbEntity
  8
DRAW2
100
AcDbLine
 10
1352.75445554568
 20
334.521130014618
 30
0.0
 11
1353.76002554568
 21
333.9405600146181
 31
0.0
  0
ARC
  5
35AB
330
18
100
AcDbEntity
  8
DRAW2
100
AcDbCircle
 10
1365.254415545679
 20
324.9210600146182
 30
0.0
 40
0.5
100
AcDbArc
 50
0.0
 51
89.99998200000083
  0
ARC
  5
35AC
330
18
100
AcDbEntity
  8
DRAW2
100
AcDbCircle
 10
1388.094195545679
 20
321.421120014618
 30
0.0
 40
5.0
100
AcDbArc
 50
89.99998200000083
 51
120.0000899999952
  0
LINE
  5
35AD
330
18
100
AcDbEntity
  8
DRAW2
100
AcDbLine
 10
1411.754415545679
 20
324.9210600146181
 30
0.0
 11
1411.754415545679
 21
298.921030014618
 31
0.0
  0
ARC
  5
35AE
330
18
100
AcDbEntity
  8
DRAW2
100
AcDbCircle
 10
1410.254415545679
 20
298.921030014618
 30
0.0
 40
1.5
100
AcDbArc
 50
270.0000199999954
 51
0.0
  0
ARC
  5
35B0
330
18
100
AcDbEntity
  8
DRAW2
100
AcDbCircle
 10
1410.254415545679
 20
324.9210600146181
 30
0.0
 40
1.5
100
AcDbArc
 50
0.0
 51
89.99998200000083
  0
ARC
  5
35B1
330
18
100
AcDbEntity
  8
DRAW2
100
AcDbCircle
 10
1687.305484648065
 20
217.4210500146181
 30
0.0
 40
67.0
100
AcDbArc
 50
190.7780600000025
 51
230.4372300000035
  0
ARC
  5
35B2
330
18
100
AcDbEntity
  8
DRAW2
100
AcDbCircle
 10
1687.305484648065
 20
176.4210400146181
 30
0.0
 40
19.50000199999998
100
AcDbArc
 50
0.0
 51
180.0000100000009
  0
ARC
  5
35B3
330
18
100
AcDbEntity
  8
DRAW2
100
AcDbCircle
 10
1687.305484648065
 20
217.4210500146181
 30
0.0
 40
49.57999799999999
100
AcDbArc
 50
113.1602199999988
 51
246.8397899999994
  0
ARC
  5
35B5
330
18
100
AcDbEntity
  8
DRAW2
100
AcDbCircle
 10
1687.305484648065
 20
217.4210500146181
 30
0.0
 40
71.0
100
AcDbArc
 50
105.9410200000012
 51
254.0589700000003
  0
LINE
  5
35B7
330
18
100
AcDbEntity
  8
DRAW2
100
AcDbLine
 10
1648.192904648065
 20
94.42102001461813
 30
0.0
 11
1647.328244648065
 21
89.10017001461824
 31
0.0
  0
LINE
  5
35B8
330
18
100
AcDbEntity
  8
DRAW2
100
AcDbLine
 10
1622.282594648065
 20
89.10016001461816
 30
0.0
 11
1621.417974648065
 21
94.42094001461816
 31
0.0
  0
LINE
  5
35BA
330
18
100
AcDbEntity
  8
DRAW2
100
AcDbLine
 10
1645.354284648065
 20
87.42101001461822
 30
0.0
 11
1624.256744648065
 21
87.42101001461822
 31
0.0
  0
ARC
  5
35BB
330
18
100
AcDbEntity
  8
DRAW2
100
AcDbCircle
 10
1624.256744648065
 20
89.42099001461826
 30
0.0
 40
2.0
100
AcDbArc
 50
189.2300300000013
 51
270.0000199999954
  0
ARC
  5
35BC
330
18
100
AcDbEntity
  8
DRAW2
100
AcDbCircle
 10
1645.354284648065
 20
89.42099001461826
 30
0.0
 40
2.0
100
AcDbArc
 50
270.0000199999954
 51
350.7702200000025
  0
CIRCLE
  5
35BD
330
18
100
AcDbEntity
  8
DRAW2
100
AcDbCircle
 10
1656.305544648065
 20
163.7275100146181
 30
0.0
 40
4.0
  0
CIRCLE
  5
35BE
330
18
100
AcDbEntity
  8
DRAW2
100
AcDbCircle
 10
1656.305544648065
 20
163.727450014618
 30
0.0
 40
7.8000002
  0
CIRCLE
  5
35BF
330
18
100
AcDbEntity
  8
DRAW2
100
AcDbCircle
 10
1656.305544648065
 20
163.727450014618
 30
0.0
 40
8.5
  0
CIRCLE
  5
35C0
330
18
100
AcDbEntity
  8
DRAW2
100
AcDbCircle
 10
1656.305544648065
 20
163.727450014618
 30
0.0
 40
6.0
  0
ARC
  5
35C1
330
18
100
AcDbEntity
  8
DRAW2
100
AcDbCircle
 10
1656.305454648065
 20
163.727490014618
 30
0.0
 40
8.999998099999997
100
AcDbArc
 50
315.0448400000007
 51
160.9886000000028
  0
LINE
  5
35C3
330
18
100
AcDbEntity
  8
DRAW2
100
AcDbLine
 10
1662.305514648065
 20
160.2633700146181
 30
0.0
 11
1656.305514648065
 21
156.7992600146179
 31
0.0
  0
LINE
  5
35C4
330
18
100
AcDbEntity
  8
DRAW2
100
AcDbLine
 10
1656.305544648065
 20
170.6556500146179
 30
0.0
 11
1662.305514648065
 21
167.1915700146181
 31
0.0
  0
LINE
  5
35C5
330
18
100
AcDbEntity
  8
DRAW2
100
AcDbLine
 10
1682.013974648065
 20
136.4210100146181
 30
0.0
 11
1653.305454648064
 21
136.4210100146181
 31
0.0
  0
LINE
  5
35C6
330
18
100
AcDbEntity
  8
DRAW2
100
AcDbLine
 10
1653.305514648065
 20
144.4209900146181
 30
0.0
 11
1677.305484648065
 21
144.4209900146181
 31
0.0
  0
LINE
  5
35C7
330
18
100
AcDbEntity
  8
DRAW2
100
AcDbLine
 10
1614.805484648065
 20
109.4210100146181
 30
0.0
 11
1682.013974648065
 21
109.4210100146181
 31
0.0
  0
LINE
  5
35C8
330
18
100
AcDbEntity
  8
DRAW2
100
AcDbLine
 10
1653.305514648065
 20
109.4209600146182
 30
0.0
 11
1653.305514648065
 21
144.4209900146181
 31
0.0
  0
ARC
  5
35C9
330
18
100
AcDbEntity
  8
DRAW2
100
AcDbCircle
 10
1619.805484648065
 20
99.42101001461821
 30
0.0
 40
5.0
100
AcDbArc
 50
180.0
 51
270.0
  0
LINE
  5
35CA
330
18
100
AcDbEntity
  8
DRAW2
100
AcDbLine
 10
1614.805484648065
 20
109.4210100146181
 30
0.0
 11
1614.805484648065
 21
99.42101001461821
 31
0.0
  0
LINE
  5
35CB
330
18
100
AcDbEntity
  8
DRAW2
100
AcDbLine
 10
1637.692274648065
 20
117.0744300146179
 30
0.0
 11
1637.692274648065
 21
112.5210100146182
 31
0.0
  0
LINE
  5
35CC
330
18
100
AcDbEntity
  8
DRAW2
100
AcDbLine
 10
1640.579024648065
 20
117.0744300146179
 30
0.0
 11
1640.579024648065
 21
112.5210100146182
 31
0.0
  0
LINE
  5
35CD
330
18
100
AcDbEntity
  8
DRAW2
100
AcDbLine
 10
1631.918784648065
 20
117.0744300146179
 30
0.0
 11
1631.918784648065
 21
112.5210100146182
 31
0.0
  0
LINE
  5
35CE
330
18
100
AcDbEntity
  8
DRAW2
100
AcDbLine
 10
1629.032014648065
 20
117.0744300146179
 30
0.0
 11
1629.032014648065
 21
112.5210100146182
 31
0.0
  0
LINE
  5
35CF
330
18
100
AcDbEntity
  8
DRAW2
100
AcDbLine
 10
1640.555514648065
 20
112.5210100146182
 30
0.0
 11
1640.555514648065
 21
109.4210100146181
 31
0.0
  0
LINE
  5
35D0
330
18
100
AcDbEntity
  8
DRAW2
100
AcDbLine
 10
1634.661164648065
 20
112.5210200146181
 30
0.0
 11
1635.527194648065
 21
111.0210100146182
 31
0.0
  0
LINE
  5
35D1
330
18
100
AcDbEntity
  8
DRAW2
100
AcDbLine
 10
1629.055514648065
 20
112.5210100146182
 30
0.0
 11
1629.055514648065
 21
109.4210100146181
 31
0.0
  0
LINE
  5
35D2
330
18
100
AcDbEntity
  8
DRAW2
100
AcDbLine
 10
1634.083834648065
 20
112.5210100146182
 30
0.0
 11
1634.949864648065
 21
111.0210100146182
 31
0.0
  0
LINE
  5
35D3
330
18
100
AcDbEntity
  8
DRAW2
100
AcDbLine
 10
1629.055514648065
 20
109.4210100146181
 30
0.0
 11
1640.555514648065
 21
109.4210100146181
 31
0.0
  0
LINE
  5
35D4
330
18
100
AcDbEntity
  8
DRAW2
100
AcDbLine
 10
1629.055514648065
 20
111.0210100146182
 30
0.0
 11
1640.555514648065
 21
111.0210100146182
 31
0.0
  0
LINE
  5
35D5
330
18
100
AcDbEntity
  8
DRAW2
100
AcDbLine
 10
1629.032014648065
 20
112.5210100146182
 30
0.0
 11
1640.579024648065
 21
112.5210100146182
 31
0.0
  0
ARC
  5
35D6
330
18
100
AcDbEntity
  8
DRAW2
100
AcDbCircle
 10
1639.135654648065
 20
114.9651700146181
 30
0.0
 40
2.5558336
100
AcDbArc
 50
64.38451900000233
 51
124.3841000000004
  0
LINE
  5
35D7
330
18
100
AcDbEntity
  8
DRAW2
100
AcDbLine
 10
1637.305514648065
 20
119.4209600146182
 30
0.0
 11
1637.805484648065
 21
118.9209900146182
 31
0.0
  0
LINE
  5
35D8
330
18
100
AcDbEntity
  8
DRAW3
100
AcDbLine
 10
1637.305514648065
 20
119.4209700146179
 30
0.0
 11
1637.305514648065
 21
117.5210000146179
 31
0.0
  0
LINE
  5
35D9
330
18
100
AcDbEntity
  8
DRAW2
100
AcDbLine
 10
1637.805484648065
 20
118.9209900146182
 30
0.0
 11
1637.805484648065
 21
117.5210000146179
 31
0.0
  0
LINE
  5
35DA
330
18
100
AcDbEntity
  8
DRAW2
100
AcDbLine
 10
1639.805514648065
 20
117.5210100146182
 30
0.0
 11
1640.579004648065
 21
117.0744300146179
 31
0.0
  0
ARC
  5
35DB
330
18
100
AcDbEntity
  8
DRAW2
100
AcDbCircle
 10
1630.475404648065
 20
114.9651300146182
 30
0.0
 40
2.555882899999998
100
AcDbArc
 50
55.61669699999892
 51
115.6150500000012
  0
LINE
  5
35DC
330
18
100
AcDbEntity
  8
DRAW2
100
AcDbLine
 10
1629.032014648065
 20
117.0744200146182
 30
0.0
 11
1629.805514648065
 21
117.5210000146179
 31
0.0
  0
LINE
  5
35DD
330
18
100
AcDbEntity
  8
DRAW2
100
AcDbLine
 10
1632.305634648065
 20
119.4209000146182
 30
0.0
 11
1631.805634648065
 21
118.9208800146179
 31
0.0
  0
LINE
  5
35DE
330
18
100
AcDbEntity
  8
DRAW3
100
AcDbLine
 10
1632.305484648065
 20
119.4209700146179
 30
0.0
 11
1632.305484648065
 21
117.5210000146179
 31
0.0
  0
LINE
  5
35DF
330
18
100
AcDbEntity
  8
DRAW2
100
AcDbLine
 10
1631.805514648065
 20
118.9209900146182
 30
0.0
 11
1631.805514648065
 21
117.5210000146179
 31
0.0
  0
ARC
  5
35E0
330
18
100
AcDbEntity
  8
DRAW2
100
AcDbCircle
 10
1634.805524648065
 20
107.967540014618
 30
0.0
 40
9.553465799999999
100
AcDbArc
 50
72.4121490000023
 51
107.5878799999987
  0
LINE
  5
35E1
330
18
100
AcDbEntity
  8
DRAW2
100
AcDbLine
 10
1629.805514648065
 20
117.5210100146182
 30
0.0
 11
1639.805524648065
 21
117.5210100146182
 31
0.0
  0
LINE
  5
35E2
330
18
100
AcDbEntity
  8
DRAW2
100
AcDbLine
 10
1632.305514648065
 20
119.4209700146179
 30
0.0
 11
1637.305514648065
 21
119.4209700146179
 31
0.0
  0
LINE
  5
35E3
330
18
100
AcDbEntity
  8
DRAW2
100
AcDbLine
 10
1631.805514648065
 20
118.9209900146182
 30
0.0
 11
1637.805484648065
 21
118.9209900146182
 31
0.0
  0
LINE
  5
35E4
330
18
100
AcDbEntity
  8
DRAW2
100
AcDbLine
 10
1650.305544648065
 20
160.2633400146179
 30
0.0
 11
1650.305544648065
 21
167.1915700146181
 31
0.0
  0
CIRCLE
  5
35E5
330
18
100
AcDbEntity
  8
DRAW3
100
AcDbCircle
 10
1656.305544648065
 20
163.7275100146181
 30
0.0
 40
3.375
  0
LINE
  5
35E6
330
18
100
AcDbEntity
  8
DRAW2
100
AcDbLine
 10
1656.305514648065
 20
156.7992600146179
 30
0.0
 11
1650.305544648065
 21
160.2633400146179
 31
0.0
  0
LINE
  5
35E7
330
18
100
AcDbEntity
  8
DRAW2
100
AcDbLine
 10
1650.305544648065
 20
167.1915400146182
 30
0.0
 11
1656.305544648065
 21
170.655640014618
 31
0.0
  0
ARC
  5
35E8
330
18
100
AcDbEntity
  8
DRAW2
100
AcDbCircle
 10
1645.905484648065
 20
167.3107900146179
 30
0.0
 40
2.0
100
AcDbArc
 50
230.4371399999991
 51
340.9888899999988
  0
LINE
  5
35E9
330
18
100
AcDbEntity
  8
DRAW2
100
AcDbLine
 10
1721.305484648065
 20
109.4209600146182
 30
0.0
 11
1721.305484648065
 21
144.4209900146181
 31
0.0
  0
LINE
  5
35EA
330
18
100
AcDbEntity
  8
DRAW2
100
AcDbLine
 10
1692.596984648065
 20
136.4210100146181
 30
0.0
 11
1721.305514648065
 21
136.4210100146181
 31
0.0
  0
CIRCLE
  5
35EC
330
18
100
AcDbEntity
  8
DRAW3
100
AcDbCircle
 10
1687.305484648065
 20
122.9209900146182
 30
0.0
 40
10.5
  0
CIRCLE
  5
35ED
330
18
100
AcDbEntity
  8
DRAW2
100
AcDbCircle
 10
1687.305484648065
 20
122.9209900146182
 30
0.0
 40
14.50000199999998
  0
CIRCLE
  5
35EE
330
18
100
AcDbEntity
  8
DRAW2
100
AcDbCircle
 10
1687.305484648065
 20
122.9209900146182
 30
0.0
 40
9.300000199999999
  0
LINE
  5
35EF
330
18
100
AcDbEntity
  8
DRAW2
100
AcDbLine
 10
1662.305514648065
 20
167.1915700146181
 30
0.0
 11
1662.305514648065
 21
160.2633400146179
 31
0.0
  0
LINE
  5
35F0
330
18
100
AcDbEntity
  8
DRAW2
100
AcDbLine
 10
1667.805484648065
 20
146.4209900146181
 30
0.0
 11
1667.805484648065
 21
176.4210400146181
 31
0.0
  0
ARC
  5
35F1
330
18
100
AcDbEntity
  8
DRAW2
100
AcDbCircle
 10
1687.305484648065
 20
217.4210500146181
 30
0.0
 40
67.0
100
AcDbArc
 50
248.9095600000009
 51
250.6845400000009
  0
ARC
  5
35F2
330
18
100
AcDbEntity
  8
DRAW2
100
AcDbCircle
 10
1663.735904648065
 20
156.3086700146181
 30
0.0
 40
1.5
100
AcDbArc
 50
135.0448300000009
 51
248.9095499999993
  0
ARC
  5
35F3
330
18
100
AcDbEntity
  8
DRAW2
100
AcDbCircle
 10
1665.805484648064
 20
156.079800014618
 30
0.0
 40
2.0
100
AcDbArc
 50
250.6845400000009
 51
0.0
  0
ARC
  5
35F4
330
18
100
AcDbEntity
  8
DRAW2
100
AcDbCircle
 10
1665.805484648064
 20
146.4209900146181
 30
0.0
 40
2.0
100
AcDbArc
 50
270.0
 51
0.0
  0
LINE
  5
35F5
330
18
100
AcDbEntity
  8
DRAW2
100
AcDbLine
 10
1724.305514648065
 20
167.1915700146181
 30
0.0
 11
1724.305514648065
 21
160.263380014618
 31
0.0
  0
LINE
  5
35F6
330
18
100
AcDbEntity
  8
DRAW2
100
AcDbLine
 10
1712.305484648065
 20
160.263380014618
 30
0.0
 11
1712.305484648065
 21
167.1915700146181
 31
0.0
  0
LINE
  5
35F7
330
18
100
AcDbEntity
  8
DRAW2
100
AcDbLine
 10
1706.805484648064
 20
146.4209900146181
 30
0.0
 11
1706.805484648064
 21
176.4210400146181
 31
0.0
  0
CIRCLE
  5
35F8
330
18
100
AcDbEntity
  8
DRAW2
100
AcDbCircle
 10
1718.305424648065
 20
163.7275100146181
 30
0.0
 40
4.0
  0
CIRCLE
  5
35F9
330
18
100
AcDbEntity
  8
DRAW3
100
AcDbCircle
 10
1718.305424648065
 20
163.7275100146181
 30
0.0
 40
3.375
  0
CIRCLE
  5
35FA
330
18
100
AcDbEntity
  8
DRAW2
100
AcDbCircle
 10
1718.305484648065
 20
163.727450014618
 30
0.0
 40
6.0
  0
ARC
  5
35FC
330
18
100
AcDbEntity
  8
DRAW2
100
AcDbCircle
 10
1708.805484648065
 20
156.079800014618
 30
0.0
 40
2.0
100
AcDbArc
 50
179.9999899999988
 51
289.3154800000043
  0
LINE
  5
35FD
330
18
100
AcDbEntity
  8
DRAW2
100
AcDbLine
 10
1697.305484648065
 20
144.4209900146181
 30
0.0
 11
1721.305514648065
 21
144.4209900146181
 31
0.0
  0
ARC
  5
35FE
330
18
100
AcDbEntity
  8
DRAW2
100
AcDbCircle
 10
1708.805484648065
 20
146.4209900146181
 30
0.0
 40
2.0
100
AcDbArc
 50
179.9999899999988
 51
270.0
  0
LINE
  5
35FF
330
18
100
AcDbEntity
  8
DRAW2
100
AcDbLine
 10
1724.305514648065
 20
160.2633500146182
 30
0.0
 11
1718.305484648065
 21
156.7992400146182
 31
0.0
  0
ARC
  5
3600
330
18
100
AcDbEntity
  8
DRAW2
100
AcDbCircle
 10
1687.305484648065
 20
217.4210500146181
 30
0.0
 40
67.0
100
AcDbArc
 50
289.3154700000016
 51
291.0904100000042
  0
ARC
  5
3601
330
18
100
AcDbEntity
  8
DRAW2
100
AcDbCircle
 10
1710.875064648065
 20
156.3086700146181
 30
0.0
 40
1.5
100
AcDbArc
 50
291.0904100000042
 51
44.95499700000272
  0
LINE
  5
3602
330
18
100
AcDbEntity
  8
DRAW2
100
AcDbLine
 10
1718.305514648065
 20
156.7992600146179
 30
0.0
 11
1712.305484648065
 21
160.2633700146181
 31
0.0
  0
LINE
  5
3603
330
18
100
AcDbEntity
  8
DRAW2
100
AcDbLine
 10
1718.305484648065
 20
170.6556700146179
 30
0.0
 11
1724.305514648065
 21
167.191560014618
 31
0.0
  0
LINE
  5
3604
330
18
100
AcDbEntity
  8
DRAW2
100
AcDbLine
 10
1712.305484648065
 20
167.1915400146182
 30
0.0
 11
1718.305514648065
 21
170.6556500146179
 31
0.0
  0
LINE
  5
3605
330
18
100
AcDbEntity
  8
DRAW2
100
AcDbLine
 10
1591.5063868541
 20
254.2612858925608
 30
0.0
 11
1594.604582442029
 21
254.2612858925608
 31
0.0
  0
LINE
  5
3606
330
18
100
AcDbEntity
  8
DRAW2
100
AcDbLine
 10
1591.5063868541
 20
251.303246001011
 30
0.0
 11
1594.604582442029
 21
251.303246001011
 31
0.0
  0
LINE
  5
3607
330
18
100
AcDbEntity
  8
DRAW2
100
AcDbLine
 10
1591.5063868541
 20
248.379089906168
 30
0.0
 11
1594.604582442029
 21
248.379089906168
 31
0.0
  0
LINE
  5
3608
330
18
100
AcDbEntity
  8
DRAW2
100
AcDbLine
 10
1591.5063868541
 20
254.4210500146181
 30
0.0
 11
1594.604582442029
 21
254.4210500146181
 31
0.0
  0
LINE
  5
3609
330
18
100
AcDbEntity
  8
DRAW2
100
AcDbLine
 10
1591.5063868541
 20
236.5808141366755
 30
0.0
 11
1594.605959738791
 21
236.5808141366755
 31
0.0
  0
LINE
  5
360A
330
18
100
AcDbEntity
  8
DRAW2
100
AcDbLine
 10
1591.5063868541
 20
236.4210500146181
 30
0.0
 11
1594.604582442029
 21
236.4210500146181
 31
0.0
  0
LINE
  5
360B
330
18
100
AcDbEntity
  8
DRAW2
100
AcDbLine
 10
1591.5063868541
 20
242.4630101230683
 30
0.0
 11
1594.604582442029
 21
242.4630101230683
 31
0.0
  0
LINE
  5
360C
330
18
100
AcDbEntity
  8
DRAW2
100
AcDbLine
 10
1591.5063868541
 20
239.5388540282253
 30
0.0
 11
1594.604582442029
 21
239.5388540282253
 31
0.0
  0
LINE
  5
360E
330
18
100
AcDbEntity
  8
DRAW2
100
AcDbLine
 10
1609.805484648065
 20
272.9210500146181
 30
0.0
 11
1581.305484648065
 21
272.9210500146181
 31
0.0
  0
LINE
  5
360F
330
18
100
AcDbEntity
  8
DRAW2
100
AcDbLine
 10
1581.126599209865
 20
264.2717564579273
 30
0.0
 11
1596.805484648065
 21
261.4210500146181
 31
0.0
  0
LINE
  5
3613
330
18
100
AcDbEntity
  8
DRAW2
100
AcDbLine
 10
1591.5063868541
 20
254.2612858925608
 30
0.0
 11
1591.5063868541
 21
254.4210500146181
 31
0.0
  0
LINE
  5
3614
330
18
100
AcDbEntity
  8
DRAW2
100
AcDbLine
 10
1591.5063868541
 20
248.379089906168
 30
0.0
 11
1591.5063868541
 21
251.303246001011
 31
0.0
  0
ARC
  5
3615
330
18
100
AcDbEntity
  8
DRAW2
100
AcDbCircle
 10
1599.786970985983
 20
252.7783998817883
 30
0.0
 40
8.412313860415331
100
AcDbArc
 50
169.847098973484
 51
190.1529010265155
  0
LINE
  5
3616
330
18
100
AcDbEntity
  8
DRAW2
100
AcDbLine
 10
1591.5063868541
 20
254.4210500146181
 30
0.0
 11
1591.305484648064
 21
253.6710500146181
 31
0.0
  0
LINE
  5
3617
330
18
100
AcDbEntity
  8
DRAW2
100
AcDbLine
 10
1584.305484648065
 20
253.6710500146181
 30
0.0
 11
1591.305484648064
 21
253.6710500146181
 31
0.0
  0
ARC
  5
3618
330
18
100
AcDbEntity
  8
DRAW2
100
AcDbCircle
 10
1599.786970985983
 20
238.0637001474481
 30
0.0
 40
8.412313860415329
100
AcDbArc
 50
169.847098973484
 51
190.1529010265155
  0
LINE
  5
3619
330
18
100
AcDbEntity
  8
DRAW2
100
AcDbLine
 10
1591.5063868541
 20
236.4210500146181
 30
0.0
 11
1591.305484648064
 21
237.1710500146182
 31
0.0
  0
LINE
  5
361A
330
18
100
AcDbEntity
  8
DRAW2
100
AcDbLine
 10
1591.5063868541
 20
236.5808141366755
 30
0.0
 11
1591.5063868541
 21
236.4210500146181
 31
0.0
  0
LINE
  5
361B
330
18
100
AcDbEntity
  8
DRAW2
100
AcDbLine
 10
1591.5063868541
 20
242.4630101230683
 30
0.0
 11
1591.5063868541
 21
239.5388540282253
 31
0.0
  0
LINE
  5
361C
330
18
100
AcDbEntity
  8
DRAW2
100
AcDbLine
 10
1584.305484648065
 20
237.1710500146182
 30
0.0
 11
1591.305484648064
 21
237.1710500146182
 31
0.0
  0
ARC
  5
361D
330
18
100
AcDbEntity
  8
DRAW2
100
AcDbCircle
 10
1624.652687625301
 20
245.4210500146181
 30
0.0
 40
33.27802961136473
100
AcDbArc
 50
174.9003235055988
 51
185.0996764944009
  0
LINE
  5
361E
330
18
100
AcDbEntity
  8
DRAW2
100
AcDbLine
 10
1591.305484648064
 20
253.6710500146181
 30
0.0
 11
1591.305484648064
 21
237.1710500146182
 31
0.0
  0
LINE
  5
361F
330
18
100
AcDbEntity
  8
DRAW2
100
AcDbLine
 10
1584.305484648065
 20
253.6710500146181
 30
0.0
 11
1584.305484648065
 21
237.1710500146182
 31
0.0
  0
ARC
  5
3620
330
18
100
AcDbEntity
  8
DRAW2
100
AcDbCircle
 10
1581.305484648065
 20
271.9210500146181
 30
0.0
 40
1.0
100
AcDbArc
 50
90.0
 51
180.0
  0
ARC
  5
3621
330
18
100
AcDbEntity
  8
DRAW2
100
AcDbCircle
 10
1581.305484648065
 20
265.2556263680271
 30
0.0
 40
1.0
100
AcDbArc
 50
180.0
 51
259.6951535312375
  0
LINE
  5
3622
330
18
100
AcDbEntity
  8
DRAW2
100
AcDbLine
 10
1580.305484648065
 20
271.9210500146181
 30
0.0
 11
1580.305484648065
 21
265.2556263680271
 31
0.0
  0
ARC
  5
3623
330
18
100
AcDbEntity
  8
DRAW2
100
AcDbCircle
 10
1710.875064648065
 20
278.5333900146182
 30
0.0
 40
1.5
100
AcDbArc
 50
315.0450000000033
 51
68.90959400000267
  0
LINE
  5
3625
330
18
100
AcDbEntity
  8
DRAW2
100
AcDbLine
 10
1706.805484648064
 20
288.4210500146181
 30
0.0
 11
1706.805484648064
 21
258.4210200146181
 31
0.0
  0
ARC
  5
3626
330
18
100
AcDbEntity
  8
DRAW2
100
AcDbCircle
 10
1663.735904648065
 20
278.5333600146182
 30
0.0
 40
1.5
100
AcDbArc
 50
111.090439999999
 51
224.9551599999993
  0
CIRCLE
  5
3627
330
18
100
AcDbEntity
  8
DRAW2
100
AcDbCircle
 10
1656.305544648065
 20
271.1146200146182
 30
0.0
 40
7.8000002
  0
CIRCLE
  5
3628
330
18
100
AcDbEntity
  8
DRAW2
100
AcDbCircle
 10
1656.305544648065
 20
271.1146200146182
 30
0.0
 40
8.5
  0
ARC
  5
3629
330
18
100
AcDbEntity
  8
DRAW2
100
AcDbCircle
 10
1656.305454648065
 20
271.1145600146181
 30
0.0
 40
8.999998099999997
100
AcDbArc
 50
199.0113999999971
 51
44.95516099999647
  0
LINE
  5
362B
330
18
100
AcDbEntity
  8
DRAW2
100
AcDbLine
 10
1667.805484648065
 20
288.4210500146181
 30
0.0
 11
1667.805484648065
 21
258.4210200146181
 31
0.0
  0
CIRCLE
  5
362C
330
18
100
AcDbEntity
  8
DRAW2
100
AcDbCircle
 10
1656.305544648065
 20
271.1145300146179
 30
0.0
 40
4.0
  0
CIRCLE
  5
362D
330
18
100
AcDbEntity
  8
DRAW2
100
AcDbCircle
 10
1656.305544648065
 20
271.1146200146182
 30
0.0
 40
6.0
  0
LINE
  5
362E
330
18
100
AcDbEntity
  8
DRAW2
100
AcDbLine
 10
1662.305514648065
 20
267.6505100146182
 30
0.0
 11
1656.305514648065
 21
264.1864000146181
 31
0.0
  0
LINE
  5
362F
330
18
100
AcDbEntity
  8
DRAW2
100
AcDbLine
 10
1656.305484648065
 20
278.0428200146183
 30
0.0
 11
1662.305514648065
 21
274.5787000146181
 31
0.0
  0
ARC
  5
3630
330
18
100
AcDbEntity
  8
DRAW2
100
AcDbCircle
 10
1615.833044648065
 20
232.2766700146181
 30
0.0
 40
2.0
100
AcDbArc
 50
348.2578200000008
 51
51.82190500000205
  0
ARC
  5
3631
330
18
100
AcDbEntity
  8
DRAW2
100
AcDbCircle
 10
1687.305484648065
 20
217.4210500146181
 30
0.0
 40
67.0
100
AcDbArc
 50
129.5627500000009
 51
169.2219499999964
  0
LINE
  5
3632
330
18
100
AcDbEntity
  8
DRAW2
100
AcDbLine
 10
1625.305484648065
 20
224.349240014618
 30
0.0
 11
1631.305484648065
 21
220.885130014618
 31
0.0
  0
LINE
  5
3633
330
18
100
AcDbEntity
  8
DRAW2
100
AcDbLine
 10
1631.305484648065
 20
213.9569400146182
 30
0.0
 11
1625.305484648065
 21
210.4928600146181
 31
0.0
  0
CIRCLE
  5
3634
330
18
100
AcDbEntity
  8
DRAW2
100
AcDbCircle
 10
1625.305484648065
 20
217.4210500146181
 30
0.0
 40
7.8000002
  0
CIRCLE
  5
3635
330
18
100
AcDbEntity
  8
DRAW2
100
AcDbCircle
 10
1625.305484648065
 20
217.4210500146181
 30
0.0
 40
8.5
  0
CIRCLE
  5
3636
330
18
100
AcDbEntity
  8
DRAW2
100
AcDbCircle
 10
1625.305484648065
 20
217.4210500146181
 30
0.0
 40
6.0
  0
CIRCLE
  5
3637
330
18
100
AcDbEntity
  8
DRAW2
100
AcDbCircle
 10
1625.305544648065
 20
217.4210500146181
 30
0.0
 40
4.0
  0
CIRCLE
  5
3638
330
18
100
AcDbEntity
  8
DRAW3
100
AcDbCircle
 10
1625.305544648065
 20
217.4210500146181
 30
0.0
 40
3.375
  0
ARC
  5
3639
330
18
100
AcDbEntity
  8
DRAW2
100
AcDbCircle
 10
1625.305484648065
 20
217.4210500146181
 30
0.0
 40
8.999998099999997
100
AcDbArc
 50
265.8378299999955
 51
94.16216299999936
  0
ARC
  5
363A
330
18
100
AcDbEntity
  8
DRAW2
100
AcDbCircle
 10
1624.434514648065
 20
205.4527000146181
 30
0.0
 40
3.0
100
AcDbArc
 50
85.83776700000049
 51
190.778080000001
  0
LINE
  5
363B
330
18
100
AcDbEntity
  8
DRAW2
100
AcDbLine
 10
1619.305484648065
 20
220.885130014618
 30
0.0
 11
1625.305484648065
 21
224.349210014618
 31
0.0
  0
ARC
  5
363C
330
18
100
AcDbEntity
  8
DRAW2
100
AcDbCircle
 10
1624.434514648065
 20
229.3893400146181
 30
0.0
 40
3.0
100
AcDbArc
 50
169.2221900000036
 51
274.1622600000015
  0
LINE
  5
363D
330
18
100
AcDbEntity
  8
DRAW2
100
AcDbLine
 10
1625.305484648065
 20
210.492830014618
 30
0.0
 11
1619.305484648065
 21
213.9569400146182
 31
0.0
  0
LINE
  5
363E
330
18
100
AcDbEntity
  8
DRAW2
100
AcDbLine
 10
1619.305514648065
 20
213.9569100146179
 30
0.0
 11
1619.305514648065
 21
220.8851600146181
 31
0.0
  0
LINE
  5
363F
330
18
100
AcDbEntity
  8
DRAW2
100
AcDbLine
 10
1631.305484648065
 20
220.8851600146181
 30
0.0
 11
1631.305484648065
 21
213.9569100146179
 31
0.0
  0
LINE
  5
3640
330
18
100
AcDbEntity
  8
DRAW2
100
AcDbLine
 10
1618.305514648065
 20
257.4209900146182
 30
0.0
 11
1627.597904648065
 21
257.4209900146182
 31
0.0
  0
ARC
  5
3641
330
18
100
AcDbEntity
  8
DRAW2
100
AcDbCircle
 10
1611.805484648065
 20
256.1710500146181
 30
0.0
 40
1.5
100
AcDbArc
 50
180.0
 51
270.0
  0
ARC
  5
3642
330
18
100
AcDbEntity
  8
DRAW2
100
AcDbCircle
 10
1597.805484648064
 20
256.1710500146181
 30
0.0
 40
1.5
100
AcDbArc
 50
270.0
 51
0.0
  0
LINE
  5
3643
330
18
100
AcDbEntity
  8
DRAW2
100
AcDbLine
 10
1616.305484648065
 20
255.4210500146181
 30
0.0
 11
1616.305484648065
 21
235.4210500146181
 31
0.0
  0
ARC
  5
3644
330
18
100
AcDbEntity
  8
DRAW2
100
AcDbCircle
 10
1610.913273308389
 20
253.1065808867015
 30
0.0
 40
1.5
100
AcDbArc
 50
90.0
 51
135.2571670571605
  0
LINE
  5
3645
330
18
100
AcDbEntity
  8
DRAW2
100
AcDbLine
 10
1612.598511959061
 20
236.2355191425347
 30
0.0
 11
1595.555484648065
 21
236.2355191425347
 31
0.0
  0
LINE
  5
3646
330
18
100
AcDbEntity
  8
DRAW2
100
AcDbLine
 10
1612.598511959061
 20
241.7724201347865
 30
0.0
 11
1595.508862339175
 21
241.7724201347865
 31
0.0
  0
LINE
  5
3647
330
18
100
AcDbEntity
  8
DRAW2
100
AcDbLine
 10
1612.598511959061
 20
239.8841490223661
 30
0.0
 11
1595.508862339175
 21
239.8841490223661
 31
0.0
  0
LINE
  5
3648
330
18
100
AcDbEntity
  8
DRAW2
100
AcDbLine
 10
1612.598511959061
 20
236.1710500146181
 30
0.0
 11
1595.555484648065
 21
236.1710500146181
 31
0.0
  0
LINE
  5
3649
330
18
100
AcDbEntity
  8
DRAW2
100
AcDbLine
 10
1612.598511959061
 20
249.0696798944497
 30
0.0
 11
1595.508862339175
 21
249.0696798944497
 31
0.0
  0
LINE
  5
364A
330
18
100
AcDbEntity
  8
DRAW2
100
AcDbLine
 10
1612.598511959061
 20
250.9579510068699
 30
0.0
 11
1595.508862339175
 21
250.9579510068699
 31
0.0
  0
ARC
  5
364B
330
18
100
AcDbEntity
  8
DRAW2
100
AcDbCircle
 10
1598.69769598774
 20
253.1065808867015
 30
0.0
 40
1.5
100
AcDbArc
 50
44.74283294283938
 51
90.0
  0
ARC
  5
364C
330
18
100
AcDbEntity
  8
DRAW2
100
AcDbCircle
 10
1604.805484648065
 20
259.1597856332593
 30
0.0
 40
7.099207522960409
100
AcDbArc
 50
224.7428329428394
 51
315.2571670571603
  0
ARC
  5
364D
330
18
100
AcDbEntity
  8
DRAW2
100
AcDbCircle
 10
1597.458746626414
 20
252.7576481338933
 30
0.0
 40
2.653480447004878
100
AcDbArc
 50
135.8295459170077
 51
222.7062791753751
  0
LINE
  5
364E
330
18
100
AcDbEntity
  8
DRAW2
100
AcDbLine
 10
1595.555484648065
 20
254.6710500146181
 30
0.0
 11
1594.805484648065
 21
253.9210500146181
 31
0.0
  0
LINE
  5
364F
330
18
100
AcDbEntity
  8
DRAW2
100
AcDbLine
 10
1594.604582442029
 20
248.379089906168
 30
0.0
 11
1594.604582442029
 21
251.303246001011
 31
0.0
  0
ARC
  5
3650
330
18
100
AcDbEntity
  8
DRAW2
100
AcDbCircle
 10
1586.323998310146
 20
252.7783998817883
 30
0.0
 40
8.412313860415105
100
AcDbArc
 50
349.8470989734843
 51
10.15290102651565
  0
LINE
  5
3651
330
18
100
AcDbEntity
  8
DRAW2
100
AcDbLine
 10
1594.604582442029
 20
254.4210500146181
 30
0.0
 11
1594.805484648065
 21
253.6710500146181
 31
0.0
  0
LINE
  5
3652
330
18
100
AcDbEntity
  8
DRAW2
100
AcDbLine
 10
1594.604582442029
 20
254.2612858925608
 30
0.0
 11
1594.604582442029
 21
254.4210500146181
 31
0.0
  0
LINE
  5
3653
330
18
100
AcDbEntity
  8
DRAW2
100
AcDbLine
 10
1595.555484648065
 20
254.6710500146181
 30
0.0
 11
1595.555484648065
 21
254.6065808867016
 31
0.0
  0
LINE
  5
3654
330
18
100
AcDbEntity
  8
DRAW2
100
AcDbLine
 10
1595.508862339175
 20
250.9579510068699
 30
0.0
 11
1595.508862339175
 21
249.0696798944497
 31
0.0
  0
ARC
  5
3655
330
18
100
AcDbEntity
  8
DRAW2
100
AcDbCircle
 10
1597.458746626414
 20
238.084451895343
 30
0.0
 40
2.653480447004878
100
AcDbArc
 50
137.2937208246248
 51
224.1704540829918
  0
LINE
  5
3656
330
18
100
AcDbEntity
  8
DRAW2
100
AcDbLine
 10
1594.805484648065
 20
236.9210500146181
 30
0.0
 11
1595.555484648065
 21
236.1710500146181
 31
0.0
  0
LINE
  5
3657
330
18
100
AcDbEntity
  8
DRAW2
100
AcDbLine
 10
1595.555484648065
 20
236.1710500146181
 30
0.0
 11
1594.805484648065
 21
236.9210500146181
 31
0.0
  0
ARC
  5
3658
330
18
100
AcDbEntity
  8
DRAW2
100
AcDbCircle
 10
1586.280364128344
 20
238.0598340824503
 30
0.0
 40
8.455947153849152
100
AcDbArc
 50
349.926646533999
 51
10.12656948216885
  0
LINE
  5
3659
330
18
100
AcDbEntity
  8
DRAW2
100
AcDbLine
 10
1594.604582442029
 20
236.5808141366755
 30
0.0
 11
1594.604582442029
 21
236.4210500146181
 31
0.0
  0
LINE
  5
365A
330
18
100
AcDbEntity
  8
DRAW2
100
AcDbLine
 10
1594.604582442029
 20
236.4210500146181
 30
0.0
 11
1594.805484648065
 21
237.1710500146182
 31
0.0
  0
LINE
  5
365B
330
18
100
AcDbEntity
  8
DRAW2
100
AcDbLine
 10
1594.604582442029
 20
242.4630101230683
 30
0.0
 11
1594.604582442029
 21
239.5388540282253
 31
0.0
  0
LINE
  5
365C
330
18
100
AcDbEntity
  8
DRAW2
100
AcDbLine
 10
1595.555484648065
 20
236.1710500146181
 30
0.0
 11
1595.555484648065
 21
236.2355191425347
 31
0.0
  0
LINE
  5
365D
330
18
100
AcDbEntity
  8
DRAW2
100
AcDbLine
 10
1595.508862339175
 20
239.8841490223661
 30
0.0
 11
1595.508862339175
 21
241.7724201347865
 31
0.0
  0
ARC
  5
365E
330
18
100
AcDbEntity
  8
DRAW2
100
AcDbCircle
 10
1604.620439224288
 20
245.4210500146181
 30
0.0
 40
9.814954576223676
100
AcDbArc
 50
158.1769149490549
 51
201.823085050945
  0
ARC
  5
365F
330
18
100
AcDbEntity
  8
DRAW2
100
AcDbCircle
 10
1561.458281670829
 20
245.4210500146181
 30
0.0
 40
33.27802961136473
100
AcDbArc
 50
354.9003235055987
 51
5.099676494401101
  0
LINE
  5
3660
330
18
100
AcDbEntity
  8
DRAW2
100
AcDbLine
 10
1594.805484648065
 20
236.9210500146181
 30
0.0
 11
1594.805484648065
 21
253.9210500146181
 31
0.0
  0
LINE
  5
3661
330
18
100
AcDbEntity
  8
DRAW2
100
AcDbLine
 10
1598.69769598774
 20
254.6065808867016
 30
0.0
 11
1595.555484648065
 21
254.6065808867016
 31
0.0
  0
LINE
  5
3662
330
18
100
AcDbEntity
  8
DRAW2
100
AcDbLine
 10
1597.805484648064
 20
254.6710500146181
 30
0.0
 11
1595.555484648065
 21
254.6710500146181
 31
0.0
  0
LINE
  5
3663
330
18
100
AcDbEntity
  8
DRAW3
100
AcDbLine
 10
1614.028006936929
 20
252.1641586930911
 30
0.0
 11
1615.595484648065
 21
251.2591750146182
 31
0.0
  0
LINE
  5
3664
330
18
100
AcDbEntity
  8
DRAW2
100
AcDbLine
 10
1614.028006936929
 20
252.1641586930911
 30
0.0
 11
1616.305484648065
 21
252.0929875146181
 31
0.0
  0
LINE
  5
3665
330
18
100
AcDbEntity
  8
DRAW2
100
AcDbLine
 10
1612.598511959061
 20
254.6065808867016
 30
0.0
 11
1612.598511959061
 21
254.6710500146181
 31
0.0
  0
LINE
  5
3666
330
18
100
AcDbEntity
  8
DRAW2
100
AcDbLine
 10
1614.028006936929
 20
252.1641586930911
 30
0.0
 11
1612.598511959061
 21
254.6710500146181
 31
0.0
  0
LINE
  5
3667
330
18
100
AcDbEntity
  8
DRAW2
100
AcDbLine
 10
1612.598511959061
 20
249.0696798944497
 30
0.0
 11
1612.598511959061
 21
250.9579510068699
 31
0.0
  0
LINE
  5
3668
330
18
100
AcDbEntity
  8
DRAW2
100
AcDbLine
 10
1612.598511959061
 20
254.6065808867016
 30
0.0
 11
1610.913273308389
 21
254.6065808867016
 31
0.0
  0
ARC
  5
3669
330
18
100
AcDbEntity
  8
DRAW2
100
AcDbCircle
 10
1608.748571519849
 20
252.7677026139969
 30
0.0
 40
4.266557709360186
100
AcDbArc
 50
334.4690811414773
 51
25.53091885852269
  0
LINE
  5
366A
330
18
100
AcDbEntity
  8
DRAW2
100
AcDbLine
 10
1612.598511959061
 20
254.6710500146181
 30
0.0
 11
1611.805484648065
 21
254.6710500146181
 31
0.0
  0
LINE
  5
366B
330
18
100
AcDbEntity
  8
DRAW3
100
AcDbLine
 10
1615.595484648065
 20
251.2591750146182
 30
0.0
 11
1616.305484648065
 21
251.236987514618
 31
0.0
  0
LINE
  5
366C
330
18
100
AcDbEntity
  8
DRAW3
100
AcDbLine
 10
1614.028006936929
 20
238.677941336145
 30
0.0
 11
1615.595484648065
 21
239.5829250146181
 31
0.0
  0
LINE
  5
366D
330
18
100
AcDbEntity
  8
DRAW2
100
AcDbLine
 10
1614.028006936929
 20
238.677941336145
 30
0.0
 11
1616.305484648065
 21
238.7491125146182
 31
0.0
  0
ARC
  5
366E
330
18
100
AcDbEntity
  8
DRAW2
100
AcDbCircle
 10
1608.748571519849
 20
238.0743974152393
 30
0.0
 40
4.266557709360186
100
AcDbArc
 50
334.4690811414831
 51
25.5309188585168
  0
LINE
  5
366F
330
18
100
AcDbEntity
  8
DRAW2
100
AcDbLine
 10
1614.028006936929
 20
238.677941336145
 30
0.0
 11
1612.598511959061
 21
236.1710500146181
 31
0.0
  0
LINE
  5
3670
330
18
100
AcDbEntity
  8
DRAW2
100
AcDbLine
 10
1612.598511959061
 20
236.2355191425347
 30
0.0
 11
1612.598511959061
 21
236.1710500146181
 31
0.0
  0
LINE
  5
3671
330
18
100
AcDbEntity
  8
DRAW2
100
AcDbLine
 10
1612.598511959061
 20
241.7724201347865
 30
0.0
 11
1612.598511959061
 21
239.8841490223661
 31
0.0
  0
LINE
  5
3672
330
18
100
AcDbEntity
  8
DRAW3
100
AcDbLine
 10
1615.595484648065
 20
239.5829250146181
 30
0.0
 11
1616.305484648065
 21
239.605112514618
 31
0.0
  0
ARC
  5
3673
330
18
100
AcDbEntity
  8
DRAW2
100
AcDbCircle
 10
1596.772854638063
 20
245.4210500146181
 30
0.0
 40
16.24081062144512
100
AcDbArc
 50
347.0172251576899
 51
12.98277484230998
  0
LINE
  5
3674
330
18
100
AcDbEntity
  8
DRAW2
100
AcDbLine
 10
1614.028006936929
 20
252.1641586930911
 30
0.0
 11
1614.028006936929
 21
238.677941336145
 31
0.0
  0
LINE
  5
3675
330
18
100
AcDbEntity
  8
DRAW2
100
AcDbLine
 10
1615.595484648065
 20
238.726925014618
 30
0.0
 11
1615.595484648065
 21
252.1151750146179
 31
0.0
  0
ARC
  5
3676
330
18
100
AcDbEntity
  8
DRAW2
100
AcDbCircle
 10
1618.305514648065
 20
235.4210500146181
 30
0.0
 40
2.0
100
AcDbArc
 50
179.9999799999978
 51
231.821210000003
  0
ARC
  5
3677
330
18
100
AcDbEntity
  8
DRAW2
100
AcDbCircle
 10
1609.805484648065
 20
271.9210500146181
 30
0.0
 40
1.0
100
AcDbArc
 50
0.0
 51
90.0
  0
LINE
  5
3678
330
18
100
AcDbEntity
  8
DRAW2
100
AcDbLine
 10
1611.805484648065
 20
263.4210500146181
 30
0.0
 11
1597.805484648064
 21
263.4210500146181
 31
0.0
  0
LINE
  5
3679
330
18
100
AcDbEntity
  8
DRAW2
100
AcDbLine
 10
1611.805484648065
 20
257.4210500146181
 30
0.0
 11
1597.805484648064
 21
257.4210500146181
 31
0.0
  0
ARC
  5
367A
330
18
100
AcDbEntity
  8
DRAW2
100
AcDbCircle
 10
1608.805484648065
 20
273.4210500146181
 30
0.0
 40
1.0
100
AcDbArc
 50
0.0
 51
90.0
  0
LINE
  5
367B
330
18
100
AcDbEntity
  8
DRAW2
100
AcDbLine
 10
1609.805484648065
 20
273.4210500146181
 30
0.0
 11
1609.805484648065
 21
272.9210500146181
 31
0.0
  0
ARC
  5
367C
330
18
100
AcDbEntity
  8
DRAW2
100
AcDbCircle
 10
1599.805484648065
 20
271.9210500146181
 30
0.0
 40
1.0
100
AcDbArc
 50
90.0
 51
180.0
  0
ARC
  5
367D
330
18
100
AcDbEntity
  8
DRAW2
100
AcDbCircle
 10
1600.805484648065
 20
273.4210500146181
 30
0.0
 40
1.0
100
AcDbArc
 50
90.0
 51
180.0
  0
LINE
  5
367E
330
18
100
AcDbEntity
  8
DRAW2
100
AcDbLine
 10
1599.805484648065
 20
273.4210500146181
 30
0.0
 11
1599.805484648065
 21
272.9210500146181
 31
0.0
  0
LINE
  5
367F
330
18
100
AcDbEntity
  8
DRAW2
100
AcDbLine
 10
1608.805484648065
 20
274.4210500146181
 30
0.0
 11
1600.805484648065
 21
274.4210500146181
 31
0.0
  0
ARC
  5
3680
330
18
100
AcDbEntity
  8
DRAW2
100
AcDbCircle
 10
1597.805484648064
 20
262.4210500146181
 30
0.0
 40
1.0
100
AcDbArc
 50
90.0
 51
180.0
  0
LINE
  5
3681
330
18
100
AcDbEntity
  8
DRAW2
100
AcDbLine
 10
1596.805484648065
 20
262.4210500146181
 30
0.0
 11
1596.805484648065
 21
258.4210500146181
 31
0.0
  0
LINE
  5
3682
330
18
100
AcDbEntity
  8
DRAW2
100
AcDbLine
 10
1598.805484648065
 20
271.9210500146181
 30
0.0
 11
1598.805484648065
 21
263.4210500146181
 31
0.0
  0
LINE
  5
3683
330
18
100
AcDbEntity
  8
DRAW2
100
AcDbLine
 10
1610.305484648065
 20
257.4210500146181
 30
0.0
 11
1610.305484648065
 21
256.1710500146181
 31
0.0
  0
LINE
  5
3684
330
18
100
AcDbEntity
  8
DRAW2
100
AcDbLine
 10
1599.305484648065
 20
257.4210500146181
 30
0.0
 11
1599.305484648065
 21
256.1710500146181
 31
0.0
  0
ARC
  5
3685
330
18
100
AcDbEntity
  8
DRAW2
100
AcDbCircle
 10
1597.805484648064
 20
258.4210500146181
 30
0.0
 40
1.0
100
AcDbArc
 50
180.0
 51
270.0
  0
ARC
  5
3686
330
18
100
AcDbEntity
  8
DRAW2
100
AcDbCircle
 10
1611.805484648065
 20
262.4210500146181
 30
0.0
 40
1.0
100
AcDbArc
 50
0.0
 51
90.0
  0
LINE
  5
3687
330
18
100
AcDbEntity
  8
DRAW2
100
AcDbLine
 10
1612.805484648065
 20
262.4210500146181
 30
0.0
 11
1612.805484648065
 21
258.4210500146181
 31
0.0
  0
LINE
  5
3688
330
18
100
AcDbEntity
  8
DRAW2
100
AcDbLine
 10
1610.805484648064
 20
271.9210500146181
 30
0.0
 11
1610.805484648064
 21
263.4210500146181
 31
0.0
  0
ARC
  5
3689
330
18
100
AcDbEntity
  8
DRAW2
100
AcDbCircle
 10
1611.805484648065
 20
258.4210500146181
 30
0.0
 40
1.0
100
AcDbArc
 50
270.0
 51
0.0
  0
ARC
  5
368A
330
18
100
AcDbEntity
  8
DRAW2
100
AcDbCircle
 10
1618.305514648065
 20
255.421020014618
 30
0.0
 40
2.0
100
AcDbArc
 50
89.99998200000083
 51
179.9999599999959
  0
ARC
  5
368B
330
18
100
AcDbEntity
  8
DRAW2
100
AcDbCircle
 10
1627.597904648065
 20
259.4210500146181
 30
0.0
 40
2.0
100
AcDbArc
 50
270.0000199999954
 51
324.876269999999
  0
LINE
  5
368C
330
18
100
AcDbEntity
  8
DRAW2
100
AcDbLine
 10
1650.305544648065
 20
274.5786700146183
 30
0.0
 11
1656.305544648065
 21
278.0427900146181
 31
0.0
  0
LINE
  5
368D
330
18
100
AcDbEntity
  8
DRAW2
100
AcDbLine
 10
1656.305514648065
 20
264.1864000146181
 30
0.0
 11
1650.305484648065
 21
267.6505100146182
 31
0.0
  0
ARC
  5
368E
330
18
100
AcDbEntity
  8
DRAW2
100
AcDbCircle
 10
1645.905484648065
 20
267.5312500146182
 30
0.0
 40
2.0
100
AcDbArc
 50
19.01111399999859
 51
129.5628600000009
  0
LINE
  5
368F
330
18
100
AcDbEntity
  8
DRAW2
100
AcDbLine
 10
1650.305544648065
 20
267.6504800146182
 30
0.0
 11
1650.305544648065
 21
274.5787000146181
 31
0.0
  0
CIRCLE
  5
3690
330
18
100
AcDbEntity
  8
DRAW3
100
AcDbCircle
 10
1656.305544648065
 20
271.1145300146179
 30
0.0
 40
3.375
  0
ARC
  5
3691
330
18
100
AcDbEntity
  8
DRAW2
100
AcDbCircle
 10
1739.755484648065
 20
209.1686100146182
 30
0.0
 40
52.450005
100
AcDbArc
 50
136.800819999996
 51
167.0468799999965
  0
ARC
  5
3692
330
18
100
AcDbEntity
  8
DRAW2
100
AcDbCircle
 10
1634.855504648065
 20
209.1686100146182
 30
0.0
 40
52.450005
100
AcDbArc
 50
12.95312199999932
 51
43.19917700000083
  0
ARC
  5
3693
330
18
100
AcDbEntity
  8
DRAW2
100
AcDbCircle
 10
1739.755484648065
 20
225.6734300146181
 30
0.0
 40
52.450005
100
AcDbArc
 50
192.9531200000034
 51
223.1991800000038
  0
ARC
  5
3694
330
18
100
AcDbEntity
  8
DRAW2
100
AcDbCircle
 10
1634.855504648065
 20
225.6734300146181
 30
0.0
 40
52.450005
100
AcDbArc
 50
316.8008199999961
 51
347.0468799999963
  0
ARC
  5
3695
330
18
100
AcDbEntity
  8
DRAW2
100
AcDbCircle
 10
1687.305484648065
 20
258.4210200146181
 30
0.0
 40
19.50000199999998
100
AcDbArc
 50
179.9999899999988
 51
0.0000100179138904
  0
LINE
  5
3696
330
18
100
AcDbEntity
  8
DRAW2
100
AcDbLine
 10
1662.305514648065
 20
274.5787000146181
 30
0.0
 11
1662.305514648065
 21
267.6504800146182
 31
0.0
  0
LINE
  5
3697
330
18
100
AcDbEntity
  8
DRAW2
100
AcDbLine
 10
1718.305544648065
 20
278.0427900146181
 30
0.0
 11
1724.305544648065
 21
274.5786700146183
 31
0.0
  0
LINE
  5
3698
330
18
100
AcDbEntity
  8
DRAW2
100
AcDbLine
 10
1724.305544648065
 20
267.6504500146183
 30
0.0
 11
1718.305544648065
 21
264.1863400146181
 31
0.0
  0
LINE
  5
3699
330
18
100
AcDbEntity
  8
DRAW2
100
AcDbLine
 10
1724.305544648065
 20
274.5787000146181
 30
0.0
 11
1724.305544648065
 21
267.6504800146182
 31
0.0
  0
LINE
  5
369A
330
18
100
AcDbEntity
  8
DRAW2
100
AcDbLine
 10
1712.305514648065
 20
267.6504800146182
 30
0.0
 11
1712.305514648065
 21
274.5787000146181
 31
0.0
  0
CIRCLE
  5
369B
330
18
100
AcDbEntity
  8
DRAW2
100
AcDbCircle
 10
1718.305544648065
 20
271.1145600146181
 30
0.0
 40
6.0
  0
CIRCLE
  5
369C
330
18
100
AcDbEntity
  8
DRAW2
100
AcDbCircle
 10
1718.305424648065
 20
271.1145300146179
 30
0.0
 40
4.0
  0
CIRCLE
  5
369D
330
18
100
AcDbEntity
  8
DRAW3
100
AcDbCircle
 10
1718.305424648065
 20
271.1145300146179
 30
0.0
 40
3.375
  0
LINE
  5
369E
330
18
100
AcDbEntity
  8
DRAW2
100
AcDbLine
 10
1718.305544648065
 20
264.1863400146181
 30
0.0
 11
1712.305514648065
 21
267.6504500146183
 31
0.0
  0
LINE
  5
369F
330
18
100
AcDbEntity
  8
DRAW2
100
AcDbLine
 10
1712.305544648065
 20
274.5786700146183
 30
0.0
 11
1718.305514648065
 21
278.0427900146181
 31
0.0
  0
LINE
  5
36A0
330
18
100
AcDbEntity
  8
DRAW2
100
AcDbLine
 10
1658.305424648065
 20
289.6459590289608
 30
0.0
 11
1666.305544648065
 21
289.6459590289608
 31
0.0
  0
LINE
  5
36A1
330
18
100
AcDbEntity
  8
DRAW2
100
AcDbLine
 10
1658.930484648065
 20
289.0209590289608
 30
0.0
 11
1665.680484648065
 21
289.0209590289608
 31
0.0
  0
LINE
  5
36A2
330
18
100
AcDbEntity
  8
DRAW2
100
AcDbLine
 10
1655.005494648065
 20
329.0210900146181
 30
0.0
 11
1669.605474648065
 21
329.0210900146181
 31
0.0
  0
LINE
  5
36A3
330
18
100
AcDbEntity
  8
DRAW2
100
AcDbLine
 10
1654.555484648065
 20
327.0210600146181
 30
0.0
 11
1670.055484648065
 21
327.0210600146181
 31
0.0
  0
LINE
  5
36A4
330
18
100
AcDbEntity
  8
DRAW2
100
AcDbLine
 10
1655.805484648065
 20
334.5211200146183
 30
0.0
 11
1668.805484648065
 21
334.5211200146183
 31
0.0
  0
ARC
  5
36A5
330
18
100
AcDbEntity
  8
DRAW2
100
AcDbCircle
 10
1659.055454648065
 20
325.1336100146183
 30
0.0
 40
9.3874664
100
AcDbArc
 50
69.74455099999717
 51
110.2554700000029
  0
LINE
  5
36A6
330
18
100
AcDbEntity
  8
DRAW2
100
AcDbLine
 10
1653.305514648065
 20
290.4210200146181
 30
0.0
 11
1677.305484648065
 21
290.4210200146181
 31
0.0
  0
LINE
  5
36A7
330
18
100
AcDbEntity
  8
DRAW2
100
AcDbLine
 10
1653.305514648065
 20
298.4210200146181
 30
0.0
 11
1682.014044648065
 21
298.4210200146181
 31
0.0
  0
LINE
  5
36A8
330
18
100
AcDbEntity
  8
DRAW2
100
AcDbLine
 10
1653.305514648065
 20
325.4210800146182
 30
0.0
 11
1682.013974648065
 21
325.4210800146182
 31
0.0
  0
LINE
  5
36A9
330
18
100
AcDbEntity
  8
DRAW2
100
AcDbLine
 10
1653.305514648065
 20
325.4210200146181
 30
0.0
 11
1653.305514648065
 21
290.4210200146181
 31
0.0
  0
LINE
  5
36AA
330
18
100
AcDbEntity
  8
DRAW2
100
AcDbLine
 10
1658.305424648065
 20
290.4209290289608
 30
0.0
 11
1658.305424648065
 21
289.6459590289608
 31
0.0
  0
LINE
  5
36AB
330
18
100
AcDbEntity
  8
DRAW2
100
AcDbLine
 10
1658.305484648065
 20
289.6459590289608
 30
0.0
 11
1658.930424648065
 21
289.0209590289608
 31
0.0
  0
LINE
  5
36AC
330
18
100
AcDbEntity
  8
DRAW3
100
AcDbLine
 10
1658.930484648065
 20
290.4209290289608
 30
0.0
 11
1658.930484648065
 21
289.0209590289608
 31
0.0
  0
LINE
  5
36AD
330
18
100
AcDbEntity
  8
DRAW2
100
AcDbLine
 10
1654.555484648065
 20
327.0210900146181
 30
0.0
 11
1654.555484648065
 21
325.4210200146181
 31
0.0
  0
LINE
  5
36AE
330
18
100
AcDbEntity
  8
DRAW2
100
AcDbLine
 10
1655.005494648065
 20
329.0211200146182
 30
0.0
 11
1655.005494648065
 21
327.0210900146181
 31
0.0
  0
LINE
  5
36AF
330
18
100
AcDbEntity
  8
DRAW2
100
AcDbLine
 10
1655.805484648065
 20
334.5211200146183
 30
0.0
 11
1655.805484648065
 21
329.0211200146182
 31
0.0
  0
LINE
  5
36B0
330
18
100
AcDbEntity
  8
DRAW2
100
AcDbLine
 10
1721.305484648065
 20
325.4210200146181
 30
0.0
 11
1721.305484648065
 21
290.4210200146181
 31
0.0
  0
CIRCLE
  5
36B1
330
18
100
AcDbEntity
  8
DRAW2
100
AcDbCircle
 10
1687.305484648065
 20
311.9210500146181
 30
0.0
 40
14.50000199999998
  0
CIRCLE
  5
36B4
330
18
100
AcDbEntity
  8
DRAW2
100
AcDbCircle
 10
1687.305484648065
 20
311.9210500146181
 30
0.0
 40
9.300000199999999
  0
LINE
  5
36B5
330
18
100
AcDbEntity
  8
DRAW2
100
AcDbLine
 10
1692.596894648065
 20
298.4210200146181
 30
0.0
 11
1721.305514648065
 21
298.4210200146181
 31
0.0
  0
CIRCLE
  5
36B6
330
18
100
AcDbEntity
  8
DRAW3
100
AcDbCircle
 10
1687.305484648065
 20
311.9210500146181
 30
0.0
 40
10.5
  0
LINE
  5
36B8
330
18
100
AcDbEntity
  8
DRAW2
100
AcDbLine
 10
1666.305544648065
 20
290.4209290289608
 30
0.0
 11
1666.305544648065
 21
289.6459590289608
 31
0.0
  0
LINE
  5
36B9
330
18
100
AcDbEntity
  8
DRAW2
100
AcDbLine
 10
1666.305544648065
 20
289.6458990289608
 30
0.0
 11
1665.680544648065
 21
289.0208990289608
 31
0.0
  0
LINE
  5
36BA
330
18
100
AcDbEntity
  8
DRAW3
100
AcDbLine
 10
1665.680484648065
 20
290.4209290289608
 30
0.0
 11
1665.680484648065
 21
289.0209590289608
 31
0.0
  0
ARC
  5
36BB
330
18
100
AcDbEntity
  8
DRAW2
100
AcDbCircle
 10
1665.805484648064
 20
288.4210500146181
 30
0.0
 40
2.0
100
AcDbArc
 50
0.0
 51
75.52071256217089
  0
ARC
  5
36BC
330
18
100
AcDbEntity
  8
DRAW2
100
AcDbCircle
 10
1687.305484648065
 20
217.420990014618
 30
0.0
 40
67.0
100
AcDbArc
 50
109.315459999999
 51
111.090439999999
  0
ARC
  5
36BD
330
18
100
AcDbEntity
  8
DRAW2
100
AcDbCircle
 10
1665.805484648064
 20
278.7622400146182
 30
0.0
 40
2.0
100
AcDbArc
 50
0.0
 51
109.315459999999
  0
LINE
  5
36BE
330
18
100
AcDbEntity
  8
DRAW2
100
AcDbLine
 10
1708.930484648065
 20
289.0209590289608
 30
0.0
 11
1715.680484648065
 21
289.0209590289608
 31
0.0
  0
LINE
  5
36BF
330
18
100
AcDbEntity
  8
DRAW2
100
AcDbLine
 10
1708.305424648065
 20
289.6459590289608
 30
0.0
 11
1716.305544648065
 21
289.6459590289608
 31
0.0
  0
LINE
  5
36C0
330
18
100
AcDbEntity
  8
DRAW2
100
AcDbLine
 10
1697.305484648065
 20
290.4210200146181
 30
0.0
 11
1721.305514648065
 21
290.4210200146181
 31
0.0
  0
ARC
  5
36C1
330
18
100
AcDbEntity
  8
DRAW2
100
AcDbCircle
 10
1708.805484648065
 20
278.7622400146182
 30
0.0
 40
2.0
100
AcDbArc
 50
70.68453500000015
 51
180.0000100000009
  0
LINE
  5
36C2
330
18
100
AcDbEntity
  8
DRAW3
100
AcDbLine
 10
1708.930484648065
 20
290.4209290289608
 30
0.0
 11
1708.930484648065
 21
289.0209590289608
 31
0.0
  0
LINE
  5
36C3
330
18
100
AcDbEntity
  8
DRAW2
100
AcDbLine
 10
1708.305484648065
 20
289.6459590289608
 30
0.0
 11
1708.930424648065
 21
289.0209590289608
 31
0.0
  0
LINE
  5
36C4
330
18
100
AcDbEntity
  8
DRAW2
100
AcDbLine
 10
1708.305424648065
 20
290.4209290289608
 30
0.0
 11
1708.305424648065
 21
289.6459590289608
 31
0.0
  0
ARC
  5
36C5
330
18
100
AcDbEntity
  8
DRAW2
100
AcDbCircle
 10
1708.805484648065
 20
288.4210500146181
 30
0.0
 40
2.0
100
AcDbArc
 50
104.4792874378322
 51
180.0000100000009
  0
LINE
  5
36C6
330
18
100
AcDbEntity
  8
DRAW3
100
AcDbLine
 10
1715.680484648065
 20
290.4209290289608
 30
0.0
 11
1715.680484648065
 21
289.0209590289608
 31
0.0
  0
LINE
  5
36C7
330
18
100
AcDbEntity
  8
DRAW2
100
AcDbLine
 10
1716.305544648065
 20
289.6458990289608
 30
0.0
 11
1715.680544648065
 21
289.0208990289608
 31
0.0
  0
LINE
  5
36C8
330
18
100
AcDbEntity
  8
DRAW2
100
AcDbLine
 10
1716.305544648065
 20
290.4209290289608
 30
0.0
 11
1716.305544648065
 21
289.6459590289608
 31
0.0
  0
ARC
  5
36C9
330
18
100
AcDbEntity
  8
DRAW2
100
AcDbCircle
 10
1687.305484648065
 20
217.420990014618
 30
0.0
 40
67.0
100
AcDbArc
 50
68.90959400000267
 51
70.68453500000015
  0
LINE
  5
36CA
330
18
100
AcDbEntity
  8
DRAW2
100
AcDbLine
 10
1692.596954648065
 20
325.4210800146182
 30
0.0
 11
1721.305514648065
 21
325.4210800146182
 31
0.0
  0
LINE
  5
36CB
330
18
100
AcDbEntity
  8
DRAW2
100
AcDbLine
 10
1668.805484648065
 20
334.5211200146183
 30
0.0
 11
1668.805484648065
 21
329.0211200146182
 31
0.0
  0
LINE
  5
36CC
330
18
100
AcDbEntity
  8
DRAW2
100
AcDbLine
 10
1670.055484648065
 20
327.0210900146181
 30
0.0
 11
1670.055484648065
 21
325.4210200146181
 31
0.0
  0
LINE
  5
36CD
330
18
100
AcDbEntity
  8
DRAW2
100
AcDbLine
 10
1669.605474648065
 20
329.0211200146182
 30
0.0
 11
1669.605474648065
 21
327.0210900146181
 31
0.0
  0
LINE
  5
36CE
330
18
100
AcDbEntity
  8
DRAW2
100
AcDbLine
 10
1662.305484648065
 20
333.9405500146181
 30
0.0
 11
1662.305484648065
 21
329.0211200146182
 31
0.0
  0
LINE
  5
36CF
330
18
100
AcDbEntity
  8
DRAW2
100
AcDbLine
 10
1661.439574648064
 20
329.0210600146181
 30
0.0
 11
1662.594304648065
 21
327.021000014618
 31
0.0
  0
LINE
  5
36D0
330
18
100
AcDbEntity
  8
DRAW2
100
AcDbLine
 10
1662.016874648065
 20
329.0210300146181
 30
0.0
 11
1663.171574648065
 21
327.0210600146181
 31
0.0
  0
ARC
  5
36D1
330
18
100
AcDbEntity
  8
DRAW2
100
AcDbCircle
 10
1665.555484648065
 20
325.1336100146183
 30
0.0
 40
9.3874664
100
AcDbArc
 50
69.74455099999717
 51
110.2554700000029
  0
ARC
  5
36D2
330
18
100
AcDbEntity
  8
DRAW2
100
AcDbCircle
 10
1709.055514648064
 20
325.1336100146183
 30
0.0
 40
9.3874664
100
AcDbArc
 50
69.74455099999717
 51
110.2554700000029
  0
LINE
  5
36D3
330
18
100
AcDbEntity
  8
DRAW2
100
AcDbLine
 10
1705.805484648065
 20
334.5211200146183
 30
0.0
 11
1718.805484648065
 21
334.5211200146183
 31
0.0
  0
LINE
  5
36D4
330
18
100
AcDbEntity
  8
DRAW2
100
AcDbLine
 10
1705.005524648065
 20
329.0210900146181
 30
0.0
 11
1719.605474648065
 21
329.0210900146181
 31
0.0
  0
LINE
  5
36D5
330
18
100
AcDbEntity
  8
DRAW2
100
AcDbLine
 10
1704.555514648065
 20
327.0210600146181
 30
0.0
 11
1720.055454648065
 21
327.0210600146181
 31
0.0
  0
LINE
  5
36D6
330
18
100
AcDbEntity
  8
DRAW2
100
AcDbLine
 10
1704.555514648065
 20
327.0210900146181
 30
0.0
 11
1704.555514648065
 21
325.4210200146181
 31
0.0
  0
LINE
  5
36D7
330
18
100
AcDbEntity
  8
DRAW2
100
AcDbLine
 10
1705.005494648065
 20
329.0211200146182
 30
0.0
 11
1705.005494648065
 21
327.0210900146181
 31
0.0
  0
LINE
  5
36D8
330
18
100
AcDbEntity
  8
DRAW2
100
AcDbLine
 10
1705.805484648065
 20
334.5211200146183
 30
0.0
 11
1705.805484648065
 21
329.0211200146182
 31
0.0
  0
LINE
  5
36D9
330
18
100
AcDbEntity
  8
DRAW2
100
AcDbLine
 10
1718.805484648065
 20
334.5211200146183
 30
0.0
 11
1718.805484648065
 21
329.0211200146182
 31
0.0
  0
LINE
  5
36DA
330
18
100
AcDbEntity
  8
DRAW2
100
AcDbLine
 10
1720.055514648065
 20
327.0210900146181
 30
0.0
 11
1720.055514648065
 21
325.4210200146181
 31
0.0
  0
LINE
  5
36DB
330
18
100
AcDbEntity
  8
DRAW2
100
AcDbLine
 10
1719.605474648065
 20
329.0211200146182
 30
0.0
 11
1719.605474648065
 21
327.0210900146181
 31
0.0
  0
LINE
  5
36DC
330
18
100
AcDbEntity
  8
DRAW2
100
AcDbLine
 10
1712.305484648065
 20
333.9405500146181
 30
0.0
 11
1712.305484648065
 21
329.0211200146182
 31
0.0
  0
LINE
  5
36DD
330
18
100
AcDbEntity
  8
DRAW2
100
AcDbLine
 10
1711.439574648065
 20
329.0211200146182
 30
0.0
 11
1712.594274648065
 21
327.0211200146182
 31
0.0
  0
LINE
  5
36DE
330
18
100
AcDbEntity
  8
DRAW2
100
AcDbLine
 10
1712.016874648065
 20
329.0210300146181
 30
0.0
 11
1713.171574648065
 21
327.0210900146181
 31
0.0
  0
ARC
  5
36DF
330
18
100
AcDbEntity
  8
DRAW2
100
AcDbCircle
 10
1715.555484648065
 20
325.1336100146183
 30
0.0
 40
9.3874664
100
AcDbArc
 50
69.74455099999717
 51
110.2554700000029
  0
LINE
  5
36E0
330
18
100
AcDbEntity
  8
DRAW2
100
AcDbLine
 10
1346.878518769965
 20
554.5884398515204
 30
0.0
 11
1341.878548645679
 21
557.4751736515204
 31
0.0
  0
CIRCLE
  5
36E1
330
18
100
AcDbEntity
  8
DRAW2
100
AcDbCircle
 10
1346.878530545679
 20
560.3619746103094
 30
0.0
 40
4.999984700022968
  0
CIRCLE
  5
36E2
330
18
100
AcDbEntity
  8
DRAW2
100
AcDbCircle
 10
1346.878530545679
 20
560.3619746103094
 30
0.0
 40
5.750000000000007
  0
LINE
  5
36E3
330
18
100
AcDbEntity
  8
DRAW2
100
AcDbLine
 10
1351.878585845679
 20
557.4752298515204
 30
0.0
 11
1346.878536532994
 21
554.5884503515204
 31
0.0
  0
CIRCLE
  5
36E4
330
18
100
AcDbEntity
  8
DRAW2
100
AcDbCircle
 10
1225.878530545679
 20
560.3619746103085
 30
0.0
 40
5.75
  0
CIRCLE
  5
36E5
330
18
100
AcDbEntity
  8
DRAW2
100
AcDbCircle
 10
1225.878530545679
 20
560.3619746103085
 30
0.0
 40
4.9999952
  0
LINE
  5
36E6
330
18
100
AcDbEntity
  8
DRAW2
100
AcDbLine
 10
1220.878475245679
 20
557.4752298515191
 30
0.0
 11
1225.878524558365
 21
554.5884503515191
 31
0.0
  0
LINE
  5
36E7
330
18
100
AcDbEntity
  8
DRAW2
100
AcDbLine
 10
1225.878542321393
 20
554.588439851519
 30
0.0
 11
1230.878512445679
 21
557.4751736515194
 31
0.0
  0
LINE
  5
36E8
330
18
100
AcDbEntity
  8
DRAW2
100
AcDbLine
 10
1202.878590545679
 20
580.3619593515194
 30
0.0
 11
1202.878590545679
 21
435.3619593515194
 31
0.0
  0
LINE
  5
36EA
330
18
100
AcDbEntity
  8
DRAW2
100
AcDbLine
 10
1241.378496645679
 20
528.8619593515196
 30
0.0
 11
1241.378496645679
 21
577.3619593515194
 31
0.0
  0
LINE
  5
36EB
330
18
100
AcDbEntity
  8
DRAW2
100
AcDbLine
 10
1247.878496645679
 20
519.3619593515196
 30
0.0
 11
1247.878496645679
 21
578.8619593515196
 31
0.0
  0
LINE
  5
36EC
330
18
100
AcDbEntity
  8
DRAW2
100
AcDbLine
 10
1249.878590545679
 20
519.3619593515196
 30
0.0
 11
1249.878590545679
 21
577.921885853017
 31
0.0
  0
CIRCLE
  5
36ED
330
18
100
AcDbEntity
  8
DRAW2
100
AcDbCircle
 10
1225.878530545679
 20
560.3619746103085
 30
0.0
 40
6.25
  0
LINE
  5
36F0
330
18
100
AcDbEntity
  8
DRAW2
100
AcDbLine
 10
1331.378720545679
 20
578.3619593515196
 30
0.0
 11
1331.378720545679
 21
528.8619593515196
 31
0.0
  0
LINE
  5
36F1
330
18
100
AcDbEntity
  8
DRAW2
100
AcDbLine
 10
1324.87872054568
 20
578.8619593515196
 30
0.0
 11
1324.87872054568
 21
519.3619593515196
 31
0.0
  0
LINE
  5
36F2
330
18
100
AcDbEntity
  8
DRAW2
100
AcDbLine
 10
1299.67409554568
 20
519.3619593515196
 30
0.0
 11
1299.67409554568
 21
577.9218858530165
 31
0.0
  0
LINE
  5
36F3
330
18
100
AcDbEntity
  8
DRAW2
100
AcDbLine
 10
1301.67409554568
 20
519.3619593515196
 30
0.0
 11
1301.67409554568
 21
577.9218858530165
 31
0.0
  0
LINE
  5
36F4
330
18
100
AcDbEntity
  8
DRAW2
100
AcDbLine
 10
1322.878590545679
 20
519.3619593515196
 30
0.0
 11
1322.878590545679
 21
577.9218858530165
 31
0.0
  0
LINE
  5
36F5
330
18
100
AcDbEntity
  8
DRAW2
100
AcDbLine
 10
1370.378530545679
 20
580.3619593515196
 30
0.0
 11
1370.378530545679
 21
519.3619593515196
 31
0.0
  0
LINE
  5
36F6
330
18
100
AcDbEntity
  8
DRAW2
100
AcDbLine
 10
1323.878655545679
 20
562.8619593515196
 30
0.0
 11
1323.878655545679
 21
542.86189935152
 31
0.0
  0
ARC
  5
36F7
330
18
100
AcDbEntity
  8
DRAW2
100
AcDbCircle
 10
1346.878530545679
 20
560.3619746103094
 30
0.0
 40
6.249999999999982
100
AcDbArc
 50
118.3579310802335
 51
112.0525552622802
  0
LINE
  5
36F8
330
18
100
AcDbEntity
  8
DRAW2
100
AcDbLine
 10
1248.878590545679
 20
562.8619593515196
 30
0.0
 11
1248.878590545679
 21
542.8618993515165
 31
0.0
  0
ARC
  5
36F9
330
18
100
AcDbEntity
  8
DRAW2
100
AcDbCircle
 10
1329.87872054568
 20
438.3619593515196
 30
0.0
 40
1.5
100
AcDbArc
 50
270.0
 51
0.0
  0
ARC
  5
36FA
330
18
100
AcDbEntity
  8
DRAW2
100
AcDbCircle
 10
1305.42872054568
 20
507.8619593515191
 30
0.0
 40
52.45
100
AcDbArc
 50
299.6537220751399
 51
318.1409013571526
  0
LINE
  5
36FB
330
18
100
AcDbEntity
  8
DRAW2
100
AcDbLine
 10
1370.378530545679
 20
435.3619593515194
 30
0.0
 11
1324.378530545679
 21
435.3619593515194
 31
0.0
  0
LINE
  5
36FC
330
18
100
AcDbEntity
  8
DRAW2
100
AcDbLine
 10
1332.97872664568
 20
437.3619593515195
 30
0.0
 11
1331.378720545679
 21
437.3619593515195
 31
0.0
  0
LINE
  5
36FE
330
18
100
AcDbEntity
  8
DRAW2
100
AcDbLine
 10
1332.97872664568
 20
454.3619593515195
 30
0.0
 11
1331.378720545679
 21
454.3619593515195
 31
0.0
  0
LINE
  5
36FF
330
18
100
AcDbEntity
  8
DRAW2
100
AcDbLine
 10
1329.181810510599
 20
516.0519593515195
 30
0.0
 11
1338.710813606412
 21
536.6419593515193
 31
0.0
  0
ARC
  5
3700
330
18
100
AcDbEntity
  8
DRAW2
100
AcDbCircle
 10
1327.518163239148
 20
524.3619593515196
 30
0.0
 40
5.0
100
AcDbArc
 50
270.0
 51
335.1654125103082
  0
ARC
  5
3701
330
18
100
AcDbEntity
  8
DRAW2
100
AcDbCircle
 10
1327.518163239148
 20
491.3619593515191
 30
0.0
 40
5.0
100
AcDbArc
 50
24.83458748969177
 51
90.0
  0
LINE
  5
3702
330
18
100
AcDbEntity
  8
DRAW2
100
AcDbLine
 10
1329.181810510599
 20
499.671959351519
 30
0.0
 11
1338.710813606412
 21
479.0819593515193
 31
0.0
  0
LINE
  5
3704
330
18
100
AcDbEntity
  8
DRAW2
100
AcDbLine
 10
1332.97872664568
 20
468.3620193515192
 30
0.0
 11
1331.378720545679
 21
468.3620193515192
 31
0.0
  0
ARC
  5
3705
330
18
100
AcDbEntity
  8
DRAW2
100
AcDbCircle
 10
1332.87872054568
 20
486.8619593515196
 30
0.0
 40
1.5
100
AcDbArc
 50
90.0
 51
180.0
  0
LINE
  5
3706
330
18
100
AcDbEntity
  8
DRAW2
100
AcDbLine
 10
1332.97872664568
 20
485.3620193515192
 30
0.0
 11
1331.378720545679
 21
485.3620193515192
 31
0.0
  0
ARC
  5
3707
330
18
100
AcDbEntity
  8
DRAW2
100
AcDbCircle
 10
1346.878530545679
 20
507.8619593515196
 30
0.0
 40
15.5
100
AcDbArc
 50
155.1654125103082
 51
204.8345874896917
  0
ARC
  5
3708
330
18
100
AcDbEntity
  8
DRAW2
100
AcDbCircle
 10
1305.42872054568
 20
507.8619593515191
 30
0.0
 40
52.45
100
AcDbArc
 50
41.85909864285485
 51
60.34627792486003
  0
ARC
  5
370A
330
18
100
AcDbEntity
  8
DRAW2
100
AcDbCircle
 10
1332.87872054568
 20
528.8619593515196
 30
0.0
 40
1.5
100
AcDbArc
 50
180.0
 51
270.0
  0
LINE
  5
370B
330
18
100
AcDbEntity
  8
DRAW2
100
AcDbLine
 10
1332.97872664568
 20
530.3618993515197
 30
0.0
 11
1331.378720545679
 21
530.3618993515197
 31
0.0
  0
LINE
  5
370C
330
18
100
AcDbEntity
  8
DRAW2
100
AcDbLine
 10
1332.97872664568
 20
547.3618993515195
 30
0.0
 11
1331.378720545679
 21
547.3618993515195
 31
0.0
  0
ARC
  5
370E
330
18
100
AcDbEntity
  8
DRAW2
100
AcDbCircle
 10
1267.82853054568
 20
507.8619593515196
 30
0.0
 40
52.45
100
AcDbArc
 50
220.1336820259718
 51
239.7157380814099
  0
LINE
  5
370F
330
18
100
AcDbEntity
  8
DRAW2
100
AcDbLine
 10
1241.378496645679
 20
438.3619593515196
 30
0.0
 11
1241.378496645679
 21
486.8619593515196
 31
0.0
  0
LINE
  5
3710
330
18
100
AcDbEntity
  8
DRAW2
100
AcDbLine
 10
1247.878496645679
 20
436.8619593515196
 30
0.0
 11
1247.878496645679
 21
496.3619593515196
 31
0.0
  0
LINE
  5
3711
330
18
100
AcDbEntity
  8
DRAW2
100
AcDbLine
 10
1249.878590545679
 20
435.9218858530165
 30
0.0
 11
1249.878590545679
 21
496.3619593515194
 31
0.0
  0
LINE
  5
3712
330
18
100
AcDbEntity
  8
DRAW2
100
AcDbLine
 10
1323.87865554568
 20
472.8620193515192
 30
0.0
 11
1323.878655545679
 21
452.8619593515193
 31
0.0
  0
LINE
  5
3713
330
18
100
AcDbEntity
  8
DRAW2
100
AcDbLine
 10
1331.378720545679
 20
486.8619593515196
 30
0.0
 11
1331.378720545679
 21
437.3619593515195
 31
0.0
  0
LINE
  5
3714
330
18
100
AcDbEntity
  8
DRAW2
100
AcDbLine
 10
1324.878720545679
 20
496.3619593515196
 30
0.0
 11
1324.878720545679
 21
436.8619593515196
 31
0.0
  0
LINE
  5
3715
330
18
100
AcDbEntity
  8
DRAW2
100
AcDbLine
 10
1322.878590545679
 20
435.9218858530169
 30
0.0
 11
1322.878590545679
 21
496.3619593515191
 31
0.0
  0
LINE
  5
3716
330
18
100
AcDbEntity
  8
DRAW2
100
AcDbLine
 10
1301.674095545679
 20
435.9218858530165
 30
0.0
 11
1301.67409554568
 21
496.3619593515194
 31
0.0
  0
LINE
  5
3717
330
18
100
AcDbEntity
  8
DRAW2
100
AcDbLine
 10
1299.67409554568
 20
435.9218858530165
 30
0.0
 11
1299.67409554568
 21
496.3619593515191
 31
0.0
  0
LINE
  5
3718
330
18
100
AcDbEntity
  8
DRAW2
100
AcDbLine
 10
1248.878590545679
 20
472.8620193515223
 30
0.0
 11
1248.878590545679
 21
452.8619593515196
 31
0.0
  0
LINE
  5
371A
330
18
100
AcDbEntity
  8
DRAW2
100
AcDbLine
 10
1322.878590545679
 20
435.9218858530169
 30
0.0
 11
1249.878590545679
 21
435.9218858530165
 31
0.0
  0
ARC
  5
371B
330
18
100
AcDbEntity
  8
DRAW2
100
AcDbCircle
 10
1276.674095545679
 20
431.444342773558
 30
0.0
 40
15.76995377759075
100
AcDbArc
 50
40.45279988428894
 51
139.547200115711
  0
LINE
  5
371E
330
18
100
AcDbEntity
  8
DRAW2
100
AcDbLine
 10
1202.878590545679
 20
435.3619593515194
 30
0.0
 11
1248.878590545679
 21
435.3619593515194
 31
0.0
  0
LINE
  5
371F
330
18
100
AcDbEntity
  8
DRAW2
100
AcDbLine
 10
1220.878475245679
 20
458.2486888515195
 30
0.0
 11
1225.878524558365
 21
461.1354683515192
 31
0.0
  0
LINE
  5
3720
330
18
100
AcDbEntity
  8
DRAW2
100
AcDbLine
 10
1225.878542321393
 20
461.1354788515195
 30
0.0
 11
1230.878512445679
 21
458.2487450515194
 31
0.0
  0
LINE
  5
3721
330
18
100
AcDbEntity
  8
DRAW2
100
AcDbLine
 10
1220.878512445679
 20
452.4752479515195
 30
0.0
 11
1225.878508860317
 21
449.5884989515194
 31
0.0
  0
LINE
  5
3722
330
18
100
AcDbEntity
  8
DRAW2
100
AcDbLine
 10
1225.87852556574
 20
449.5884693515194
 30
0.0
 11
1230.878495745679
 21
452.4752031515195
 31
0.0
  0
LINE
  5
3723
330
18
100
AcDbEntity
  8
DRAW2
100
AcDbLine
 10
1230.878545845679
 20
458.2487238515195
 30
0.0
 11
1230.878545845679
 21
452.4751948515195
 31
0.0
  0
LINE
  5
3724
330
18
100
AcDbEntity
  8
DRAW2
100
AcDbLine
 10
1220.878545845679
 20
458.2486933515195
 30
0.0
 11
1220.878545845679
 21
452.4751948515195
 31
0.0
  0
CIRCLE
  5
3725
330
18
100
AcDbEntity
  8
DRAW2
100
AcDbCircle
 10
1225.878530545679
 20
455.3619440927304
 30
0.0
 40
6.25
  0
CIRCLE
  5
3726
330
18
100
AcDbEntity
  8
DRAW2
100
AcDbCircle
 10
1225.878530545679
 20
455.3619440927304
 30
0.0
 40
5.75
  0
CIRCLE
  5
3727
330
18
100
AcDbEntity
  8
DRAW2
100
AcDbCircle
 10
1225.878530545679
 20
455.3619440927304
 30
0.0
 40
4.9999952
  0
LINE
  5
3728
330
18
100
AcDbEntity
  8
DRAW2
100
AcDbLine
 10
1264.67409554568
 20
435.9218858530169
 30
0.0
 11
1264.67409554568
 21
441.6762263805655
 31
0.0
  0
LINE
  5
3729
330
18
100
AcDbEntity
  8
DRAW2
100
AcDbLine
 10
1248.878590545679
 20
441.8619593515224
 30
0.0
 11
1248.878590545679
 21
435.3619593515194
 31
0.0
  0
ARC
  5
372A
330
18
100
AcDbEntity
  8
DRAW2
100
AcDbCircle
 10
1243.665956875679
 20
442.6119593515192
 30
0.0
 40
9.3874664
100
AcDbArc
 50
159.7445299999972
 51
200.2554489999956
  0
LINE
  5
372B
330
18
100
AcDbEntity
  8
DRAW2
100
AcDbLine
 10
1234.278490545679
 20
452.3619593515194
 30
0.0
 11
1234.278490545679
 21
439.3619593515195
 31
0.0
  0
LINE
  5
372C
330
18
100
AcDbEntity
  8
DRAW2
100
AcDbLine
 10
1239.778490545679
 20
453.6119593515195
 30
0.0
 11
1239.778490545679
 21
438.1119593515193
 31
0.0
  0
ARC
  5
372D
330
18
100
AcDbEntity
  8
DRAW2
100
AcDbCircle
 10
1242.878496645679
 20
438.3619593515196
 30
0.0
 40
1.5
100
AcDbArc
 50
180.0
 51
270.0
  0
LINE
  5
372E
330
18
100
AcDbEntity
  8
DRAW2
100
AcDbLine
 10
1234.278490545679
 20
439.3619593515195
 30
0.0
 11
1239.778490545679
 21
439.3619593515195
 31
0.0
  0
LINE
  5
372F
330
18
100
AcDbEntity
  8
DRAW2
100
AcDbLine
 10
1239.778490545679
 20
438.1119593515193
 30
0.0
 11
1241.378496645679
 21
438.1119593515193
 31
0.0
  0
LINE
  5
3730
330
18
100
AcDbEntity
  8
DRAW2
100
AcDbLine
 10
1242.878496645679
 20
436.8619593515196
 30
0.0
 11
1247.878496645679
 21
436.8619593515196
 31
0.0
  0
LINE
  5
3731
330
18
100
AcDbEntity
  8
DRAW2
100
AcDbLine
 10
1248.878496645679
 20
452.8619593515196
 30
0.0
 11
1249.878590545679
 21
452.8619593515196
 31
0.0
  0
LINE
  5
3732
330
18
100
AcDbEntity
  8
DRAW2
100
AcDbLine
 10
1249.878590545679
 20
449.8619593515224
 30
0.0
 11
1247.878590545679
 21
449.8619593515224
 31
0.0
  0
LINE
  5
3733
330
18
100
AcDbEntity
  8
DRAW3
100
AcDbLine
 10
1249.878590545679
 20
449.2369293515195
 30
0.0
 11
1247.878590545679
 21
449.2369293515195
 31
0.0
  0
LINE
  5
3734
330
18
100
AcDbEntity
  8
DRAW2
100
AcDbLine
 10
1249.878590545679
 20
441.8619593515224
 30
0.0
 11
1247.878590545679
 21
441.8619593515224
 31
0.0
  0
LINE
  5
3735
330
18
100
AcDbEntity
  8
DRAW3
100
AcDbLine
 10
1249.878590545679
 20
442.4869593515195
 30
0.0
 11
1247.878590545679
 21
442.4869593515195
 31
0.0
  0
LINE
  5
3736
330
18
100
AcDbEntity
  8
DRAW2
100
AcDbLine
 10
1234.278490545679
 20
452.3619593515194
 30
0.0
 11
1239.778490545679
 21
452.3619593515194
 31
0.0
  0
LINE
  5
3737
330
18
100
AcDbEntity
  8
DRAW2
100
AcDbLine
 10
1239.778490545679
 20
453.6119593515195
 30
0.0
 11
1241.378496645679
 21
453.6119593515195
 31
0.0
  0
LINE
  5
3738
330
18
100
AcDbEntity
  8
DRAW2
100
AcDbLine
 10
1234.859026345679
 20
445.8619593515195
 30
0.0
 11
1239.778490545679
 21
445.8619593515195
 31
0.0
  0
ARC
  5
3739
330
18
100
AcDbEntity
  8
DRAW2
100
AcDbCircle
 10
1243.665956875679
 20
449.1119593515195
 30
0.0
 40
9.3874664
100
AcDbArc
 50
159.7445299999972
 51
200.2554489999956
  0
ARC
  5
373A
330
18
100
AcDbEntity
  8
DRAW2
100
AcDbCircle
 10
1248.878496645679
 20
451.8619593515195
 30
0.0
 40
1.0
100
AcDbArc
 50
90.0
 51
180.0
  0
LINE
  5
373B
330
18
100
AcDbEntity
  8
DRAW2
100
AcDbLine
 10
1271.137157053428
 20
418.6476056266148
 30
0.0
 11
1271.137157053428
 21
415.1252635441272
 31
0.0
  0
LINE
  5
373C
330
18
100
AcDbEntity
  8
DRAW2
100
AcDbLine
 10
1282.211034037932
 20
418.6476056266148
 30
0.0
 11
1282.211034037932
 21
415.1252635441272
 31
0.0
  0
CIRCLE
  5
373D
330
18
100
AcDbEntity
  8
DRAW2
100
AcDbCircle
 10
1276.67409554568
 20
424.4218858530169
 30
0.0
 40
8.0
  0
LINE
  5
373E
330
18
100
AcDbEntity
  8
DRAW2
100
AcDbLine
 10
1267.488527173596
 20
432.214913164013
 30
0.0
 11
1267.488527173596
 21
415.171885853017
 31
0.0
  0
LINE
  5
373F
330
18
100
AcDbEntity
  8
DRAW2
100
AcDbLine
 10
1267.42405804568
 20
432.214913164013
 30
0.0
 11
1267.42405804568
 21
415.171885853017
 31
0.0
  0
LINE
  5
3740
330
18
100
AcDbEntity
  8
DRAW2
100
AcDbLine
 10
1285.859663917763
 20
432.214913164013
 30
0.0
 11
1285.859663917763
 21
415.171885853017
 31
0.0
  0
LINE
  5
3741
330
18
100
AcDbEntity
  8
DRAW2
100
AcDbLine
 10
1285.92413304568
 20
432.214913164013
 30
0.0
 11
1285.92413304568
 21
415.171885853017
 31
0.0
  0
LINE
  5
3742
330
18
100
AcDbEntity
  8
DRAW2
100
AcDbLine
 10
1279.674095545679
 20
411.1227880590524
 30
0.0
 11
1282.556329032073
 21
411.1227880590524
 31
0.0
  0
LINE
  5
3743
330
18
100
AcDbEntity
  8
DRAW2
100
AcDbLine
 10
1279.674095545679
 20
414.2209836469813
 30
0.0
 11
1282.556329032073
 21
414.2209836469813
 31
0.0
  0
LINE
  5
3744
330
18
100
AcDbEntity
  8
DRAW2
100
AcDbLine
 10
1282.211034037932
 20
415.1252635441272
 30
0.0
 11
1280.322762925511
 21
415.1252635441272
 31
0.0
  0
LINE
  5
3745
330
18
100
AcDbEntity
  8
DRAW2
100
AcDbLine
 10
1279.674095545679
 20
410.9218858530169
 30
0.0
 11
1284.92413304568
 21
410.9218858530169
 31
0.0
  0
LINE
  5
3746
330
18
100
AcDbEntity
  8
DRAW2
100
AcDbLine
 10
1285.17413304568
 20
414.421885853017
 30
0.0
 11
1279.674095545679
 21
414.421885853017
 31
0.0
  0
LINE
  5
3747
330
18
100
AcDbEntity
  8
DRAW2
100
AcDbLine
 10
1279.674095545679
 20
403.9218858530169
 30
0.0
 11
1284.92413304568
 21
403.9218858530169
 31
0.0
  0
ARC
  5
3748
330
18
100
AcDbEntity
  8
DRAW2
100
AcDbCircle
 10
1276.67405804568
 20
424.2368404292407
 30
0.0
 40
9.814954576223676
100
AcDbArc
 50
248.1769149490549
 51
252.2025936347652
  0
LINE
  5
3749
330
18
100
AcDbEntity
  8
DRAW2
100
AcDbLine
 10
1273.67409554568
 20
411.1227880590524
 30
0.0
 11
1270.791862059287
 21
411.1227880590524
 31
0.0
  0
LINE
  5
374A
330
18
100
AcDbEntity
  8
DRAW2
100
AcDbLine
 10
1273.67409554568
 20
410.9218858530169
 30
0.0
 11
1268.42405804568
 21
410.9218858530169
 31
0.0
  0
LINE
  5
374B
330
18
100
AcDbEntity
  8
DRAW2
100
AcDbLine
 10
1273.67409554568
 20
414.2209836469813
 30
0.0
 11
1270.791862059287
 21
414.2209836469813
 31
0.0
  0
LINE
  5
374C
330
18
100
AcDbEntity
  8
DRAW2
100
AcDbLine
 10
1268.17405804568
 20
414.421885853017
 30
0.0
 11
1273.67409554568
 21
414.421885853017
 31
0.0
  0
LINE
  5
374D
330
18
100
AcDbEntity
  8
DRAW2
100
AcDbLine
 10
1268.17405804568
 20
414.421885853017
 30
0.0
 11
1267.42405804568
 21
415.171885853017
 31
0.0
  0
LINE
  5
374E
330
18
100
AcDbEntity
  8
DRAW2
100
AcDbLine
 10
1267.42405804568
 20
415.171885853017
 30
0.0
 11
1268.17405804568
 21
414.421885853017
 31
0.0
  0
ARC
  5
374F
330
18
100
AcDbEntity
  8
DRAW2
100
AcDbCircle
 10
1269.337459926404
 20
417.0751478313661
 30
0.0
 40
2.653480447004878
100
AcDbArc
 50
225.8295459170006
 51
312.7062791753825
  0
LINE
  5
3750
330
18
100
AcDbEntity
  8
DRAW2
100
AcDbLine
 10
1270.791862059287
 20
411.1227880590524
 30
0.0
 11
1270.791862059287
 21
414.2209836469813
 31
0.0
  0
LINE
  5
3751
330
18
100
AcDbEntity
  8
DRAW2
100
AcDbLine
 10
1267.833822167737
 20
411.1227880590524
 30
0.0
 11
1267.833822167737
 21
414.2223609437433
 31
0.0
  0
LINE
  5
3752
330
18
100
AcDbEntity
  8
DRAW2
100
AcDbLine
 10
1267.67405804568
 20
411.1227880590524
 30
0.0
 11
1268.42405804568
 21
410.9218858530169
 31
0.0
  0
LINE
  5
3753
330
18
100
AcDbEntity
  8
DRAW2
100
AcDbLine
 10
1267.833822167737
 20
411.1227880590524
 30
0.0
 11
1267.67405804568
 21
411.1227880590524
 31
0.0
  0
ARC
  5
3754
330
18
100
AcDbEntity
  8
DRAW2
100
AcDbCircle
 10
1269.31670817851
 20
419.4033721909356
 30
0.0
 40
8.412313860415329
100
AcDbArc
 50
259.8470989734779
 51
280.1529010265164
  0
LINE
  5
3755
330
18
100
AcDbEntity
  8
DRAW2
100
AcDbLine
 10
1267.833822167737
 20
414.2209836469813
 30
0.0
 11
1267.67405804568
 21
414.2209836469813
 31
0.0
  0
LINE
  5
3756
330
18
100
AcDbEntity
  8
DRAW2
100
AcDbLine
 10
1267.67405804568
 20
414.2209836469813
 30
0.0
 11
1268.42405804568
 21
414.421885853017
 31
0.0
  0
ARC
  5
3757
330
18
100
AcDbEntity
  8
DRAW2
100
AcDbCircle
 10
1269.312842113512
 20
405.8967653332967
 30
0.0
 40
8.455947153849152
100
AcDbArc
 50
79.87343051783035
 51
100.0733534660007
  0
LINE
  5
3758
330
18
100
AcDbEntity
  8
DRAW2
100
AcDbLine
 10
1267.67405804568
 20
411.1227880590524
 30
0.0
 11
1267.67405804568
 21
414.2209836469813
 31
0.0
  0
LINE
  5
3759
330
18
100
AcDbEntity
  8
DRAW2
100
AcDbLine
 10
1273.025428165848
 20
417.3023896383011
 30
0.0
 11
1273.025428165848
 21
415.1252635441272
 31
0.0
  0
LINE
  5
375A
330
18
100
AcDbEntity
  8
DRAW2
100
AcDbLine
 10
1267.42405804568
 20
415.171885853017
 30
0.0
 11
1267.488527173596
 21
415.171885853017
 31
0.0
  0
LINE
  5
375B
330
18
100
AcDbEntity
  8
DRAW2
100
AcDbLine
 10
1271.137232053428
 20
415.1252635441272
 30
0.0
 11
1273.025503165848
 21
415.1252635441272
 31
0.0
  0
ARC
  5
375C
330
18
100
AcDbEntity
  8
DRAW2
100
AcDbCircle
 10
1276.67413304568
 20
424.2368404292407
 30
0.0
 40
9.814954576223676
100
AcDbArc
 50
287.7974063652347
 51
291.823085050945
  0
LINE
  5
375D
330
18
100
AcDbEntity
  8
DRAW2
100
AcDbLine
 10
1280.322762925511
 20
417.3023896383011
 30
0.0
 11
1280.322762925511
 21
415.1252635441272
 31
0.0
  0
LINE
  5
375E
330
18
100
AcDbEntity
  8
DRAW2
100
AcDbLine
 10
1273.67409554568
 20
403.9218858530169
 30
0.0
 11
1268.42405804568
 21
403.9218858530169
 31
0.0
  0
LINE
  5
375F
330
18
100
AcDbEntity
  8
DRAW2
100
AcDbLine
 10
1274.674095545679
 20
399.921885853017
 30
0.0
 11
1278.674095545679
 21
399.921885853017
 31
0.0
  0
ARC
  5
3760
330
18
100
AcDbEntity
  8
DRAW2
100
AcDbCircle
 10
1278.674095545679
 20
400.921885853017
 30
0.0
 40
1.0
100
AcDbArc
 50
270.0
 51
0.0
  0
ARC
  5
3761
330
18
100
AcDbEntity
  8
DRAW2
100
AcDbCircle
 10
1274.674095545679
 20
400.921885853017
 30
0.0
 40
1.0
100
AcDbArc
 50
180.0
 51
270.0
  0
LINE
  5
3762
330
18
100
AcDbEntity
  8
DRAW2
100
AcDbLine
 10
1268.42405804568
 20
403.9218858530169
 30
0.0
 11
1268.42405804568
 21
410.9218858530169
 31
0.0
  0
LINE
  5
3763
330
18
100
AcDbEntity
  8
DRAW2
100
AcDbLine
 10
1279.674095545679
 20
417.0056873659211
 30
0.0
 11
1279.674095545679
 21
400.921885853017
 31
0.0
  0
LINE
  5
3764
330
18
100
AcDbEntity
  8
DRAW2
100
AcDbLine
 10
1273.67409554568
 20
417.0056873659211
 30
0.0
 11
1273.67409554568
 21
400.921885853017
 31
0.0
  0
LINE
  5
3765
330
18
100
AcDbEntity
  8
DRAW2
100
AcDbLine
 10
1285.17413304568
 20
414.421885853017
 30
0.0
 11
1285.92413304568
 21
415.171885853017
 31
0.0
  0
LINE
  5
3766
330
18
100
AcDbEntity
  8
DRAW2
100
AcDbLine
 10
1285.92413304568
 20
415.171885853017
 30
0.0
 11
1285.17413304568
 21
414.421885853017
 31
0.0
  0
LINE
  5
3767
330
18
100
AcDbEntity
  8
DRAW2
100
AcDbLine
 10
1285.514368923622
 20
411.1227880590524
 30
0.0
 11
1285.514368923622
 21
414.2223609437433
 31
0.0
  0
LINE
  5
3768
330
18
100
AcDbEntity
  8
DRAW2
100
AcDbLine
 10
1285.67413304568
 20
411.1227880590524
 30
0.0
 11
1285.67413304568
 21
414.2209836469813
 31
0.0
  0
LINE
  5
3769
330
18
100
AcDbEntity
  8
DRAW2
100
AcDbLine
 10
1285.67413304568
 20
411.1227880590524
 30
0.0
 11
1284.92413304568
 21
410.9218858530169
 31
0.0
  0
LINE
  5
376A
330
18
100
AcDbEntity
  8
DRAW2
100
AcDbLine
 10
1285.514368923622
 20
411.1227880590524
 30
0.0
 11
1285.67413304568
 21
411.1227880590524
 31
0.0
  0
LINE
  5
376B
330
18
100
AcDbEntity
  8
DRAW2
100
AcDbLine
 10
1285.514368923622
 20
414.2209836469813
 30
0.0
 11
1285.67413304568
 21
414.2209836469813
 31
0.0
  0
LINE
  5
376C
330
18
100
AcDbEntity
  8
DRAW2
100
AcDbLine
 10
1285.67413304568
 20
414.2209836469813
 30
0.0
 11
1284.92413304568
 21
414.421885853017
 31
0.0
  0
LINE
  5
376D
330
18
100
AcDbEntity
  8
DRAW2
100
AcDbLine
 10
1285.92413304568
 20
415.171885853017
 30
0.0
 11
1285.859663917763
 21
415.171885853017
 31
0.0
  0
LINE
  5
376E
330
18
100
AcDbEntity
  8
DRAW2
100
AcDbLine
 10
1282.556329032073
 20
411.1227880590524
 30
0.0
 11
1282.556329032073
 21
414.2209836469813
 31
0.0
  0
ARC
  5
376F
330
18
100
AcDbEntity
  8
DRAW2
100
AcDbCircle
 10
1284.010731164955
 20
417.0751478313661
 30
0.0
 40
2.653480447004878
100
AcDbArc
 50
227.2937208246168
 51
314.1704540829993
  0
ARC
  5
3770
330
18
100
AcDbEntity
  8
DRAW2
100
AcDbCircle
 10
1284.03148291285
 20
419.4033721909356
 30
0.0
 40
8.412313860415329
100
AcDbArc
 50
259.8470989734835
 51
280.152901026522
  0
ARC
  5
3771
330
18
100
AcDbEntity
  8
DRAW2
100
AcDbCircle
 10
1284.035348977847
 20
405.8967653332967
 30
0.0
 40
8.455947153849152
100
AcDbArc
 50
79.92664653399924
 51
100.1265694821696
  0
LINE
  5
3772
330
18
100
AcDbEntity
  8
DRAW2
100
AcDbLine
 10
1284.92413304568
 20
403.9218858530169
 30
0.0
 11
1284.92413304568
 21
410.9218858530169
 31
0.0
  0
LINE
  5
3773
330
18
100
AcDbEntity
  8
DRAW2
100
AcDbLine
 10
1288.674095545679
 20
435.9218858530169
 30
0.0
 11
1288.674095545679
 21
441.6762263805655
 31
0.0
  0
LINE
  5
3774
330
18
100
AcDbEntity
  8
DRAW2
100
AcDbLine
 10
1280.322762925511
 20
432.214913164013
 30
0.0
 11
1282.211034037932
 21
432.214913164013
 31
0.0
  0
LINE
  5
3775
330
18
100
AcDbEntity
  8
DRAW2
100
AcDbLine
 10
1269.931024367207
 20
433.6444081418811
 30
0.0
 11
1283.417241724153
 21
433.6444081418811
 31
0.0
  0
LINE
  5
3776
330
18
100
AcDbEntity
  8
DRAW2
100
AcDbLine
 10
1283.36825804568
 20
435.211885853017
 30
0.0
 11
1269.98000804568
 21
435.211885853017
 31
0.0
  0
CIRCLE
  5
3777
330
18
100
AcDbEntity
  8
DRAW2
100
AcDbCircle
 10
1276.67409554568
 20
424.4218858530169
 30
0.0
 40
6.0
  0
ARC
  5
3778
330
18
100
AcDbEntity
  8
DRAW2
100
AcDbCircle
 10
1276.67413304568
 20
416.3892558430153
 30
0.0
 40
16.24081062144512
100
AcDbArc
 50
77.01722515769001
 51
102.9827748423099
  0
LINE
  5
3779
330
18
100
AcDbEntity
  8
DRAW2
100
AcDbLine
 10
1273.025428165848
 20
432.214913164013
 30
0.0
 11
1273.025428165848
 21
431.5413820677327
 31
0.0
  0
ARC
  5
377A
330
18
100
AcDbEntity
  8
DRAW2
100
AcDbCircle
 10
1269.327480446301
 20
428.3649727248015
 30
0.0
 40
4.266557709360186
100
AcDbArc
 50
64.46908114148318
 51
115.5309188585219
  0
LINE
  5
377B
330
18
100
AcDbEntity
  8
DRAW2
100
AcDbLine
 10
1269.931024367207
 20
433.6444081418811
 30
0.0
 11
1267.42413304568
 21
432.214913164013
 31
0.0
  0
LINE
  5
377C
330
18
100
AcDbEntity
  8
DRAW3
100
AcDbLine
 10
1269.931024367207
 20
433.6444081418811
 30
0.0
 11
1270.83600804568
 21
435.211885853017
 31
0.0
  0
LINE
  5
377D
330
18
100
AcDbEntity
  8
DRAW3
100
AcDbLine
 10
1270.83600804568
 20
435.211885853017
 30
0.0
 11
1270.85819554568
 21
435.9218858530165
 31
0.0
  0
LINE
  5
377E
330
18
100
AcDbEntity
  8
DRAW2
100
AcDbLine
 10
1269.931024367207
 20
433.6444081418811
 30
0.0
 11
1270.002195545679
 21
435.9218858530165
 31
0.0
  0
LINE
  5
377F
330
18
100
AcDbEntity
  8
DRAW2
100
AcDbLine
 10
1267.488602173596
 20
432.214913164013
 30
0.0
 11
1267.42413304568
 21
432.214913164013
 31
0.0
  0
LINE
  5
3780
330
18
100
AcDbEntity
  8
DRAW2
100
AcDbLine
 10
1273.025503165848
 20
432.214913164013
 30
0.0
 11
1271.137232053428
 21
432.214913164013
 31
0.0
  0
LINE
  5
3781
330
18
100
AcDbEntity
  8
DRAW2
100
AcDbLine
 10
1280.322762925511
 20
432.214913164013
 30
0.0
 11
1280.322762925511
 21
431.5413820677327
 31
0.0
  0
CIRCLE
  5
3782
330
18
100
AcDbEntity
  8
DRAW2
100
AcDbCircle
 10
1276.67409554568
 20
424.4218858530169
 30
0.0
 40
5.0
  0
LINE
  5
3783
330
18
100
AcDbEntity
  8
DRAW2
100
AcDbLine
 10
1271.137157053428
 20
432.214913164013
 30
0.0
 11
1271.137157053428
 21
430.1961660794192
 31
0.0
  0
LINE
  5
3784
330
18
100
AcDbEntity
  8
DRAW2
100
AcDbLine
 10
1283.417241724153
 20
433.6444081418811
 30
0.0
 11
1285.92413304568
 21
432.214913164013
 31
0.0
  0
LINE
  5
3785
330
18
100
AcDbEntity
  8
DRAW2
100
AcDbLine
 10
1283.417241724153
 20
433.6444081418811
 30
0.0
 11
1283.34607054568
 21
435.9218858530165
 31
0.0
  0
LINE
  5
3786
330
18
100
AcDbEntity
  8
DRAW2
100
AcDbLine
 10
1285.859663917763
 20
432.214913164013
 30
0.0
 11
1285.92413304568
 21
432.214913164013
 31
0.0
  0
LINE
  5
3787
330
18
100
AcDbEntity
  8
DRAW3
100
AcDbLine
 10
1282.512258045679
 20
435.211885853017
 30
0.0
 11
1282.49007054568
 21
435.9218858530169
 31
0.0
  0
ARC
  5
3788
330
18
100
AcDbEntity
  8
DRAW2
100
AcDbCircle
 10
1284.020785645059
 20
428.3649727248015
 30
0.0
 40
4.266557709360186
100
AcDbArc
 50
64.46908114148318
 51
115.5309188585168
  0
LINE
  5
3789
330
18
100
AcDbEntity
  8
DRAW3
100
AcDbLine
 10
1283.417241724153
 20
433.6444081418811
 30
0.0
 11
1282.512258045679
 21
435.211885853017
 31
0.0
  0
LINE
  5
378A
330
18
100
AcDbEntity
  8
DRAW2
100
AcDbLine
 10
1282.211034037932
 20
432.214913164013
 30
0.0
 11
1282.211034037932
 21
430.1961660794192
 31
0.0
  0
LINE
  5
378B
330
18
100
AcDbEntity
  8
DRAW2
100
AcDbLine
 10
1324.378530545679
 20
441.8619593515196
 30
0.0
 11
1324.378530545679
 21
435.3619593515194
 31
0.0
  0
LINE
  5
378C
330
18
100
AcDbEntity
  8
DRAW2
100
AcDbLine
 10
1329.878720545679
 20
436.8619593515196
 30
0.0
 11
1324.878720545679
 21
436.8619593515196
 31
0.0
  0
LINE
  5
378D
330
18
100
AcDbEntity
  8
DRAW2
100
AcDbLine
 10
1323.878720545679
 20
452.8619593515196
 30
0.0
 11
1322.878590545679
 21
452.8619593515196
 31
0.0
  0
LINE
  5
378E
330
18
100
AcDbEntity
  8
DRAW2
100
AcDbLine
 10
1324.878720545679
 20
441.8619593515193
 30
0.0
 11
1322.878590545679
 21
441.8619593515194
 31
0.0
  0
LINE
  5
378F
330
18
100
AcDbEntity
  8
DRAW3
100
AcDbLine
 10
1324.878720545679
 20
442.4869593515195
 30
0.0
 11
1322.878590545679
 21
442.4869593515195
 31
0.0
  0
LINE
  5
3790
330
18
100
AcDbEntity
  8
DRAW2
100
AcDbLine
 10
1324.878720545679
 20
449.8619593515192
 30
0.0
 11
1322.878590545679
 21
449.8619593515192
 31
0.0
  0
LINE
  5
3791
330
18
100
AcDbEntity
  8
DRAW3
100
AcDbLine
 10
1324.878720545679
 20
449.2369293515196
 30
0.0
 11
1322.878590545679
 21
449.2369293515195
 31
0.0
  0
ARC
  5
3792
330
18
100
AcDbEntity
  8
DRAW2
100
AcDbCircle
 10
1323.878720545679
 20
451.8619593515195
 30
0.0
 40
1.0
100
AcDbArc
 50
0.0
 51
90.0
  0
LINE
  5
3793
330
18
100
AcDbEntity
  8
DRAW2
100
AcDbLine
 10
1322.37404554568
 20
473.2642693515194
 30
0.0
 11
1251.37404554568
 21
473.2642693515194
 31
0.0
  0
LINE
  5
3794
330
18
100
AcDbEntity
  8
DRAW2
100
AcDbLine
 10
1322.37404554568
 20
542.4596493515196
 30
0.0
 11
1251.37404554568
 21
542.4596493515196
 31
0.0
  0
LINE
  5
3795
330
18
100
AcDbEntity
  8
DRAW2
100
AcDbLine
 10
1245.484482852211
 20
519.3619593515196
 30
0.0
 11
1327.518163239148
 21
519.3619593515196
 31
0.0
  0
LINE
  5
3796
330
18
100
AcDbEntity
  8
DRAW2
100
AcDbLine
 10
1245.48448285221
 20
496.3619593515194
 30
0.0
 11
1327.518163239148
 21
496.3619593515194
 31
0.0
  0
LINE
  5
3797
330
18
100
AcDbEntity
  8
DRAW2
100
AcDbLine
 10
1221.878530545679
 20
492.5298674797256
 30
0.0
 11
1221.878530545679
 21
523.194051223313
 31
0.0
  0
LINE
  5
3798
330
18
100
AcDbEntity
  8
DRAW2
100
AcDbLine
 10
1229.878530545679
 20
492.5298674797256
 30
0.0
 11
1229.878530545679
 21
523.194051223313
 31
0.0
  0
ARC
  5
3799
330
18
100
AcDbEntity
  8
DRAW2
100
AcDbCircle
 10
1225.878530545679
 20
507.8619593515196
 30
0.0
 40
19.5
100
AcDbArc
 50
155.1654125103082
 51
204.8345874896917
  0
ARC
  5
379A
330
18
100
AcDbEntity
  8
DRAW2
100
AcDbCircle
 10
1225.878530545679
 20
507.8619593515196
 30
0.0
 40
15.5
100
AcDbArc
 50
155.1654125103082
 51
204.8345874896917
  0
ARC
  5
379B
330
18
100
AcDbEntity
  8
DRAW2
100
AcDbCircle
 10
1225.878530545679
 20
507.8619593515196
 30
0.0
 40
19.5
100
AcDbArc
 50
335.1654125103082
 51
24.83458748969177
  0
ARC
  5
379C
330
18
100
AcDbEntity
  8
DRAW2
100
AcDbCircle
 10
1225.878530545679
 20
507.8619593515196
 30
0.0
 40
15.5
100
AcDbArc
 50
335.1654125103082
 51
24.83458748969177
  0
LINE
  5
379D
330
18
100
AcDbEntity
  8
DRAW2
100
AcDbLine
 10
1233.384084745679
 20
482.861958721393
 30
0.0
 11
1229.631307845679
 21
489.3619593515196
 31
0.0
  0
LINE
  5
379E
330
18
100
AcDbEntity
  8
DRAW2
100
AcDbLine
 10
1229.631312145679
 20
476.3619564515196
 30
0.0
 11
1233.384089045679
 21
482.8619569288822
 31
0.0
  0
LINE
  5
379F
330
18
100
AcDbEntity
  8
DRAW2
100
AcDbLine
 10
1236.533894908466
 20
496.3619593515191
 30
0.0
 11
1230.878530545679
 21
496.3619593515194
 31
0.0
  0
ARC
  5
37A1
330
18
100
AcDbEntity
  8
DRAW2
100
AcDbCircle
 10
1225.878530545679
 20
482.8619593515196
 30
0.0
 40
9.0
100
AcDbArc
 50
204.8345874896917
 51
335.1654125103082
  0
ARC
  5
37A3
330
18
100
AcDbEntity
  8
DRAW2
100
AcDbCircle
 10
1232.725375303223
 20
492.5298674797256
 30
0.0
 40
2.846844757543717
100
AcDbArc
 50
180.0
 51
335.1654125103082
  0
CIRCLE
  5
37A4
330
18
100
AcDbEntity
  8
DRAW2
100
AcDbCircle
 10
1225.878530545679
 20
482.8619593515196
 30
0.0
 40
7.75
  0
CIRCLE
  5
37A5
330
18
100
AcDbEntity
  8
DRAW2
100
AcDbCircle
 10
1225.878530545679
 20
482.8619593515196
 30
0.0
 40
8.5
  0
LINE
  5
37A6
330
18
100
AcDbEntity
  8
DRAW2
100
AcDbLine
 10
1218.372979645679
 20
482.8619572442041
 30
0.0
 11
1222.125756745679
 21
489.3619579515195
 31
0.0
  0
LINE
  5
37A7
330
18
100
AcDbEntity
  8
DRAW2
100
AcDbLine
 10
1208.181810510599
 20
499.671959351519
 30
0.0
 11
1217.710813606411
 21
479.0819593515193
 31
0.0
  0
CIRCLE
  5
37A8
330
18
100
AcDbEntity
  8
DRAW2
100
AcDbCircle
 10
1225.878530545679
 20
482.8619593515196
 30
0.0
 40
6.500003299999997
  0
LINE
  5
37A9
330
18
100
AcDbEntity
  8
DRAW2
100
AcDbLine
 10
1229.631299345679
 20
476.3619717515195
 30
0.0
 11
1222.125745145679
 21
476.3619717515195
 31
0.0
  0
LINE
  5
37AA
330
18
100
AcDbEntity
  8
DRAW2
100
AcDbLine
 10
1222.125753245679
 20
476.3619593515196
 30
0.0
 11
1218.372976345679
 21
482.861959981646
 31
0.0
  0
LINE
  5
37AB
330
18
100
AcDbEntity
  8
DRAW2
100
AcDbLine
 10
1211.811906928051
 20
501.3519593515194
 30
0.0
 11
1216.448105549285
 21
491.3341926815575
 31
0.0
  0
LINE
  5
37AC
330
18
100
AcDbEntity
  8
DRAW2
100
AcDbLine
 10
1215.223166182892
 20
496.3619593515191
 30
0.0
 11
1220.878530545679
 21
496.3619593515194
 31
0.0
  0
LINE
  5
37AD
330
18
100
AcDbEntity
  8
DRAW2
100
AcDbLine
 10
1229.631293145679
 20
489.3619736515196
 30
0.0
 11
1222.125738945679
 21
489.3619736515196
 31
0.0
  0
ARC
  5
37AE
330
18
100
AcDbEntity
  8
DRAW2
100
AcDbCircle
 10
1219.031685788135
 20
492.5298674797256
 30
0.0
 40
2.846844757543717
100
AcDbArc
 50
204.8345874896917
 51
0.0
  0
ARC
  5
37AF
330
18
100
AcDbEntity
  8
DRAW2
100
AcDbCircle
 10
1239.878496645679
 20
486.8619593515196
 30
0.0
 40
1.5
100
AcDbArc
 50
0.0
 51
90.0
  0
LINE
  5
37B0
330
18
100
AcDbEntity
  8
DRAW2
100
AcDbLine
 10
1248.878590545679
 20
496.3619593515194
 30
0.0
 11
1248.878590545679
 21
480.8620193515224
 31
0.0
  0
LINE
  5
37B1
330
18
100
AcDbEntity
  8
DRAW2
100
AcDbLine
 10
1234.046247484947
 20
479.0819593515193
 30
0.0
 11
1243.575250580759
 21
499.6719593515195
 31
0.0
  0
LINE
  5
37B2
330
18
100
AcDbEntity
  8
DRAW3
100
AcDbLine
 10
1249.878590545679
 20
480.2369893515194
 30
0.0
 11
1247.878590545679
 21
480.2369893515194
 31
0.0
  0
LINE
  5
37B3
330
18
100
AcDbEntity
  8
DRAW2
100
AcDbLine
 10
1249.878590545679
 20
480.8620193515224
 30
0.0
 11
1247.878590545679
 21
480.8620193515224
 31
0.0
  0
LINE
  5
37B4
330
18
100
AcDbEntity
  8
DRAW2
100
AcDbLine
 10
1249.878590545679
 20
472.8620193515224
 30
0.0
 11
1247.878590545679
 21
472.8620193515224
 31
0.0
  0
LINE
  5
37B5
330
18
100
AcDbEntity
  8
DRAW3
100
AcDbLine
 10
1249.878590545679
 20
473.4870193515191
 30
0.0
 11
1247.878590545679
 21
473.4870193515194
 31
0.0
  0
LINE
  5
37B6
330
18
100
AcDbEntity
  8
DRAW2
100
AcDbLine
 10
1236.027049087194
 20
483.3620193515193
 30
0.0
 11
1239.778490545679
 21
483.3620193515193
 31
0.0
  0
LINE
  5
37B7
330
18
100
AcDbEntity
  8
DRAW2
100
AcDbLine
 10
1239.778490545679
 20
484.6120193515193
 30
0.0
 11
1241.378496645679
 21
484.6120193515193
 31
0.0
  0
LINE
  5
37B8
330
18
100
AcDbEntity
  8
DRAW2
100
AcDbLine
 10
1234.278490545679
 20
470.3620193515193
 30
0.0
 11
1239.778490545679
 21
470.3620193515193
 31
0.0
  0
LINE
  5
37B9
330
18
100
AcDbEntity
  8
DRAW2
100
AcDbLine
 10
1234.859026345679
 20
476.8620193515195
 30
0.0
 11
1239.778490545679
 21
476.8620193515195
 31
0.0
  0
LINE
  5
37BA
330
18
100
AcDbEntity
  8
DRAW2
100
AcDbLine
 10
1234.278490545679
 20
479.5837835793427
 30
0.0
 11
1234.278490545679
 21
470.3620193515193
 31
0.0
  0
ARC
  5
37BB
330
18
100
AcDbEntity
  8
DRAW2
100
AcDbCircle
 10
1243.665956875679
 20
480.1120193515193
 30
0.0
 40
9.3874664
100
AcDbArc
 50
183.0501113722275
 51
200.2554489999956
  0
ARC
  5
37BC
330
18
100
AcDbEntity
  8
DRAW2
100
AcDbCircle
 10
1243.665956875679
 20
473.6120193515192
 30
0.0
 40
9.3874664
100
AcDbArc
 50
159.7445299999972
 51
200.2554489999956
  0
LINE
  5
37BD
330
18
100
AcDbEntity
  8
DRAW2
100
AcDbLine
 10
1239.778490545679
 20
469.1120193515192
 30
0.0
 11
1241.378496645679
 21
469.1120193515192
 31
0.0
  0
LINE
  5
37BE
330
18
100
AcDbEntity
  8
DRAW2
100
AcDbLine
 10
1239.778490545679
 20
484.6120193515193
 30
0.0
 11
1239.778490545679
 21
469.1120193515192
 31
0.0
  0
LINE
  5
37BF
330
18
100
AcDbEntity
  8
DRAW2
100
AcDbLine
 10
1235.308955542073
 20
491.3341926815575
 30
0.0
 11
1239.945154163307
 21
501.3519593515196
 31
0.0
  0
ARC
  5
37C0
330
18
100
AcDbEntity
  8
DRAW2
100
AcDbCircle
 10
1245.23889785221
 20
491.3619593515191
 30
0.0
 40
5.0
100
AcDbArc
 50
90.0
 51
155.1654125103082
  0
LINE
  5
37C1
330
18
100
AcDbEntity
  8
DRAW2
100
AcDbLine
 10
1238.341009443623
 20
488.3619593515196
 30
0.0
 11
1239.878496645679
 21
488.3619593515196
 31
0.0
  0
LINE
  5
37C2
330
18
100
AcDbEntity
  8
DRAW2
100
AcDbLine
 10
1233.384084745679
 20
532.861958721393
 30
0.0
 11
1229.631307845679
 21
539.3619593515196
 31
0.0
  0
LINE
  5
37C3
330
18
100
AcDbEntity
  8
DRAW2
100
AcDbLine
 10
1229.631312145679
 20
526.3619564515196
 30
0.0
 11
1233.384089045679
 21
532.8619569288822
 31
0.0
  0
LINE
  5
37C4
330
18
100
AcDbEntity
  8
DRAW2
100
AcDbLine
 10
1236.533894908466
 20
519.3619593515192
 30
0.0
 11
1230.878530545679
 21
519.3619593515193
 31
0.0
  0
ARC
  5
37C6
330
18
100
AcDbEntity
  8
DRAW2
100
AcDbCircle
 10
1225.878530545679
 20
532.8619593515196
 30
0.0
 40
9.0
100
AcDbArc
 50
24.83458748969177
 51
155.1654125103082
  0
ARC
  5
37C8
330
18
100
AcDbEntity
  8
DRAW2
100
AcDbCircle
 10
1232.725375303223
 20
523.194051223313
 30
0.0
 40
2.846844757543717
100
AcDbArc
 50
24.83458748969177
 51
180.0
  0
ARC
  5
37C9
330
18
100
AcDbEntity
  8
DRAW2
100
AcDbCircle
 10
1267.82853054568
 20
507.8619593515196
 30
0.0
 40
52.45
100
AcDbArc
 50
120.28426191859
 51
139.8663179740281
  0
CIRCLE
  5
37CA
330
18
100
AcDbEntity
  8
DRAW2
100
AcDbCircle
 10
1225.878530545679
 20
532.8619593515196
 30
0.0
 40
7.75
  0
CIRCLE
  5
37CB
330
18
100
AcDbEntity
  8
DRAW2
100
AcDbCircle
 10
1225.878530545679
 20
532.8619593515196
 30
0.0
 40
8.5
  0
LINE
  5
37CC
330
18
100
AcDbEntity
  8
DRAW2
100
AcDbLine
 10
1218.372979645679
 20
532.8619572442041
 30
0.0
 11
1222.125756745679
 21
539.3619579515195
 31
0.0
  0
LINE
  5
37CD
330
18
100
AcDbEntity
  8
DRAW2
100
AcDbLine
 10
1208.181810510599
 20
516.0519593515195
 30
0.0
 11
1217.710813606411
 21
536.6419593515193
 31
0.0
  0
CIRCLE
  5
37CE
330
18
100
AcDbEntity
  8
DRAW2
100
AcDbCircle
 10
1225.878530545679
 20
532.8619593515196
 30
0.0
 40
6.500003299999997
  0
LINE
  5
37CF
330
18
100
AcDbEntity
  8
DRAW2
100
AcDbLine
 10
1211.811906928051
 20
514.371959351519
 30
0.0
 11
1216.448105549285
 21
524.3897260214815
 31
0.0
  0
LINE
  5
37D0
330
18
100
AcDbEntity
  8
DRAW2
100
AcDbLine
 10
1215.223166182892
 20
519.3619593515192
 30
0.0
 11
1220.878530545679
 21
519.3619593515193
 31
0.0
  0
LINE
  5
37D1
330
18
100
AcDbEntity
  8
DRAW2
100
AcDbLine
 10
1229.631299345679
 20
526.3619717515195
 30
0.0
 11
1222.125745145679
 21
526.3619717515195
 31
0.0
  0
ARC
  5
37D2
330
18
100
AcDbEntity
  8
DRAW2
100
AcDbCircle
 10
1219.031685788135
 20
523.194051223313
 30
0.0
 40
2.846844757543717
100
AcDbArc
 50
0.0
 51
155.1654125103082
  0
LINE
  5
37D3
330
18
100
AcDbEntity
  8
DRAW2
100
AcDbLine
 10
1222.125753245679
 20
526.3619593515196
 30
0.0
 11
1218.372976345679
 21
532.8619599816461
 31
0.0
  0
LINE
  5
37D4
330
18
100
AcDbEntity
  8
DRAW2
100
AcDbLine
 10
1229.631293145679
 20
539.3619736515196
 30
0.0
 11
1222.125738945679
 21
539.3619736515196
 31
0.0
  0
LINE
  5
37D5
330
18
100
AcDbEntity
  8
DRAW2
100
AcDbLine
 10
1239.778490545679
 20
531.11189935152
 30
0.0
 11
1239.778490545679
 21
546.61189935152
 31
0.0
  0
LINE
  5
37D6
330
18
100
AcDbEntity
  8
DRAW2
100
AcDbLine
 10
1234.046247484947
 20
536.6419593515193
 30
0.0
 11
1243.575250580759
 21
516.0519593515195
 31
0.0
  0
LINE
  5
37D7
330
18
100
AcDbEntity
  8
DRAW2
100
AcDbLine
 10
1248.878590545679
 20
534.8618993515165
 30
0.0
 11
1248.878590545679
 21
519.3619593515196
 31
0.0
  0
LINE
  5
37D8
330
18
100
AcDbEntity
  8
DRAW2
100
AcDbLine
 10
1236.027049087193
 20
532.36189935152
 30
0.0
 11
1239.778490545679
 21
532.36189935152
 31
0.0
  0
LINE
  5
37D9
330
18
100
AcDbEntity
  8
DRAW2
100
AcDbLine
 10
1239.778490545679
 20
531.11189935152
 30
0.0
 11
1241.378496645679
 21
531.11189935152
 31
0.0
  0
LINE
  5
37DA
330
18
100
AcDbEntity
  8
DRAW2
100
AcDbLine
 10
1235.308955542073
 20
524.3897260214815
 30
0.0
 11
1239.945154163307
 21
514.371959351519
 31
0.0
  0
ARC
  5
37DB
330
18
100
AcDbEntity
  8
DRAW2
100
AcDbCircle
 10
1245.238897852211
 20
524.3619593515196
 30
0.0
 40
5.0
100
AcDbArc
 50
204.8345874896917
 51
270.0
  0
LINE
  5
37DC
330
18
100
AcDbEntity
  8
DRAW2
100
AcDbLine
 10
1238.341009443623
 20
527.3619593515197
 30
0.0
 11
1239.878496645679
 21
527.3619593515197
 31
0.0
  0
ARC
  5
37DD
330
18
100
AcDbEntity
  8
DRAW2
100
AcDbCircle
 10
1239.878496645679
 20
528.8619593515196
 30
0.0
 40
1.5
100
AcDbArc
 50
270.0
 51
0.0
  0
LINE
  5
37DE
330
18
100
AcDbEntity
  8
DRAW2
100
AcDbLine
 10
1249.878590545679
 20
542.8618993515166
 30
0.0
 11
1247.878590545679
 21
542.8618993515164
 31
0.0
  0
LINE
  5
37DF
330
18
100
AcDbEntity
  8
DRAW3
100
AcDbLine
 10
1249.878590545679
 20
542.2368993515201
 30
0.0
 11
1247.878590545679
 21
542.23689935152
 31
0.0
  0
LINE
  5
37E0
330
18
100
AcDbEntity
  8
DRAW3
100
AcDbLine
 10
1249.878590545679
 20
535.4869293515198
 30
0.0
 11
1247.878590545679
 21
535.4869293515198
 31
0.0
  0
LINE
  5
37E1
330
18
100
AcDbEntity
  8
DRAW2
100
AcDbLine
 10
1249.878590545679
 20
534.8618993515166
 30
0.0
 11
1247.878590545679
 21
534.8618993515164
 31
0.0
  0
LINE
  5
37E2
330
18
100
AcDbEntity
  8
DRAW2
100
AcDbLine
 10
1234.278490545679
 20
545.36189935152
 30
0.0
 11
1239.778490545679
 21
545.36189935152
 31
0.0
  0
LINE
  5
37E3
330
18
100
AcDbEntity
  8
DRAW2
100
AcDbLine
 10
1234.859026345679
 20
538.8618993515195
 30
0.0
 11
1239.778490545679
 21
538.8618993515195
 31
0.0
  0
ARC
  5
37E4
330
18
100
AcDbEntity
  8
DRAW2
100
AcDbCircle
 10
1243.665956875679
 20
535.61189935152
 30
0.0
 40
9.3874664
100
AcDbArc
 50
159.7445510000044
 51
176.9498886277789
  0
ARC
  5
37E5
330
18
100
AcDbEntity
  8
DRAW2
100
AcDbCircle
 10
1243.665956875679
 20
542.1118993515196
 30
0.0
 40
9.3874664
100
AcDbArc
 50
159.7445510000044
 51
200.2554700000027
  0
LINE
  5
37E6
330
18
100
AcDbEntity
  8
DRAW2
100
AcDbLine
 10
1234.278490545679
 20
536.1401351236956
 30
0.0
 11
1234.278490545679
 21
545.36189935152
 31
0.0
  0
LINE
  5
37E7
330
18
100
AcDbEntity
  8
DRAW2
100
AcDbLine
 10
1239.778490545679
 20
546.61189935152
 30
0.0
 11
1241.378496645679
 21
546.61189935152
 31
0.0
  0
ARC
  5
37E8
330
18
100
AcDbEntity
  8
DRAW2
100
AcDbCircle
 10
1346.878530545679
 20
507.8619593515196
 30
0.0
 40
19.5
100
AcDbArc
 50
155.1654125103082
 51
204.8345874896917
  0
LINE
  5
37E9
330
18
100
AcDbEntity
  8
DRAW2
100
AcDbLine
 10
1323.87865554568
 20
496.3619593515194
 30
0.0
 11
1323.87865554568
 21
480.8620193515192
 31
0.0
  0
LINE
  5
37EA
330
18
100
AcDbEntity
  8
DRAW3
100
AcDbLine
 10
1324.878720545679
 20
480.2369893515195
 30
0.0
 11
1322.878590545679
 21
480.2369893515194
 31
0.0
  0
LINE
  5
37EB
330
18
100
AcDbEntity
  8
DRAW2
100
AcDbLine
 10
1324.878720545679
 20
480.8620193515194
 30
0.0
 11
1322.878590545679
 21
480.8620193515192
 31
0.0
  0
LINE
  5
37EC
330
18
100
AcDbEntity
  8
DRAW2
100
AcDbLine
 10
1324.878720545679
 20
472.8620193515194
 30
0.0
 11
1322.878590545679
 21
472.8620193515192
 31
0.0
  0
LINE
  5
37ED
330
18
100
AcDbEntity
  8
DRAW3
100
AcDbLine
 10
1324.878720545679
 20
473.4870193515193
 30
0.0
 11
1322.878590545679
 21
473.4870193515193
 31
0.0
  0
LINE
  5
37EE
330
18
100
AcDbEntity
  8
DRAW2
100
AcDbLine
 10
1323.878655545679
 20
534.86189935152
 30
0.0
 11
1323.878655545679
 21
519.3619593515196
 31
0.0
  0
LINE
  5
37EF
330
18
100
AcDbEntity
  8
DRAW2
100
AcDbLine
 10
1324.87872054568
 20
542.86189935152
 30
0.0
 11
1322.878590545679
 21
542.8618993515198
 31
0.0
  0
LINE
  5
37F0
330
18
100
AcDbEntity
  8
DRAW3
100
AcDbLine
 10
1324.87872054568
 20
542.23689935152
 30
0.0
 11
1322.878590545679
 21
542.23689935152
 31
0.0
  0
LINE
  5
37F1
330
18
100
AcDbEntity
  8
DRAW3
100
AcDbLine
 10
1324.87872054568
 20
535.4869293515198
 30
0.0
 11
1322.878590545679
 21
535.4869293515198
 31
0.0
  0
LINE
  5
37F2
330
18
100
AcDbEntity
  8
DRAW2
100
AcDbLine
 10
1324.87872054568
 20
534.86189935152
 30
0.0
 11
1322.878590545679
 21
534.8618993515197
 31
0.0
  0
LINE
  5
37F3
330
18
100
AcDbEntity
  8
DRAW2
100
AcDbLine
 10
1370.378530545679
 20
496.3619593515196
 30
0.0
 11
1370.378530545679
 21
435.3619593515194
 31
0.0
  0
ARC
  5
37F4
330
18
100
AcDbEntity
  8
DRAW2
100
AcDbCircle
 10
1332.091325566125
 20
442.6119233914098
 30
0.0
 40
9.387400979563903
100
AcDbArc
 50
339.7444380270501
 51
20.25583144527485
  0
LINE
  5
37F5
330
18
100
AcDbEntity
  8
DRAW2
100
AcDbLine
 10
1334.978726645679
 20
438.5619715515194
 30
0.0
 11
1334.978726645679
 21
453.1619471515195
 31
0.0
  0
LINE
  5
37F6
330
18
100
AcDbEntity
  8
DRAW2
100
AcDbLine
 10
1332.97872664568
 20
437.3619593515195
 30
0.0
 11
1332.97872664568
 21
454.3619593515195
 31
0.0
  0
LINE
  5
37F7
330
18
100
AcDbEntity
  8
DRAW2
100
AcDbLine
 10
1341.47872654568
 20
439.3619288515191
 30
0.0
 11
1341.47872654568
 21
452.3619593515194
 31
0.0
  0
LINE
  5
37F8
330
18
100
AcDbEntity
  8
DRAW2
100
AcDbLine
 10
1334.978726645679
 20
438.5619715515194
 30
0.0
 11
1332.97872664568
 21
438.5619715515194
 31
0.0
  0
LINE
  5
37F9
330
18
100
AcDbEntity
  8
DRAW2
100
AcDbLine
 10
1341.47872654568
 20
439.3619288515191
 30
0.0
 11
1334.978726645679
 21
439.3619288515191
 31
0.0
  0
LINE
  5
37FA
330
18
100
AcDbEntity
  8
DRAW2
100
AcDbLine
 10
1351.878585845679
 20
458.2486888515196
 30
0.0
 11
1346.878536532994
 21
461.1354683515196
 31
0.0
  0
LINE
  5
37FC
330
18
100
AcDbEntity
  8
DRAW2
100
AcDbLine
 10
1351.878548645679
 20
452.4752479515195
 30
0.0
 11
1346.878518243975
 21
449.5884793290801
 31
0.0
  0
ARC
  5
37FD
330
18
100
AcDbEntity
  8
DRAW2
100
AcDbCircle
 10
1346.87853054568
 20
455.3619440927309
 30
0.0
 40
6.250000000000468
100
AcDbArc
 50
255.2002245460356
 51
208.6852425621773
  0
CIRCLE
  5
37FE
330
18
100
AcDbEntity
  8
DRAW2
100
AcDbCircle
 10
1346.878530545679
 20
455.3619440927307
 30
0.0
 40
5.750000000000007
  0
CIRCLE
  5
37FF
330
18
100
AcDbEntity
  8
DRAW2
100
AcDbCircle
 10
1346.878530545679
 20
455.3619440927307
 30
0.0
 40
4.999984700022968
  0
LINE
  5
3800
330
18
100
AcDbEntity
  8
DRAW2
100
AcDbLine
 10
1346.878518769965
 20
461.1354788515195
 30
0.0
 11
1341.878548645679
 21
458.2487450515194
 31
0.0
  0
LINE
  5
3801
330
18
100
AcDbEntity
  8
DRAW2
100
AcDbLine
 10
1334.978726645679
 20
453.1619471515195
 30
0.0
 11
1332.97872664568
 21
453.1619471515195
 31
0.0
  0
LINE
  5
3802
330
18
100
AcDbEntity
  8
DRAW2
100
AcDbLine
 10
1344.739380545679
 20
449.8619593515195
 30
0.0
 11
1341.47870054568
 21
449.8619593515195
 31
0.0
  0
LINE
  5
3803
330
18
100
AcDbEntity
  8
DRAW3
100
AcDbLine
 10
1345.36438054568
 20
449.2369293515195
 30
0.0
 11
1341.47870054568
 21
449.2369293515195
 31
0.0
  0
LINE
  5
3804
330
18
100
AcDbEntity
  8
DRAW3
100
AcDbLine
 10
1345.36438054568
 20
442.4869593515195
 30
0.0
 11
1341.47870054568
 21
442.4869593515195
 31
0.0
  0
LINE
  5
3805
330
18
100
AcDbEntity
  8
DRAW2
100
AcDbLine
 10
1344.739380545679
 20
441.8619593515195
 30
0.0
 11
1341.47870054568
 21
441.8619593515195
 31
0.0
  0
LINE
  5
3806
330
18
100
AcDbEntity
  8
DRAW2
100
AcDbLine
 10
1346.878518243975
 20
449.5884793290801
 30
0.0
 11
1341.878515245679
 21
452.4752320767647
 31
0.0
  0
LINE
  5
3807
330
18
100
AcDbEntity
  8
DRAW2
100
AcDbLine
 10
1341.47872654568
 20
452.3619593515194
 30
0.0
 11
1334.978726645679
 21
452.3619593515194
 31
0.0
  0
LINE
  5
3808
330
18
100
AcDbEntity
  8
DRAW2
100
AcDbLine
 10
1340.898173095696
 20
445.8619593515195
 30
0.0
 11
1334.978726645679
 21
445.8619593515195
 31
0.0
  0
ARC
  5
3809
330
18
100
AcDbEntity
  8
DRAW2
100
AcDbCircle
 10
1332.09131028072
 20
449.1119538914099
 30
0.0
 40
9.387400979563903
100
AcDbArc
 50
339.7444380270501
 51
20.25583144527485
  0
LINE
  5
380A
330
18
100
AcDbEntity
  8
DRAW2
100
AcDbLine
 10
1344.739380545679
 20
441.8619593515195
 30
0.0
 11
1344.739380545679
 21
449.8619593515195
 31
0.0
  0
LINE
  5
380B
330
18
100
AcDbEntity
  8
DRAW2
100
AcDbLine
 10
1344.739380545679
 20
441.8619593515195
 30
0.0
 11
1345.36438054568
 21
442.4869593515195
 31
0.0
  0
LINE
  5
380C
330
18
100
AcDbEntity
  8
DRAW2
100
AcDbLine
 10
1344.739380545679
 20
449.8619293515194
 30
0.0
 11
1345.36438054568
 21
449.2369293515195
 31
0.0
  0
LINE
  5
380D
330
18
100
AcDbEntity
  8
DRAW2
100
AcDbLine
 10
1345.36438054568
 20
442.4869593515195
 30
0.0
 11
1345.36438054568
 21
449.2369293515195
 31
0.0
  0
ARC
  5
380E
330
18
100
AcDbEntity
  8
DRAW2
100
AcDbCircle
 10
1346.87853054568
 20
455.3619440927309
 30
0.0
 40
6.250000000000468
100
AcDbArc
 50
210.2348547335074
 51
241.6420689197628
  0
LINE
  5
380F
330
18
100
AcDbEntity
  8
DRAW2
100
AcDbLine
 10
1341.878515245679
 20
458.2487238515195
 30
0.0
 11
1341.878515245679
 21
452.4752320767649
 31
0.0
  0
LINE
  5
3810
330
18
100
AcDbEntity
  8
DRAW2
100
AcDbLine
 10
1351.878515245679
 20
458.2486933515196
 30
0.0
 11
1351.878515245679
 21
452.4751948515195
 31
0.0
  0
LINE
  5
3811
330
18
100
AcDbEntity
  8
DRAW2
100
AcDbLine
 10
1411.378530545679
 20
493.3619593515201
 30
0.0
 11
1388.718276507835
 21
493.3619593515201
 31
0.0
  0
LINE
  5
3812
330
18
100
AcDbEntity
  8
DRAW2
100
AcDbLine
 10
1411.378530545679
 20
522.3619593515201
 30
0.0
 11
1388.718276507835
 21
522.3619593515201
 31
0.0
  0
LINE
  5
3813
330
18
100
AcDbEntity
  8
DRAW2
100
AcDbLine
 10
1350.878530545679
 20
492.5298674797256
 30
0.0
 11
1350.878530545679
 21
523.194051223313
 31
0.0
  0
LINE
  5
3814
330
18
100
AcDbEntity
  8
DRAW2
100
AcDbLine
 10
1342.878530545679
 20
492.5298674797256
 30
0.0
 11
1342.878530545679
 21
523.194051223313
 31
0.0
  0
LINE
  5
3815
330
18
100
AcDbEntity
  8
DRAW2
100
AcDbLine
 10
1387.378530545679
 20
494.5929965290853
 30
0.0
 11
1387.378530545679
 21
521.1309221739541
 31
0.0
  0
ARC
  5
3816
330
18
100
AcDbEntity
  8
DRAW2
100
AcDbCircle
 10
1346.878530545679
 20
507.8619593515196
 30
0.0
 40
19.5
100
AcDbArc
 50
335.1654125103082
 51
24.83458748969177
  0
ARC
  5
3817
330
18
100
AcDbEntity
  8
DRAW2
100
AcDbCircle
 10
1346.878530545679
 20
507.8619593515196
 30
0.0
 40
15.5
100
AcDbArc
 50
335.1654125103082
 51
24.83458748969177
  0
LINE
  5
3818
330
18
100
AcDbEntity
  8
DRAW2
100
AcDbLine
 10
1382.136727386329
 20
497.2207405854727
 30
0.0
 11
1382.136727386329
 21
518.5031781175665
 31
0.0
  0
LINE
  5
3819
330
18
100
AcDbEntity
  8
DRAW2
100
AcDbLine
 10
1355.046247484947
 20
479.0819593515193
 30
0.0
 11
1364.575250580759
 21
499.671959351519
 31
0.0
  0
LINE
  5
381A
330
18
100
AcDbEntity
  8
DRAW2
100
AcDbLine
 10
1364.0020426654
 20
496.3619593515196
 30
0.0
 11
1380.842632160817
 21
496.361959351521
 31
0.0
  0
LINE
  5
381B
330
18
100
AcDbEntity
  8
DRAW2
100
AcDbLine
 10
1354.384084745679
 20
482.861958721393
 30
0.0
 11
1350.631307845679
 21
489.3619593515196
 31
0.0
  0
LINE
  5
381C
330
18
100
AcDbEntity
  8
DRAW2
100
AcDbLine
 10
1339.372979645679
 20
482.8619572442041
 30
0.0
 11
1343.125756745679
 21
489.3619579515195
 31
0.0
  0
CIRCLE
  5
381D
330
18
100
AcDbEntity
  8
DRAW2
100
AcDbCircle
 10
1346.878530545679
 20
482.8619593515196
 30
0.0
 40
7.75
  0
CIRCLE
  5
381E
330
18
100
AcDbEntity
  8
DRAW2
100
AcDbCircle
 10
1346.878530545679
 20
482.8619593515196
 30
0.0
 40
8.5
  0
CIRCLE
  5
381F
330
18
100
AcDbEntity
  8
DRAW2
100
AcDbCircle
 10
1346.878530545679
 20
482.8619593515196
 30
0.0
 40
6.500003299999997
  0
ARC
  5
3821
330
18
100
AcDbEntity
  8
DRAW2
100
AcDbCircle
 10
1346.878530545679
 20
482.8619593515196
 30
0.0
 40
9.0
100
AcDbArc
 50
204.8345874896917
 51
335.1654125103082
  0
LINE
  5
3822
330
18
100
AcDbEntity
  8
DRAW2
100
AcDbLine
 10
1350.631299345679
 20
476.3619717515195
 30
0.0
 11
1343.125745145679
 21
476.3619717515195
 31
0.0
  0
LINE
  5
3823
330
18
100
AcDbEntity
  8
DRAW2
100
AcDbLine
 10
1334.978726645679
 20
484.1620071515194
 30
0.0
 11
1332.97872664568
 21
484.1620071515194
 31
0.0
  0
LINE
  5
3824
330
18
100
AcDbEntity
  8
DRAW2
100
AcDbLine
 10
1336.730012004165
 20
483.3620193515193
 30
0.0
 11
1334.978726645679
 21
483.3620193515193
 31
0.0
  0
LINE
  5
3825
330
18
100
AcDbEntity
  8
DRAW2
100
AcDbLine
 10
1334.978726645679
 20
469.5620315515193
 30
0.0
 11
1332.97872664568
 21
469.5620315515193
 31
0.0
  0
LINE
  5
3826
330
18
100
AcDbEntity
  8
DRAW2
100
AcDbLine
 10
1344.739380545679
 20
472.8620193515192
 30
0.0
 11
1341.47870054568
 21
472.8620193515192
 31
0.0
  0
LINE
  5
3827
330
18
100
AcDbEntity
  8
DRAW3
100
AcDbLine
 10
1345.36438054568
 20
473.4870193515193
 30
0.0
 11
1341.47870054568
 21
473.4870193515193
 31
0.0
  0
LINE
  5
3828
330
18
100
AcDbEntity
  8
DRAW2
100
AcDbLine
 10
1340.170272948032
 20
476.8620193515195
 30
0.0
 11
1335.224121645679
 21
476.8620193515195
 31
0.0
  0
LINE
  5
3829
330
18
100
AcDbEntity
  8
DRAW2
100
AcDbLine
 10
1341.47872654568
 20
470.3619888515191
 30
0.0
 11
1334.978726645679
 21
470.3619888515191
 31
0.0
  0
LINE
  5
382A
330
18
100
AcDbEntity
  8
DRAW2
100
AcDbLine
 10
1341.47872654568
 20
470.3619888515191
 30
0.0
 11
1341.47872654568
 21
475.6618123556877
 31
0.0
  0
ARC
  5
382B
330
18
100
AcDbEntity
  8
DRAW2
100
AcDbCircle
 10
1332.091325566125
 20
473.6119833914097
 30
0.0
 40
9.387400979563903
100
AcDbArc
 50
339.7444380270501
 51
13.97340262279593
  0
LINE
  5
382C
330
18
100
AcDbEntity
  8
DRAW2
100
AcDbLine
 10
1344.739380545679
 20
472.8620193515192
 30
0.0
 11
1345.36438054568
 21
473.4870193515193
 31
0.0
  0
LINE
  5
382D
330
18
100
AcDbEntity
  8
DRAW2
100
AcDbLine
 10
1344.739380545679
 20
472.8620193515192
 30
0.0
 11
1344.739380545679
 21
474.1198750875983
 31
0.0
  0
LINE
  5
382E
330
18
100
AcDbEntity
  8
DRAW2
100
AcDbLine
 10
1345.36438054568
 20
473.4870193515193
 30
0.0
 11
1345.36438054568
 21
473.9902430701285
 31
0.0
  0
ARC
  5
382F
330
18
100
AcDbEntity
  8
DRAW2
100
AcDbCircle
 10
1305.42872054568
 20
507.8619593515191
 30
0.0
 40
52.45
100
AcDbArc
 50
319.5881622867333
 51
319.7520859126095
  0
LINE
  5
3830
330
18
100
AcDbEntity
  8
DRAW2
100
AcDbLine
 10
1332.97872664568
 20
468.3620193515192
 30
0.0
 11
1332.97872664568
 21
485.3620193515192
 31
0.0
  0
LINE
  5
3831
330
18
100
AcDbEntity
  8
DRAW2
100
AcDbLine
 10
1334.978726645679
 20
469.5620315515193
 30
0.0
 11
1334.978726645679
 21
484.1620071515194
 31
0.0
  0
LINE
  5
3832
330
18
100
AcDbEntity
  8
DRAW2
100
AcDbLine
 10
1343.125753245679
 20
476.3619593515196
 30
0.0
 11
1339.372976345679
 21
482.861959981646
 31
0.0
  0
LINE
  5
3833
330
18
100
AcDbEntity
  8
DRAW2
100
AcDbLine
 10
1350.631312145679
 20
476.3619564515196
 30
0.0
 11
1354.384089045679
 21
482.8619569288822
 31
0.0
  0
LINE
  5
3834
330
18
100
AcDbEntity
  8
DRAW2
100
AcDbLine
 10
1350.631293145679
 20
489.3619736515196
 30
0.0
 11
1343.125738945679
 21
489.3619736515196
 31
0.0
  0
LINE
  5
3835
330
18
100
AcDbEntity
  8
DRAW2
100
AcDbLine
 10
1332.811906928051
 20
501.3519593515194
 30
0.0
 11
1337.448105549285
 21
491.3341926815575
 31
0.0
  0
LINE
  5
3836
330
18
100
AcDbEntity
  8
DRAW2
100
AcDbLine
 10
1334.416051647735
 20
488.3619593515195
 30
0.0
 11
1332.878720545679
 21
488.3619593515196
 31
0.0
  0
ARC
  5
3837
330
18
100
AcDbEntity
  8
DRAW2
100
AcDbCircle
 10
1340.031685788135
 20
492.5298674797256
 30
0.0
 40
2.846844757543717
100
AcDbArc
 50
204.8345874896917
 51
0.0
  0
LINE
  5
3838
330
18
100
AcDbEntity
  8
DRAW2
100
AcDbLine
 10
1336.223166182892
 20
496.3619593515191
 30
0.0
 11
1341.878530545679
 21
496.3619593515194
 31
0.0
  0
LINE
  5
3839
330
18
100
AcDbEntity
  8
DRAW2
100
AcDbLine
 10
1351.878530545679
 20
496.3619593515191
 30
0.0
 11
1357.533894908466
 21
496.3619593515194
 31
0.0
  0
ARC
  5
383A
330
18
100
AcDbEntity
  8
DRAW2
100
AcDbCircle
 10
1353.725375303223
 20
492.5298674797256
 30
0.0
 40
2.846844757543717
100
AcDbArc
 50
180.0
 51
335.1654125103082
  0
LINE
  5
383B
330
18
100
AcDbEntity
  8
DRAW2
100
AcDbLine
 10
1356.308955542073
 20
491.3341926815575
 30
0.0
 11
1360.945154163307
 21
501.3519593515196
 31
0.0
  0
ARC
  5
383C
330
18
100
AcDbEntity
  8
DRAW2
100
AcDbCircle
 10
1364.0020426654
 20
494.8619593515196
 30
0.0
 40
1.5
100
AcDbArc
 50
90.0
 51
155.1654125103082
  0
ARC
  5
383D
330
18
100
AcDbEntity
  8
DRAW2
100
AcDbCircle
 10
1388.718276507835
 20
498.361959351519
 30
0.0
 40
5.0
100
AcDbArc
 50
239.9999999999994
 51
270.0
  0
LINE
  5
383E
330
18
100
AcDbEntity
  8
DRAW2
100
AcDbLine
 10
1383.342632160817
 20
495.6920863704425
 30
0.0
 11
1386.218276507835
 21
494.0318323325974
 31
0.0
  0
ARC
  5
383F
330
18
100
AcDbEntity
  8
DRAW2
100
AcDbCircle
 10
1380.842632160817
 20
491.361959351521
 30
0.0
 40
5.0
100
AcDbArc
 50
59.99999999999946
 51
90.0
  0
LINE
  5
3840
330
18
100
AcDbEntity
  8
DRAW2
100
AcDbLine
 10
1355.046247484947
 20
536.6419593515193
 30
0.0
 11
1364.57525058076
 21
516.0519593515195
 31
0.0
  0
LINE
  5
3841
330
18
100
AcDbEntity
  8
DRAW2
100
AcDbLine
 10
1364.0020426654
 20
519.3619593515196
 30
0.0
 11
1380.842632160816
 21
519.3619593515185
 31
0.0
  0
LINE
  5
3842
330
18
100
AcDbEntity
  8
DRAW2
100
AcDbLine
 10
1354.384084745679
 20
532.861958721393
 30
0.0
 11
1350.631307845679
 21
539.3619593515196
 31
0.0
  0
LINE
  5
3843
330
18
100
AcDbEntity
  8
DRAW2
100
AcDbLine
 10
1332.97872664568
 20
547.3618993515195
 30
0.0
 11
1332.97872664568
 21
530.3618993515197
 31
0.0
  0
LINE
  5
3844
330
18
100
AcDbEntity
  8
DRAW2
100
AcDbLine
 10
1339.372979645679
 20
532.8619572442041
 30
0.0
 11
1343.125756745679
 21
539.3619579515195
 31
0.0
  0
LINE
  5
3845
330
18
100
AcDbEntity
  8
DRAW2
100
AcDbLine
 10
1334.978726645679
 20
546.16188715152
 30
0.0
 11
1334.978726645679
 21
531.5619115515199
 31
0.0
  0
CIRCLE
  5
3846
330
18
100
AcDbEntity
  8
DRAW2
100
AcDbCircle
 10
1346.878530545679
 20
532.8619593515196
 30
0.0
 40
7.75
  0
CIRCLE
  5
3847
330
18
100
AcDbEntity
  8
DRAW2
100
AcDbCircle
 10
1346.878530545679
 20
532.8619593515196
 30
0.0
 40
8.5
  0
CIRCLE
  5
3848
330
18
100
AcDbEntity
  8
DRAW2
100
AcDbCircle
 10
1346.878530545679
 20
532.8619593515196
 30
0.0
 40
6.500003299999997
  0
LINE
  5
384A
330
18
100
AcDbEntity
  8
DRAW2
100
AcDbLine
 10
1350.631299345679
 20
526.3619717515195
 30
0.0
 11
1343.125745145679
 21
526.3619717515195
 31
0.0
  0
LINE
  5
384B
330
18
100
AcDbEntity
  8
DRAW2
100
AcDbLine
 10
1334.978726645679
 20
531.5619115515199
 30
0.0
 11
1332.97872664568
 21
531.5619115515199
 31
0.0
  0
LINE
  5
384C
330
18
100
AcDbEntity
  8
DRAW2
100
AcDbLine
 10
1336.730012004165
 20
532.36189935152
 30
0.0
 11
1334.978726645679
 21
532.36189935152
 31
0.0
  0
LINE
  5
384D
330
18
100
AcDbEntity
  8
DRAW2
100
AcDbLine
 10
1332.811906928051
 20
514.371959351519
 30
0.0
 11
1337.448105549285
 21
524.3897260214815
 31
0.0
  0
LINE
  5
384E
330
18
100
AcDbEntity
  8
DRAW2
100
AcDbLine
 10
1336.223166182892
 20
519.3619593515192
 30
0.0
 11
1341.878530545679
 21
519.3619593515193
 31
0.0
  0
LINE
  5
384F
330
18
100
AcDbEntity
  8
DRAW2
100
AcDbLine
 10
1334.416051647736
 20
527.3619593515197
 30
0.0
 11
1332.87872054568
 21
527.3619593515197
 31
0.0
  0
ARC
  5
3850
330
18
100
AcDbEntity
  8
DRAW2
100
AcDbCircle
 10
1340.031685788135
 20
523.194051223313
 30
0.0
 40
2.846844757543717
100
AcDbArc
 50
0.0
 51
155.1654125103082
  0
LINE
  5
3851
330
18
100
AcDbEntity
  8
DRAW2
100
AcDbLine
 10
1343.125753245679
 20
526.3619593515196
 30
0.0
 11
1339.372976345679
 21
532.8619599816461
 31
0.0
  0
ARC
  5
3852
330
18
100
AcDbEntity
  8
DRAW2
100
AcDbCircle
 10
1353.725375303223
 20
523.194051223313
 30
0.0
 40
2.846844757543717
100
AcDbArc
 50
24.83458748969177
 51
180.0
  0
LINE
  5
3853
330
18
100
AcDbEntity
  8
DRAW2
100
AcDbLine
 10
1351.878530545679
 20
519.3619593515196
 30
0.0
 11
1357.533894908466
 21
519.3619593515193
 31
0.0
  0
LINE
  5
3854
330
18
100
AcDbEntity
  8
DRAW2
100
AcDbLine
 10
1356.308955542073
 20
524.3897260214815
 30
0.0
 11
1360.945154163307
 21
514.371959351519
 31
0.0
  0
ARC
  5
3855
330
18
100
AcDbEntity
  8
DRAW2
100
AcDbCircle
 10
1364.0020426654
 20
520.8619593515196
 30
0.0
 40
1.5
100
AcDbArc
 50
204.8345874896917
 51
270.0
  0
LINE
  5
3856
330
18
100
AcDbEntity
  8
DRAW2
100
AcDbLine
 10
1350.631312145679
 20
526.3619564515196
 30
0.0
 11
1354.384089045679
 21
532.8619569288822
 31
0.0
  0
ARC
  5
3857
330
18
100
AcDbEntity
  8
DRAW2
100
AcDbCircle
 10
1346.878530545679
 20
532.8619593515196
 30
0.0
 40
9.0
100
AcDbArc
 50
24.83458748969177
 51
155.1654125103082
  0
LINE
  5
3858
330
18
100
AcDbEntity
  8
DRAW2
100
AcDbLine
 10
1350.631293145679
 20
539.3619736515196
 30
0.0
 11
1343.125738945679
 21
539.3619736515196
 31
0.0
  0
LINE
  5
3859
330
18
100
AcDbEntity
  8
DRAW2
100
AcDbLine
 10
1334.978726645679
 20
546.16188715152
 30
0.0
 11
1332.97872664568
 21
546.16188715152
 31
0.0
  0
LINE
  5
385A
330
18
100
AcDbEntity
  8
DRAW3
100
AcDbLine
 10
1345.36438054568
 20
542.23689935152
 30
0.0
 11
1341.47870054568
 21
542.23689935152
 31
0.0
  0
LINE
  5
385B
330
18
100
AcDbEntity
  8
DRAW2
100
AcDbLine
 10
1344.739380545679
 20
542.8618993515197
 30
0.0
 11
1341.47870054568
 21
542.8618993515197
 31
0.0
  0
LINE
  5
385C
330
18
100
AcDbEntity
  8
DRAW2
100
AcDbLine
 10
1341.47872654568
 20
545.3619298515199
 30
0.0
 11
1334.978726645679
 21
545.3619298515199
 31
0.0
  0
LINE
  5
385D
330
18
100
AcDbEntity
  8
DRAW2
100
AcDbLine
 10
1340.170272948031
 20
538.8618993515195
 30
0.0
 11
1334.978726645679
 21
538.8618993515195
 31
0.0
  0
ARC
  5
385E
330
18
100
AcDbEntity
  8
DRAW2
100
AcDbCircle
 10
1332.091325566125
 20
542.1119353116295
 30
0.0
 40
9.387400979563903
100
AcDbArc
 50
346.026597377204
 51
20.25556197294986
  0
LINE
  5
385F
330
18
100
AcDbEntity
  8
DRAW2
100
AcDbLine
 10
1341.47872654568
 20
545.3619298515199
 30
0.0
 11
1341.47872654568
 21
540.0621063473515
 31
0.0
  0
LINE
  5
3860
330
18
100
AcDbEntity
  8
DRAW2
100
AcDbLine
 10
1344.739380545679
 20
542.8618993515197
 30
0.0
 11
1344.739380545679
 21
541.604043615441
 31
0.0
  0
LINE
  5
3861
330
18
100
AcDbEntity
  8
DRAW2
100
AcDbLine
 10
1344.739380545679
 20
542.8618993515197
 30
0.0
 11
1345.36438054568
 21
542.23689935152
 31
0.0
  0
LINE
  5
3862
330
18
100
AcDbEntity
  8
DRAW2
100
AcDbLine
 10
1345.36438054568
 20
542.23689935152
 30
0.0
 11
1345.36438054568
 21
541.7336756329108
 31
0.0
  0
LINE
  5
3863
330
18
100
AcDbEntity
  8
DRAW2
100
AcDbLine
 10
1386.218276507835
 20
521.6920863704423
 30
0.0
 11
1383.342632160817
 21
520.0318323325974
 31
0.0
  0
ARC
  5
3864
330
18
100
AcDbEntity
  8
DRAW2
100
AcDbCircle
 10
1388.718276507835
 20
517.3619593515203
 30
0.0
 40
5.0
100
AcDbArc
 50
90.0
 51
120.0000000000005
  0
ARC
  5
3865
330
18
100
AcDbEntity
  8
DRAW2
100
AcDbCircle
 10
1380.842632160817
 20
524.3619593515185
 30
0.0
 40
5.0
100
AcDbArc
 50
269.9999999999934
 51
300.0000000000005
  0
LINE
  5
3866
330
18
100
AcDbEntity
  8
DRAW2
100
AcDbLine
 10
1412.378530545679
 20
494.3619593515201
 30
0.0
 11
1412.378530545679
 21
521.36195935152
 31
0.0
  0
ARC
  5
3867
330
18
100
AcDbEntity
  8
DRAW2
100
AcDbCircle
 10
1411.378530545679
 20
494.3619593515201
 30
0.0
 40
1.0
100
AcDbArc
 50
270.0
 51
0.0
  0
ARC
  5
3868
330
18
100
AcDbEntity
  8
DRAW2
100
AcDbCircle
 10
1411.378530545679
 20
521.36195935152
 30
0.0
 40
1.0
100
AcDbArc
 50
0.0
 51
90.0
  0
ARC
  5
3869
330
18
100
AcDbEntity
  8
DRAW2
100
AcDbCircle
 10
1329.87872054568
 20
577.3619593515194
 30
0.0
 40
1.5
100
AcDbArc
 50
0.0
 51
90.0
  0
LINE
  5
386B
330
18
100
AcDbEntity
  8
DRAW2
100
AcDbLine
 10
1332.97872664568
 20
561.3619593515196
 30
0.0
 11
1331.378720545679
 21
561.3619593515196
 31
0.0
  0
LINE
  5
386C
330
18
100
AcDbEntity
  8
DRAW2
100
AcDbLine
 10
1370.378530545679
 20
580.3619593515196
 30
0.0
 11
1324.378530545679
 21
580.3619593515196
 31
0.0
  0
LINE
  5
386D
330
18
100
AcDbEntity
  8
DRAW2
100
AcDbLine
 10
1332.97872664568
 20
578.3619593515196
 30
0.0
 11
1331.378720545679
 21
578.3619593515196
 31
0.0
  0
LINE
  5
386E
330
18
100
AcDbEntity
  8
DRAW2
100
AcDbLine
 10
1258.674095545679
 20
580.9219058530171
 30
0.0
 11
1294.674095545679
 21
580.9219058530171
 31
0.0
  0
ARC
  5
386F
330
18
100
AcDbEntity
  8
DRAW2
100
AcDbCircle
 10
1276.674095545679
 20
583.9067978185116
 30
0.0
 40
23.19073196549494
100
AcDbArc
 50
210.4113413381969
 51
329.5886586617957
  0
LINE
  5
3872
330
18
100
AcDbEntity
  8
DRAW2
100
AcDbLine
 10
1202.87859054568
 20
580.3619593515194
 30
0.0
 11
1248.878590545679
 21
580.3619593515194
 31
0.0
  0
LINE
  5
3873
330
18
100
AcDbEntity
  8
DRAW2
100
AcDbLine
 10
1230.878545845679
 20
557.4751948515195
 30
0.0
 11
1230.878545845679
 21
563.2487238515194
 31
0.0
  0
LINE
  5
3874
330
18
100
AcDbEntity
  8
DRAW2
100
AcDbLine
 10
1220.878545845679
 20
557.4752253515197
 30
0.0
 11
1220.878545845679
 21
563.2487238515194
 31
0.0
  0
LINE
  5
3875
330
18
100
AcDbEntity
  8
DRAW2
100
AcDbLine
 10
1220.878512445679
 20
563.2486707515193
 30
0.0
 11
1225.878508860317
 21
566.1354197515196
 31
0.0
  0
LINE
  5
3876
330
18
100
AcDbEntity
  8
DRAW2
100
AcDbLine
 10
1225.87852556574
 20
566.1354493515195
 30
0.0
 11
1230.878495745679
 21
563.2487155515194
 31
0.0
  0
LINE
  5
3877
330
18
100
AcDbEntity
  8
DRAW2
100
AcDbLine
 10
1248.878590545679
 20
580.3619593515194
 30
0.0
 11
1248.878590545679
 21
573.8619593515165
 31
0.0
  0
ARC
  5
3878
330
18
100
AcDbEntity
  8
DRAW2
100
AcDbCircle
 10
1258.674095545679
 20
578.9219058530168
 30
0.0
 40
2.0
100
AcDbArc
 50
90.0
 51
180.0
  0
LINE
  5
3879
330
18
100
AcDbEntity
  8
DRAW2
100
AcDbLine
 10
1248.878496645679
 20
562.8619593515196
 30
0.0
 11
1249.878590545679
 21
562.8619593515196
 31
0.0
  0
LINE
  5
387A
330
18
100
AcDbEntity
  8
DRAW3
100
AcDbLine
 10
1249.878590545679
 20
566.4869893515197
 30
0.0
 11
1247.878590545679
 21
566.4869893515195
 31
0.0
  0
LINE
  5
387B
330
18
100
AcDbEntity
  8
DRAW2
100
AcDbLine
 10
1249.878590545679
 20
565.8619593515164
 30
0.0
 11
1247.878590545679
 21
565.8619593515165
 31
0.0
  0
LINE
  5
387C
330
18
100
AcDbEntity
  8
DRAW3
100
AcDbLine
 10
1249.878590545679
 20
573.2369593515198
 30
0.0
 11
1247.878590545679
 21
573.2369593515195
 31
0.0
  0
LINE
  5
387D
330
18
100
AcDbEntity
  8
DRAW2
100
AcDbLine
 10
1249.878590545679
 20
573.8619593515165
 30
0.0
 11
1247.878590545679
 21
573.8619593515165
 31
0.0
  0
LINE
  5
387E
330
18
100
AcDbEntity
  8
DRAW2
100
AcDbLine
 10
1239.778490545679
 20
562.1119593515196
 30
0.0
 11
1239.778490545679
 21
577.6119593515196
 31
0.0
  0
ARC
  5
387F
330
18
100
AcDbEntity
  8
DRAW2
100
AcDbCircle
 10
1243.665956875679
 20
573.1119593515196
 30
0.0
 40
9.3874664
100
AcDbArc
 50
159.7445510000044
 51
200.2554700000027
  0
LINE
  5
3880
330
18
100
AcDbEntity
  8
DRAW2
100
AcDbLine
 10
1234.278490545679
 20
563.3619593515196
 30
0.0
 11
1234.278490545679
 21
576.3619593515196
 31
0.0
  0
LINE
  5
3881
330
18
100
AcDbEntity
  8
DRAW2
100
AcDbLine
 10
1234.859026345679
 20
569.8619593515196
 30
0.0
 11
1239.778490545679
 21
569.8619593515196
 31
0.0
  0
LINE
  5
3882
330
18
100
AcDbEntity
  8
DRAW2
100
AcDbLine
 10
1234.278490545679
 20
563.3619593515196
 30
0.0
 11
1239.778490545679
 21
563.3619593515196
 31
0.0
  0
LINE
  5
3883
330
18
100
AcDbEntity
  8
DRAW2
100
AcDbLine
 10
1239.778490545679
 20
562.1119593515196
 30
0.0
 11
1241.378496645679
 21
562.1119593515196
 31
0.0
  0
ARC
  5
3884
330
18
100
AcDbEntity
  8
DRAW2
100
AcDbCircle
 10
1243.665956875679
 20
566.6119593515197
 30
0.0
 40
9.3874664
100
AcDbArc
 50
159.7445510000044
 51
200.2554700000027
  0
ARC
  5
3885
330
18
100
AcDbEntity
  8
DRAW2
100
AcDbCircle
 10
1248.878496645679
 20
563.8619593515196
 30
0.0
 40
1.0
100
AcDbArc
 50
180.0
 51
270.0
  0
LINE
  5
3886
330
18
100
AcDbEntity
  8
DRAW2
100
AcDbLine
 10
1234.278490545679
 20
576.3619593515196
 30
0.0
 11
1239.778490545679
 21
576.3619593515196
 31
0.0
  0
LINE
  5
3887
330
18
100
AcDbEntity
  8
DRAW2
100
AcDbLine
 10
1239.778490545679
 20
577.6119593515196
 30
0.0
 11
1241.378496645679
 21
577.6119593515196
 31
0.0
  0
LINE
  5
3888
330
18
100
AcDbEntity
  8
DRAW2
100
AcDbLine
 10
1242.878496645679
 20
578.8619593515196
 30
0.0
 11
1247.878496645679
 21
578.8619593515196
 31
0.0
  0
ARC
  5
3889
330
18
100
AcDbEntity
  8
DRAW2
100
AcDbCircle
 10
1242.878496645679
 20
577.3619593515194
 30
0.0
 40
1.5
100
AcDbArc
 50
90.0
 51
180.0
  0
LINE
  5
388A
330
18
100
AcDbEntity
  8
DRAW2
100
AcDbLine
 10
1256.674095545679
 20
572.1675453254683
 30
0.0
 11
1256.674095545679
 21
578.9219058530168
 31
0.0
  0
LINE
  5
388B
330
18
100
AcDbEntity
  8
DRAW2
100
AcDbLine
 10
1256.674095545679
 20
577.9218858530165
 30
0.0
 11
1249.878590545679
 21
577.921885853017
 31
0.0
  0
LINE
  5
388C
330
18
100
AcDbEntity
  8
DRAW2
100
AcDbLine
 10
1322.878590545679
 20
577.9218858530165
 30
0.0
 11
1296.674095545679
 21
577.9218858530165
 31
0.0
  0
ARC
  5
388D
330
18
100
AcDbEntity
  8
DRAW2
100
AcDbCircle
 10
1294.674095545679
 20
578.9219058530168
 30
0.0
 40
2.0
100
AcDbArc
 50
0.0
 51
90.0
  0
LINE
  5
388E
330
18
100
AcDbEntity
  8
DRAW2
100
AcDbLine
 10
1296.674095545679
 20
572.1675453254683
 30
0.0
 11
1296.674095545679
 21
578.9219058530168
 31
0.0
  0
LINE
  5
388F
330
18
100
AcDbEntity
  8
DRAW2
100
AcDbLine
 10
1280.674095545679
 20
588.4219058530171
 30
0.0
 11
1272.674095545679
 21
588.4219058530171
 31
0.0
  0
LINE
  5
3890
330
18
100
AcDbEntity
  8
DRAW2
100
AcDbLine
 10
1280.174125545679
 20
588.9219058530171
 30
0.0
 11
1273.174125545679
 21
588.9219058530171
 31
0.0
  0
LINE
  5
3891
330
18
100
AcDbEntity
  8
DRAW2
100
AcDbLine
 10
1272.674065545679
 20
580.9219058530171
 30
0.0
 11
1272.674065545679
 21
588.4219058530171
 31
0.0
  0
LINE
  5
3892
330
18
100
AcDbEntity
  8
DRAW2
100
AcDbLine
 10
1273.174215545679
 20
588.9218558530168
 30
0.0
 11
1272.674215545679
 21
588.4218558530169
 31
0.0
  0
LINE
  5
3893
330
18
100
AcDbEntity
  8
DRAW2
100
AcDbLine
 10
1280.674025545679
 20
580.9219058530171
 30
0.0
 11
1280.674025545679
 21
588.4219058530171
 31
0.0
  0
LINE
  5
3894
330
18
100
AcDbEntity
  8
DRAW2
100
AcDbLine
 10
1280.674125545679
 20
588.4218258530165
 30
0.0
 11
1280.174095545679
 21
588.921845853017
 31
0.0
  0
LINE
  5
3895
330
18
100
AcDbEntity
  8
DRAW2
100
AcDbLine
 10
1324.378530545679
 20
580.3619593515196
 30
0.0
 11
1324.378530545679
 21
573.8619593515196
 31
0.0
  0
LINE
  5
3896
330
18
100
AcDbEntity
  8
DRAW2
100
AcDbLine
 10
1323.878720545679
 20
562.8619593515196
 30
0.0
 11
1322.878590545679
 21
562.8619593515196
 31
0.0
  0
LINE
  5
3897
330
18
100
AcDbEntity
  8
DRAW3
100
AcDbLine
 10
1324.87872054568
 20
566.4869893515197
 30
0.0
 11
1322.878590545679
 21
566.4869893515194
 31
0.0
  0
LINE
  5
3898
330
18
100
AcDbEntity
  8
DRAW2
100
AcDbLine
 10
1324.87872054568
 20
565.8619593515198
 30
0.0
 11
1322.878590545679
 21
565.8619593515198
 31
0.0
  0
ARC
  5
3899
330
18
100
AcDbEntity
  8
DRAW2
100
AcDbCircle
 10
1323.87872054568
 20
563.8619593515196
 30
0.0
 40
1.0
100
AcDbArc
 50
270.0
 51
0.0
  0
LINE
  5
389A
330
18
100
AcDbEntity
  8
DRAW3
100
AcDbLine
 10
1324.87872054568
 20
573.2369593515196
 30
0.0
 11
1322.878590545679
 21
573.2369593515196
 31
0.0
  0
LINE
  5
389B
330
18
100
AcDbEntity
  8
DRAW2
100
AcDbLine
 10
1324.87872054568
 20
573.8619593515198
 30
0.0
 11
1322.878590545679
 21
573.8619593515197
 31
0.0
  0
LINE
  5
389C
330
18
100
AcDbEntity
  8
DRAW2
100
AcDbLine
 10
1329.87872054568
 20
578.8619593515196
 30
0.0
 11
1324.87872054568
 21
578.8619593515196
 31
0.0
  0
LINE
  5
389E
330
18
100
AcDbEntity
  8
DRAW2
100
AcDbLine
 10
1351.878548645679
 20
563.2486707515204
 30
0.0
 11
1346.878518243975
 21
566.1354393739601
 31
0.0
  0
LINE
  5
389F
330
18
100
AcDbEntity
  8
DRAW2
100
AcDbLine
 10
1345.36438054568
 20
573.2369593515196
 30
0.0
 11
1345.36438054568
 21
566.4869893515195
 31
0.0
  0
LINE
  5
38A0
330
18
100
AcDbEntity
  8
DRAW2
100
AcDbLine
 10
1344.739380545679
 20
573.8619593515196
 30
0.0
 11
1344.739380545679
 21
565.8619593515196
 31
0.0
  0
LINE
  5
38A1
330
18
100
AcDbEntity
  8
DRAW2
100
AcDbLine
 10
1332.97872664568
 20
578.3619593515196
 30
0.0
 11
1332.97872664568
 21
561.3619593515196
 31
0.0
  0
LINE
  5
38A2
330
18
100
AcDbEntity
  8
DRAW2
100
AcDbLine
 10
1334.978726645679
 20
577.1619471515198
 30
0.0
 11
1334.978726645679
 21
562.5619715515197
 31
0.0
  0
LINE
  5
38A3
330
18
100
AcDbEntity
  8
DRAW2
100
AcDbLine
 10
1341.47872654568
 20
576.3619898515198
 30
0.0
 11
1341.47872654568
 21
563.3619593515196
 31
0.0
  0
ARC
  5
38A4
330
18
100
AcDbEntity
  8
DRAW2
100
AcDbCircle
 10
1332.091325566125
 20
573.1119953116294
 30
0.0
 40
9.387400979563903
100
AcDbArc
 50
339.7441685547251
 51
20.25556197294986
  0
LINE
  5
38A5
330
18
100
AcDbEntity
  8
DRAW2
100
AcDbLine
 10
1334.978726645679
 20
562.5619715515197
 30
0.0
 11
1332.97872664568
 21
562.5619715515197
 31
0.0
  0
LINE
  5
38A6
330
18
100
AcDbEntity
  8
DRAW2
100
AcDbLine
 10
1341.878515245679
 20
557.4751948515204
 30
0.0
 11
1341.878515245679
 21
563.2486866262751
 31
0.0
  0
LINE
  5
38A7
330
18
100
AcDbEntity
  8
DRAW2
100
AcDbLine
 10
1346.878518243975
 20
566.1354393739601
 30
0.0
 11
1341.878515245679
 21
563.2486866262754
 31
0.0
  0
LINE
  5
38A8
330
18
100
AcDbEntity
  8
DRAW2
100
AcDbLine
 10
1344.739380545679
 20
565.8619593515196
 30
0.0
 11
1341.47872654568
 21
565.8619593515198
 31
0.0
  0
LINE
  5
38A9
330
18
100
AcDbEntity
  8
DRAW3
100
AcDbLine
 10
1345.36438054568
 20
566.4869893515195
 30
0.0
 11
1341.47872654568
 21
566.4869893515195
 31
0.0
  0
LINE
  5
38AA
330
18
100
AcDbEntity
  8
DRAW2
100
AcDbLine
 10
1341.47872654568
 20
563.3619593515196
 30
0.0
 11
1334.978726645679
 21
563.3619593515196
 31
0.0
  0
ARC
  5
38AB
330
18
100
AcDbEntity
  8
DRAW2
100
AcDbCircle
 10
1332.09131028072
 20
566.6119648116294
 30
0.0
 40
9.387400979563903
100
AcDbArc
 50
339.7441685547251
 51
20.25556197294986
  0
LINE
  5
38AC
330
18
100
AcDbEntity
  8
DRAW2
100
AcDbLine
 10
1340.898173095696
 20
569.8619593515196
 30
0.0
 11
1334.978726645679
 21
569.8619593515196
 31
0.0
  0
LINE
  5
38AD
330
18
100
AcDbEntity
  8
DRAW2
100
AcDbLine
 10
1344.739380545679
 20
565.8619893515195
 30
0.0
 11
1345.36438054568
 21
566.4869893515195
 31
0.0
  0
LINE
  5
38AE
330
18
100
AcDbEntity
  8
DRAW2
100
AcDbLine
 10
1334.978726645679
 20
577.1619471515198
 30
0.0
 11
1332.97872664568
 21
577.1619471515198
 31
0.0
  0
LINE
  5
38AF
330
18
100
AcDbEntity
  8
DRAW3
100
AcDbLine
 10
1345.36438054568
 20
573.2369593515196
 30
0.0
 11
1341.47872654568
 21
573.2369593515196
 31
0.0
  0
LINE
  5
38B0
330
18
100
AcDbEntity
  8
DRAW2
100
AcDbLine
 10
1344.739380545679
 20
573.8619593515196
 30
0.0
 11
1341.47872654568
 21
573.8619593515196
 31
0.0
  0
LINE
  5
38B1
330
18
100
AcDbEntity
  8
DRAW2
100
AcDbLine
 10
1341.47872654568
 20
576.3619898515198
 30
0.0
 11
1334.978726645679
 21
576.3619898515198
 31
0.0
  0
LINE
  5
38B2
330
18
100
AcDbEntity
  8
DRAW2
100
AcDbLine
 10
1344.739380545679
 20
573.8619593515196
 30
0.0
 11
1345.36438054568
 21
573.2369593515196
 31
0.0
  0
LINE
  5
38B3
330
18
100
AcDbEntity
  8
DRAW2
100
AcDbLine
 10
1351.878515245679
 20
557.4752253515206
 30
0.0
 11
1351.878515245679
 21
563.2487238515205
 31
0.0
  0
ARC
  5
38B4
330
18
100
AcDbEntity
  8
DRAW2
100
AcDbCircle
 10
1687.305484648065
 20
217.4210500146181
 30
0.0
 40
67.0
100
AcDbArc
 50
309.5627400000011
 51
349.2218999999986
  0
LINE
  5
38B5
330
18
100
AcDbEntity
  8
DRAW2
100
AcDbLine
 10
1752.305494648065
 20
188.8553600146181
 30
0.0
 11
1752.305494648065
 21
177.4210100146181
 31
0.0
  0
LINE
  5
38B6
330
18
100
AcDbEntity
  8
DRAW2
100
AcDbLine
 10
1753.192884648065
 20
94.42100001461813
 30
0.0
 11
1752.328264648065
 21
89.10017001461813
 31
0.0
  0
LINE
  5
38B7
330
18
100
AcDbEntity
  8
DRAW2
100
AcDbLine
 10
1727.282654648065
 20
89.10018001461821
 30
0.0
 11
1726.418004648065
 21
94.42097001461821
 31
0.0
  0
LINE
  5
38B9
330
18
100
AcDbEntity
  8
DRAW2
100
AcDbLine
 10
1750.354284648065
 20
87.42099001461815
 30
0.0
 11
1729.256714648065
 21
87.42099001461815
 31
0.0
  0
ARC
  5
38BA
330
18
100
AcDbEntity
  8
DRAW2
100
AcDbCircle
 10
1729.256714648065
 20
89.42097001461821
 30
0.0
 40
2.0
100
AcDbArc
 50
189.2300300000013
 51
270.0000199999954
  0
ARC
  5
38BB
330
18
100
AcDbEntity
  8
DRAW2
100
AcDbCircle
 10
1750.354284648065
 20
89.42097001461821
 30
0.0
 40
2.0
100
AcDbArc
 50
270.0000199999954
 51
350.7702200000025
  0
ARC
  5
38BC
330
18
100
AcDbEntity
  8
DRAW2
100
AcDbCircle
 10
1754.805484648065
 20
99.42101001461821
 30
0.0
 40
5.0
100
AcDbArc
 50
270.0
 51
0.0
  0
LINE
  5
38BD
330
18
100
AcDbEntity
  8
DRAW2
100
AcDbLine
 10
1742.692264648065
 20
117.0744300146179
 30
0.0
 11
1742.692264648065
 21
112.5210100146182
 31
0.0
  0
LINE
  5
38BE
330
18
100
AcDbEntity
  8
DRAW2
100
AcDbLine
 10
1745.579014648065
 20
117.0744300146179
 30
0.0
 11
1745.579014648065
 21
112.5210100146182
 31
0.0
  0
LINE
  5
38BF
330
18
100
AcDbEntity
  8
DRAW2
100
AcDbLine
 10
1734.032004648065
 20
117.0744300146179
 30
0.0
 11
1734.032004648065
 21
112.5210100146182
 31
0.0
  0
LINE
  5
38C0
330
18
100
AcDbEntity
  8
DRAW2
100
AcDbLine
 10
1736.918764648065
 20
117.0744300146179
 30
0.0
 11
1736.918764648065
 21
112.5210100146182
 31
0.0
  0
LINE
  5
38C1
330
18
100
AcDbEntity
  8
DRAW2
100
AcDbLine
 10
1734.055494648065
 20
109.4210100146181
 30
0.0
 11
1745.555494648065
 21
109.4210100146181
 31
0.0
  0
LINE
  5
38C2
330
18
100
AcDbEntity
  8
DRAW2
100
AcDbLine
 10
1734.055494648065
 20
111.0210100146182
 30
0.0
 11
1745.555494648065
 21
111.0210100146182
 31
0.0
  0
LINE
  5
38C3
330
18
100
AcDbEntity
  8
DRAW2
100
AcDbLine
 10
1734.032004648065
 20
112.5210100146182
 30
0.0
 11
1745.579014648065
 21
112.5210100146182
 31
0.0
  0
LINE
  5
38C4
330
18
100
AcDbEntity
  8
DRAW2
100
AcDbLine
 10
1739.083814648065
 20
112.5210100146182
 30
0.0
 11
1739.949844648065
 21
111.0210100146182
 31
0.0
  0
LINE
  5
38C5
330
18
100
AcDbEntity
  8
DRAW2
100
AcDbLine
 10
1739.661154648065
 20
112.5210200146181
 30
0.0
 11
1740.527184648065
 21
111.0210100146182
 31
0.0
  0
LINE
  5
38C6
330
18
100
AcDbEntity
  8
DRAW2
100
AcDbLine
 10
1734.055494648065
 20
112.5210100146182
 30
0.0
 11
1734.055494648065
 21
109.4210100146181
 31
0.0
  0
LINE
  5
38C7
330
18
100
AcDbEntity
  8
DRAW2
100
AcDbLine
 10
1745.555494648065
 20
112.5210100146182
 30
0.0
 11
1745.555494648065
 21
109.4210100146181
 31
0.0
  0
LINE
  5
38C8
330
18
100
AcDbEntity
  8
DRAW2
100
AcDbLine
 10
1734.805494648065
 20
117.5210100146182
 30
0.0
 11
1744.805514648065
 21
117.5210100146182
 31
0.0
  0
ARC
  5
38C9
330
18
100
AcDbEntity
  8
DRAW2
100
AcDbCircle
 10
1739.805514648065
 20
107.967540014618
 30
0.0
 40
9.553465799999999
100
AcDbArc
 50
72.4121490000023
 51
107.5878799999987
  0
LINE
  5
38CA
330
18
100
AcDbEntity
  8
DRAW2
100
AcDbLine
 10
1742.805494648065
 20
118.9209900146182
 30
0.0
 11
1736.805484648065
 21
118.9209900146182
 31
0.0
  0
LINE
  5
38CB
330
18
100
AcDbEntity
  8
DRAW2
100
AcDbLine
 10
1742.305484648065
 20
119.4209700146179
 30
0.0
 11
1737.305514648065
 21
119.4209700146179
 31
0.0
  0
ARC
  5
38CC
330
18
100
AcDbEntity
  8
DRAW2
100
AcDbCircle
 10
1735.475394648065
 20
114.9651300146182
 30
0.0
 40
2.555882899999998
100
AcDbArc
 50
55.61669699999892
 51
115.6150500000012
  0
LINE
  5
38CD
330
18
100
AcDbEntity
  8
DRAW2
100
AcDbLine
 10
1734.031994648065
 20
117.0744200146182
 30
0.0
 11
1734.805494648065
 21
117.5210000146179
 31
0.0
  0
LINE
  5
38CE
330
18
100
AcDbEntity
  8
DRAW2
100
AcDbLine
 10
1737.305544648065
 20
119.4209100146181
 30
0.0
 11
1736.805544648065
 21
118.9209300146179
 31
0.0
  0
LINE
  5
38CF
330
18
100
AcDbEntity
  8
DRAW3
100
AcDbLine
 10
1737.305514648065
 20
119.4209700146179
 30
0.0
 11
1737.305514648065
 21
117.5210000146179
 31
0.0
  0
LINE
  5
38D0
330
18
100
AcDbEntity
  8
DRAW2
100
AcDbLine
 10
1736.805484648065
 20
118.9209900146182
 30
0.0
 11
1736.805484648065
 21
117.5210000146179
 31
0.0
  0
ARC
  5
38D1
330
18
100
AcDbEntity
  8
DRAW2
100
AcDbCircle
 10
1744.135634648065
 20
114.9651700146181
 30
0.0
 40
2.5558336
100
AcDbArc
 50
64.38451900000233
 51
124.3841000000004
  0
LINE
  5
38D2
330
18
100
AcDbEntity
  8
DRAW2
100
AcDbLine
 10
1744.805494648065
 20
117.5210100146182
 30
0.0
 11
1745.578994648065
 21
117.0744300146179
 31
0.0
  0
LINE
  5
38D3
330
18
100
AcDbEntity
  8
DRAW2
100
AcDbLine
 10
1742.805494648065
 20
118.9209900146182
 30
0.0
 11
1742.805494648065
 21
117.5210000146179
 31
0.0
  0
LINE
  5
38D4
330
18
100
AcDbEntity
  8
DRAW3
100
AcDbLine
 10
1742.305484648065
 20
119.4209700146179
 30
0.0
 11
1742.305484648065
 21
117.5210000146179
 31
0.0
  0
LINE
  5
38D5
330
18
100
AcDbEntity
  8
DRAW2
100
AcDbLine
 10
1742.305454648065
 20
119.4209900146182
 30
0.0
 11
1742.805494648065
 21
118.9209300146179
 31
0.0
  0
LINE
  5
38D6
330
18
100
AcDbEntity
  8
DRAW2
100
AcDbLine
 10
1759.805484648065
 20
109.4210100146181
 30
0.0
 11
1759.805484648065
 21
99.42101001461821
 31
0.0
  0
ARC
  5
38D7
330
18
100
AcDbEntity
  8
DRAW2
100
AcDbCircle
 10
1728.705444648065
 20
167.3107900146179
 30
0.0
 40
2.0
100
AcDbArc
 50
199.0110900000032
 51
309.5628300000008
  0
ARC
  5
38D8
330
18
100
AcDbEntity
  8
DRAW2
100
AcDbCircle
 10
1750.305464648064
 20
177.4209600146181
 30
0.0
 40
2.0
100
AcDbArc
 50
270.0000199999954
 51
0.0
  0
LINE
  5
38D9
330
18
100
AcDbEntity
  8
DRAW2
100
AcDbLine
 10
1744.550584648065
 20
175.4209600146181
 30
0.0
 11
1750.305494648065
 21
175.4209600146181
 31
0.0
  0
LINE
  5
38DD
330
18
100
AcDbEntity
  8
DRAW2
100
AcDbLine
 10
1761.305514648065
 20
263.4210500146181
 30
0.0
 11
1761.305514648065
 21
227.421080014618
 31
0.0
  0
LINE
  5
38DE
330
18
100
AcDbEntity
  8
DRAW2
100
AcDbLine
 10
1762.305494648065
 20
261.4210800146182
 30
0.0
 11
1762.305494648065
 21
229.421080014618
 31
0.0
  0
ARC
  5
38DF
330
18
100
AcDbEntity
  8
DRAW2
100
AcDbCircle
 10
1687.305484648065
 20
217.420990014618
 30
0.0
 40
67.0
100
AcDbArc
 50
8.909599300001962
 51
50.43725900000248
  0
ARC
  5
38E0
330
18
100
AcDbEntity
  8
DRAW2
100
AcDbCircle
 10
1687.305484648065
 20
217.4210500146181
 30
0.0
 40
71.0
100
AcDbArc
 50
336.2758400000003
 51
4.714551700002987
  0
ARC
  5
38E1
330
18
100
AcDbEntity
  8
DRAW2
100
AcDbCircle
 10
1760.058504648065
 20
223.4210500146181
 30
0.0
 40
2.0
100
AcDbArc
 50
111.3204499999989
 51
184.7149400000019
  0
ARC
  5
38E2
330
18
100
AcDbEntity
  8
DRAW2
100
AcDbCircle
 10
1750.176484648065
 20
205.4526700146181
 30
0.0
 40
3.0
100
AcDbArc
 50
349.2218199999981
 51
94.16225100000072
  0
ARC
  5
38E3
330
18
100
AcDbEntity
  8
DRAW2
100
AcDbCircle
 10
1749.305434648065
 20
217.4210500146181
 30
0.0
 40
8.999998099999997
100
AcDbArc
 50
75.04474999999755
 51
274.1622600000015
  0
CIRCLE
  5
38E5
330
18
100
AcDbEntity
  8
DRAW2
100
AcDbCircle
 10
1749.305484648065
 20
217.4210500146181
 30
0.0
 40
7.8000002
  0
CIRCLE
  5
38E6
330
18
100
AcDbEntity
  8
DRAW2
100
AcDbCircle
 10
1749.305484648065
 20
217.4210500146181
 30
0.0
 40
8.5
  0
LINE
  5
38E7
330
18
100
AcDbEntity
  8
DRAW2
100
AcDbLine
 10
1749.305484648065
 20
224.349210014618
 30
0.0
 11
1755.305494648065
 21
220.885100014618
 31
0.0
  0
ARC
  5
38E8
330
18
100
AcDbEntity
  8
DRAW2
100
AcDbCircle
 10
1752.015154648065
 20
227.5654000146181
 30
0.0
 40
1.5
100
AcDbArc
 50
255.0447499999974
 51
8.909599300001962
  0
LINE
  5
38E9
330
18
100
AcDbEntity
  8
DRAW2
100
AcDbLine
 10
1743.305464648065
 20
220.885130014618
 30
0.0
 11
1749.305464648065
 21
224.349240014618
 31
0.0
  0
LINE
  5
38EA
330
18
100
AcDbEntity
  8
DRAW2
100
AcDbLine
 10
1755.305484648065
 20
213.9569100146179
 30
0.0
 11
1749.305484648065
 21
210.4928000146179
 31
0.0
  0
LINE
  5
38EB
330
18
100
AcDbEntity
  8
DRAW2
100
AcDbLine
 10
1749.305494648065
 20
210.492830014618
 30
0.0
 11
1743.305484648065
 21
213.9569400146182
 31
0.0
  0
CIRCLE
  5
38EC
330
18
100
AcDbEntity
  8
DRAW2
100
AcDbCircle
 10
1749.305484648065
 20
217.4210500146181
 30
0.0
 40
6.0
  0
CIRCLE
  5
38ED
330
18
100
AcDbEntity
  8
DRAW2
100
AcDbCircle
 10
1749.305404648065
 20
217.4210500146181
 30
0.0
 40
4.0
  0
CIRCLE
  5
38EE
330
18
100
AcDbEntity
  8
DRAW3
100
AcDbCircle
 10
1749.305404648065
 20
217.4210500146181
 30
0.0
 40
3.375
  0
LINE
  5
38EF
330
18
100
AcDbEntity
  8
DRAW2
100
AcDbLine
 10
1743.305464648065
 20
213.9569100146179
 30
0.0
 11
1743.305464648065
 21
220.8851600146181
 31
0.0
  0
LINE
  5
38F0
330
18
100
AcDbEntity
  8
DRAW2
100
AcDbLine
 10
1755.305494648065
 20
220.8851600146181
 30
0.0
 11
1755.305494648065
 21
213.9569100146179
 31
0.0
  0
ARC
  5
38F1
330
18
100
AcDbEntity
  8
DRAW2
100
AcDbCircle
 10
1759.305494648065
 20
227.4210200146181
 30
0.0
 40
2.0
100
AcDbArc
 50
291.3204499999989
 51
0.0
  0
LINE
  5
38F2
330
18
100
AcDbEntity
  8
DRAW2
100
AcDbLine
 10
1759.331374648065
 20
225.2841500146181
 30
0.0
 11
1760.032674648065
 21
225.5578600146181
 31
0.0
  0
LINE
  5
38F3
330
18
100
AcDbEntity
  8
DRAW2
100
AcDbLine
 10
1761.305514648065
 20
229.421080014618
 30
0.0
 11
1762.305494648065
 21
229.421080014618
 31
0.0
  0
LINE
  5
38F5
330
18
100
AcDbEntity
  8
DRAW2
100
AcDbLine
 10
1740.493834648065
 20
265.4210200146181
 30
0.0
 11
1759.305494648065
 21
265.4210200146181
 31
0.0
  0
ARC
  5
38F6
330
18
100
AcDbEntity
  8
DRAW2
100
AcDbCircle
 10
1740.493834648065
 20
267.4210500146181
 30
0.0
 40
2.0
100
AcDbArc
 50
223.2297899999993
 51
270.0000199999954
  0
ARC
  5
38F7
330
18
100
AcDbEntity
  8
DRAW2
100
AcDbCircle
 10
1728.705444648065
 20
267.5312500146182
 30
0.0
 40
2.0
100
AcDbArc
 50
50.43716699999887
 51
160.9889099999967
  0
LINE
  5
38F8
330
18
100
AcDbEntity
  8
DRAW2
100
AcDbLine
 10
1769.805414648065
 20
249.4210200146182
 30
0.0
 11
1770.305414648065
 21
248.9210500146182
 31
0.0
  0
LINE
  5
38F9
330
18
100
AcDbEntity
  8
DRAW2
100
AcDbLine
 10
1762.305494648065
 20
249.4210500146181
 30
0.0
 11
1769.805419263379
 21
249.4210153995815
 31
0.0
  0
LINE
  5
38FA
330
18
100
AcDbEntity
  8
DRAW2
100
AcDbLine
 10
1770.305434648065
 20
241.9211700146182
 30
0.0
 11
1769.805444648065
 21
241.4211700146182
 31
0.0
  0
LINE
  5
38FB
330
18
100
AcDbEntity
  8
DRAW2
100
AcDbLine
 10
1762.305494648065
 20
241.421020014618
 30
0.0
 11
1769.805525417781
 21
241.4212507859494
 31
0.0
  0
LINE
  5
38FC
330
18
100
AcDbEntity
  8
DRAW2
100
AcDbLine
 10
1770.305504648065
 20
248.9210500146182
 30
0.0
 11
1770.305504648065
 21
241.9210500146181
 31
0.0
  0
LINE
  5
38FD
330
18
100
AcDbEntity
  8
DRAW2
100
AcDbLine
 10
1769.805494648065
 20
249.4210200146182
 30
0.0
 11
1769.805494648065
 21
241.4210500146182
 31
0.0
  0
ARC
  5
38FE
330
18
100
AcDbEntity
  8
DRAW2
100
AcDbCircle
 10
1759.305494648065
 20
263.4210500146181
 30
0.0
 40
2.0
100
AcDbArc
 50
0.0
 51
89.99998200000083
  0
LINE
  5
38FF
330
18
100
AcDbEntity
  8
DRAW2
100
AcDbLine
 10
1761.305514648065
 20
261.4210800146182
 30
0.0
 11
1762.305494648065
 21
261.4210800146182
 31
0.0
  0
VIEWPORT
  5
37
330
15
100
AcDbEntity
 67
     1
  8
0
100
AcDbViewport
 10
296.9950122070312
 20
209.9950000476836
 30
0.0
 40
632.1056339387388
 41
423.1939163498098
 68
     1
 69
     1
 12
296.9950122070312
 22
209.9950000476836
 13
0.0
 23
0.0
 14
10.0
 24
10.0
 15
10.0
 25
10.0
 16
0.0
 26
0.0
 36
1.0
 17
0.0
 27
0.0
 37
0.0
 42
50.0
 43
0.0
 44
0.0
 45
423.1939163498098
 50
0.0
 51
0.0
 72
   100
 90
    32768
  1

281
     0
 71
     1
 74
     0
110
0.0
120
0.0
130
0.0
111
1.0
121
0.0
131
0.0
112
0.0
122
1.0
132
0.0
 79
     0
146
0.0
  0
ENDSEC
  0
SECTION
  2
OBJECTS
  0
DICTIONARY
  5
C
330
0
100
AcDbDictionary
281
     1
  3
ACAD_GROUP
350
D
  3
ACAD_IMAGE_VARS
350
7A9
  3
ACAD_LAYOUT
350
1AD
  3
ACAD_MLINESTYLE
350
1B
  3
ACAD_PLOTSETTINGS
350
1AE
  3
ACAD_PLOTSTYLENAME
350
18FC
1001
ACAD
1000
TREAT_AS_HARD
1070
     0
1000
TREAT_AS_HARD
1070
     0
1000
TREAT_AS_HARD
1070
     0
  0
DICTIONARY
  5
18BE
330
18
100
AcDbDictionary
280
     1
281
     1
  3
ACAD_LAYOUTSELFREF
360
18F4
1001
ACAD
1000
TREAT_AS_HARD
1070
     0
1000
TREAT_AS_HARD
1070
     0
  0
DICTIONARY
  5
18BC
330
15
100
AcDbDictionary
280
     1
281
     1
  3
ACAD_LAYOUTSELFREF
360
18F3
1001
ACAD
1000
TREAT_AS_HARD
1070
     0
1000
TREAT_AS_HARD
1070
     0
  0
DICTIONARY
  5
D
102
{ACAD_REACTORS
330
C
102
}
330
C
100
AcDbDictionary
281
     1
1001
ACAD
1000
TREAT_AS_HARD
1070
     0
1000
TREAT_AS_HARD
1070
     0
1000
TREAT_AS_HARD
1070
     0
  0
RASTERVARIABLES
  5
7A9
102
{ACAD_REACTORS
330
C
102
}
330
C
100
AcDbRasterVariables
 90
        0
 70
     1
 71
     1
 72
     0
  0
DICTIONARY
  5
1AD
102
{ACAD_REACTORS
330
C
102
}
330
C
100
AcDbDictionary
281
     1
  3
Model
350
18FE
  3
ﾚｲｱｳﾄ1
350
18FF
1001
ACAD
1000
TREAT_AS_HARD
1070
     0
1000
TREAT_AS_HARD
1070
     0
1000
TREAT_AS_HARD
1070
     0
  0
DICTIONARY
  5
1B
102
{ACAD_REACTORS
330
C
102
}
330
C
100
AcDbDictionary
281
     1
  3
STANDARD
350
1C
1001
ACAD
1000
TREAT_AS_HARD
1070
     0
1000
TREAT_AS_HARD
1070
     0
1000
TREAT_AS_HARD
1070
     0
  0
DICTIONARY
  5
1AE
102
{ACAD_REACTORS
330
C
102
}
330
C
100
AcDbDictionary
281
     1
  3
AdobePDF_A2
350
191B
  3
トレース紙Ａ１
350
7A0
  3
トレース紙Ａ２
350
79E
  3
トレース紙Ａ３
350
79C
  3
トレース紙Ａ４
350
794
  3
モデル
350
91D
  3
モデル_XL-5810
350
92C
  3
普通紙Ａ１からＡ３
350
705
  3
普通紙Ａ１からＡ３_XL-5810
350
A53
  3
普通紙Ａ２からＡ３
350
7A2
  3
普通紙Ａ２からＡ３_XL-5810
350
A52
  3
普通紙Ａ３
350
66A
  3
普通紙Ａ３_XL-5810
350
A51
  3
普通紙Ａ４
350
66B
  3
普通紙Ａ４_XL-5810
350
A50
1001
ACAD
1000
TREAT_AS_HARD
1070
     0
1000
TREAT_AS_HARD
1070
     0
1000
TREAT_AS_HARD
1070
     0
  0
ACDBDICTIONARYWDFLT
  5
18FC
102
{ACAD_REACTORS
330
C
102
}
330
C
100
AcDbDictionary
281
     1
  3
Normal
350
18FD
100
AcDbDictionaryWithDefault
340
18FD
  0
XRECORD
  5
18F4
102
{ACAD_REACTORS
330
18BE
102
}
330
18BE
100
AcDbXrecord
280
     1
340
18
  0
XRECORD
  5
18F3
102
{ACAD_REACTORS
330
18BC
102
}
330
18BC
100
AcDbXrecord
280
     1
340
15
  0
LAYOUT
  5
18FE
102
{ACAD_REACTORS
330
1AD
102
}
330
1AD
100
AcDbPlotSettings
  1

  2
Acrobat Distiller
  4

  6

 40
0.0
 41
0.0
 42
0.0
 43
0.0
 44
0.0
 45
0.0
 46
0.0
 47
0.0
 48
0.0
 49
0.0
140
0.0
141
0.0
142
1.0
143
1.0
 70
  1712
 72
     0
 73
     0
 74
     0
  7

 75
     0
147
1.0
148
0.0
149
0.0
100
AcDbLayout
  1
Model
 70
     1
 71
     0
 10
0.0
 20
0.0
 11
12.0
 21
9.0
 12
0.0
 22
0.0
 32
0.0
 14
0.0
 24
0.0
 34
0.0
 15
0.0
 25
0.0
 35
0.0
146
0.0
 13
0.0
 23
0.0
 33
0.0
 16
1.0
 26
0.0
 36
0.0
 17
0.0
 27
1.0
 37
0.0
 76
     0
330
18
  0
LAYOUT
  5
18FF
102
{ACAD_REACTORS
330
1AD
102
}
330
1AD
100
AcDbPlotSettings
  1
AdobePDF_A2
  2
Adobe PDF
  4
User66
  6
A1
 40
3.174999952316284
 41
3.174999952316284
 42
3.17498779296875
 43
3.17498779296875
 44
420.0
 45
594.0
 46
-3.169999999999999
 47
-3.169999999999999
 48
0.0
 49
0.0
140
594.0
141
420.0
142
1.0
143
1.0
 70
   692
 72
     1
 73
     1
 74
     4
  7
LineScale_10.ctb
 75
    16
147
1.0
148
0.0
149
0.0
100
AcDbLayout
  1
ﾚｲｱｳﾄ1
 70
     1
 71
     1
 10
-0.0049877929687501
 20
-0.0049999523162843
 11
593.9950122070312
 21
419.9950000476837
 12
0.0
 22
0.0
 32
0.0
 14
1.000000000000000E+20
 24
1.000000000000000E+20
 34
1.000000000000000E+20
 15
-1.000000000000000E+20
 25
-1.000000000000000E+20
 35
-1.000000000000000E+20
146
0.0
 13
0.0
 23
0.0
 33
0.0
 16
1.0
 26
0.0
 36
0.0
 17
0.0
 27
1.0
 37
0.0
 76
     0
330
15
331
37
  0
MLINESTYLE
  5
1C
102
{ACAD_REACTORS
330
1B
102
}
330
1B
100
AcDbMlineStyle
  2
STANDARD
 70
     0
  3

 62
   256
 51
90.0
 52
90.0
 71
     2
 49
0.5
 62
   256
  6
BYLAYER
 49
-0.5
 62
   256
  6
BYLAYER
  0
PLOTSETTINGS
  5
191B
102
{ACAD_REACTORS
330
1AE
102
}
330
1AE
100
AcDbPlotSettings
  1
AdobePDF_A2
  2
Adobe PDF
  4
User66
  6
A1
 40
3.174999952316284
 41
3.174999952316284
 42
3.17498779296875
 43
3.17498779296875
 44
420.0
 45
594.0
 46
-3.169999999999999
 47
-3.169999999999999
 48
0.0
 49
0.0
140
594.0
141
420.0
142
1.0
143
1.0
 70
   692
 72
     1
 73
     1
 74
     4
  7
LineScale_10.ctb
 75
    16
147
1.0
148
0.0
149
0.0
  0
PLOTSETTINGS
  5
7A0
102
{ACAD_REACTORS
330
1AE
102
}
330
1AE
100
AcDbPlotSettings
  1
トレース紙Ａ１
  2
SII LP-2150 (D-SCAN)
  4
User117
  6
A1
 40
3.174999952316281
 41
3.174999952316281
 42
3.17498779296875
 43
3.17498779296875
 44
840.9939575195313
 45
593.97900390625
 46
1.0
 47
-7.0
 48
0.0
 49
0.0
140
841.0
141
594.0
142
1.0
143
1.0
 70
   688
 72
     1
 73
     0
 74
     4
  7
LineScale_10.ctb
 75
    16
147
1.0
148
0.0
149
0.0
  0
PLOTSETTINGS
  5
79E
102
{ACAD_REACTORS
330
1AE
102
}
330
1AE
100
AcDbPlotSettings
  1
トレース紙Ａ２
  2
SII LP-2150 (D-SCAN)
  4
User118
  6
A1
 40
3.174999952316281
 41
3.174999952316281
 42
3.17498779296875
 43
3.17498779296875
 44
593.97900390625
 45
419.9889831542968
 46
0.5
 47
-6.5
 48
0.0
 49
0.0
140
594.0
141
420.0
142
1.0
143
1.0
 70
   688
 72
     1
 73
     0
 74
     4
  7
LineScale_10.ctb
 75
    16
147
1.0
148
0.0
149
0.0
  0
PLOTSETTINGS
  5
79C
102
{ACAD_REACTORS
330
1AE
102
}
330
1AE
100
AcDbPlotSettings
  1
トレース紙Ａ３
  2
SII LP-2150 (D-SCAN)
  4
User257
  6
A1
 40
3.174999952316281
 41
3.174999952316281
 42
3.17498779296875
 43
3.17498779296875
 44
419.9889831542968
 45
296.989501953125
 46
1.0
 47
-6.0
 48
0.0
 49
0.0
140
420.0
141
297.0
142
1.0
143
1.0
 70
   688
 72
     1
 73
     0
 74
     4
  7
LineScale_10.ctb
 75
    16
147
1.0
148
0.0
149
0.0
  0
PLOTSETTINGS
  5
794
102
{ACAD_REACTORS
330
1AE
102
}
330
1AE
100
AcDbPlotSettings
  1
トレース紙Ａ４
  2
SII LP-2150 (D-SCAN)
  4
User258
  6
A1
 40
3.174999952316281
 41
3.174999952316281
 42
3.17498779296875
 43
3.175003051757812
 44
296.989501953125
 45
209.9944915771484
 46
0.8
 47
-2.0
 48
0.0
 49
0.0
140
210.0
141
297.0
142
1.0
143
1.0
 70
   688
 72
     1
 73
     1
 74
     4
  7
LineScale_10.ctb
 75
    16
147
1.0
148
0.0
149
0.0
  0
PLOTSETTINGS
  5
91D
102
{ACAD_REACTORS
330
1AE
102
}
330
1AE
100
AcDbPlotSettings
  1
モデル
  2
FUJITSU XL-5800
  4
A4
  6

 40
5.873749732971191
 41
5.704405784606932
 42
5.873748779296875
 43
5.873748779296875
 44
210.0579986572264
 45
296.9259948730469
 46
-934.06
 47
-482.3299999999998
 48
0.0
 49
0.0
140
0.0
141
0.0
142
1.0
143
1.0
 70
  1716
 72
     1
 73
     0
 74
     0
  7
LineScale_10.ctb
 75
    16
147
1.0
148
1033.210332103321
149
625.0
  0
PLOTSETTINGS
  5
92C
102
{ACAD_REACTORS
330
1AE
102
}
330
1AE
100
AcDbPlotSettings
  1
モデル XL-5810
  2
\\PROLIANT1500\FUJITSU XL-5810
  4
A4
  6

 40
5.873749732971191
 41
5.704405784606932
 42
5.873748779296875
 43
5.873748779296875
 44
210.0579986572264
 45
296.9259948730469
 46
-588.8099999999997
 47
-890.54
 48
0.0
 49
0.0
140
0.0
141
0.0
142
1.0
143
1.0
 70
  1716
 72
     1
 73
     1
 74
     0
  7
LineScale_10.ctb
 75
    16
147
1.0
148
1033.210332103321
149
625.0
  0
PLOTSETTINGS
  5
705
102
{ACAD_REACTORS
330
1AE
102
}
330
1AE
100
AcDbPlotSettings
  1
普通紙Ａ１からＡ３
  2
FUJITSU XL-5800
  4
A3
  6
A1
 40
5.873749732971191
 41
5.873747825622557
 42
5.70440673828125
 43
5.873748779296875
 44
296.9259948730469
 45
420.1159973144531
 46
-4.129999999999999
 47
-7.07
 48
0.0
 49
0.0
140
841.0
141
594.0
142
1.0
143
2.0
 70
   688
 72
     1
 73
     1
 74
     4
  7
LineScale_05.ctb
 75
    17
147
0.5
148
0.0
149
0.0
  0
PLOTSETTINGS
  5
A53
102
{ACAD_REACTORS
330
1AE
102
}
330
1AE
100
AcDbPlotSettings
  1
普通紙Ａ１からＡ３ XL-5810
  2
\\PROLIANT1500\FUJITSU XL-5810
  4
A3
  6
A1
 40
5.873749732971191
 41
5.873747825622557
 42
5.70440673828125
 43
5.873748779296875
 44
296.9259948730469
 45
420.1159973144531
 46
-4.129999999999999
 47
-7.07
 48
0.0
 49
0.0
140
841.0
141
594.0
142
1.0
143
2.0
 70
   688
 72
     1
 73
     1
 74
     4
  7
LineScale_05.ctb
 75
    17
147
0.5
148
0.0
149
0.0
  0
PLOTSETTINGS
  5
7A2
102
{ACAD_REACTORS
330
1AE
102
}
330
1AE
100
AcDbPlotSettings
  1
普通紙Ａ２からＡ３
  2
FUJITSU XL-5800
  4
A3
  6
A1
 40
5.873749732971191
 41
5.873747825622557
 42
5.70440673828125
 43
5.873748779296875
 44
296.9259948730469
 45
420.1159973144531
 46
-5.0
 47
-7.0
 48
0.0
 49
0.0
140
594.0
141
420.0
142
0.7071066999999999
143
1.0
 70
   672
 72
     1
 73
     1
 74
     4
  7
LineScale_07.ctb
 75
     0
147
0.7071066999999999
148
0.0
149
0.0
  0
PLOTSETTINGS
  5
A52
102
{ACAD_REACTORS
330
1AE
102
}
330
1AE
100
AcDbPlotSettings
  1
普通紙Ａ２からＡ３ XL-5810
  2
\\PROLIANT1500\FUJITSU XL-5810
  4
A3
  6
A1
 40
5.873749732971191
 41
5.873747825622557
 42
5.70440673828125
 43
5.873748779296875
 44
296.9259948730469
 45
420.1159973144531
 46
-5.0
 47
-7.0
 48
0.0
 49
0.0
140
594.0
141
420.0
142
0.7071066999999999
143
1.0
 70
   672
 72
     1
 73
     1
 74
     4
  7
LineScale_07.ctb
 75
     0
147
0.7071066999999999
148
0.0
149
0.0
  0
PLOTSETTINGS
  5
66A
102
{ACAD_REACTORS
330
1AE
102
}
330
1AE
100
AcDbPlotSettings
  1
普通紙Ａ３
  2
FUJITSU XL-5800
  4
A3
  6
A1
 40
5.873749732971191
 41
5.873747825622557
 42
5.70440673828125
 43
5.873748779296875
 44
296.9259948730469
 45
420.1159973144531
 46
-3.83
 47
-6.82
 48
0.0
 49
0.0
140
420.0
141
297.0
142
1.0
143
1.0
 70
   688
 72
     1
 73
     1
 74
     4
  7
LineScale_10.ctb
 75
    16
147
1.0
148
0.0
149
0.0
  0
PLOTSETTINGS
  5
A51
102
{ACAD_REACTORS
330
1AE
102
}
330
1AE
100
AcDbPlotSettings
  1
普通紙Ａ３ XL-5810
  2
\\PROLIANT1500\FUJITSU XL-5810
  4
A3
  6
A1
 40
5.873749732971191
 41
5.873747825622557
 42
5.70440673828125
 43
5.873748779296875
 44
296.9259948730469
 45
420.1159973144531
 46
-3.83
 47
-6.82
 48
0.0
 49
0.0
140
420.0
141
297.0
142
1.0
143
1.0
 70
   688
 72
     1
 73
     1
 74
     4
  7
LineScale_10.ctb
 75
    16
147
1.0
148
0.0
149
0.0
  0
PLOTSETTINGS
  5
66B
102
{ACAD_REACTORS
330
1AE
102
}
330
1AE
100
AcDbPlotSettings
  1
普通紙Ａ４
  2
FUJITSU XL-5800
  4
A4
  6
A1
 40
5.873749732971191
 41
5.704405784606932
 42
5.873748779296875
 43
5.873748779296875
 44
210.0579986572264
 45
296.9259948730469
 46
-6.82
 47
-3.83
 48
0.0
 49
0.0
140
420.0
141
297.0
142
1.0
143
1.0
 70
   688
 72
     1
 73
     0
 74
     4
  7
LineScale_10.ctb
 75
    16
147
1.0
148
0.0
149
0.0
  0
PLOTSETTINGS
  5
A50
102
{ACAD_REACTORS
330
1AE
102
}
330
1AE
100
AcDbPlotSettings
  1
普通紙Ａ４ XL-5810
  2
\\PROLIANT1500\FUJITSU XL-5810
  4
A4
  6
A1
 40
5.873749732971191
 41
5.704405784606932
 42
5.873748779296875
 43
5.873748779296875
 44
210.0579986572264
 45
296.9259948730469
 46
-6.82
 47
-3.83
 48
0.0
 49
0.0
140
420.0
141
297.0
142
1.0
143
1.0
 70
   688
 72
     1
 73
     0
 74
     4
  7
LineScale_10.ctb
 75
    16
147
1.0
148
0.0
149
0.0
  0
ACDBPLACEHOLDER
  5
18FD
102
{ACAD_REACTORS
330
18FC
102
}
330
18FC
  0
ENDSEC
  0
EOF
